  0
SECTION
  2
HEADER
  9
$ACADVER
  1
AC1009
  9
$DWGCODEPAGE
  3
dos932
  9
$INSBASE
 10
0.0
 20
0.0
 30
0.0
  9
$EXTMIN
 10
-418.29069364849971
 20
-440.2770878983174
 30
-0.0030516297567118
  9
$EXTMAX
 10
746.85059717955301
 20
836.33423682341163
 30
50.001526135026353
  9
$LIMMIN
 10
-2970.0
 20
-2100.0
  9
$LIMMAX
 10
2970.0
 20
2100.0
  9
$ORTHOMODE
 70
     1
  9
$REGENMODE
 70
     1
  9
$FILLMODE
 70
     1
  9
$QTEXTMODE
 70
     0
  9
$MIRRTEXT
 70
     0
  9
$LTSCALE
 40
20.0
  9
$ATTMODE
 70
     1
  9
$TEXTSIZE
 40
64.0
  9
$TRACEWID
 40
0.05
  9
$TEXTSTYLE
  7
STANDARD
  9
$CLAYER
  8
SIZE
  9
$CELTYPE
  6
CONTINUOUS
  9
$CECOLOR
 62
     7
  9
$DIMSCALE
 40
1.0
  9
$DIMASZ
 40
12.0
  9
$DIMEXO
 40
20.0
  9
$DIMDLI
 40
200.0
  9
$DIMRND
 40
0.0
  9
$DIMDLE
 40
0.0
  9
$DIMEXE
 40
20.0
  9
$DIMTP
 40
0.0
  9
$DIMTM
 40
0.0
  9
$DIMTXT
 40
64.0
  9
$DIMCEN
 40
0.09
  9
$DIMTSZ
 40
0.0
  9
$DIMTOL
 70
     0
  9
$DIMLIM
 70
     0
  9
$DIMTIH
 70
     0
  9
$DIMTOH
 70
     0
  9
$DIMSE1
 70
     0
  9
$DIMSE2
 70
     0
  9
$DIMTAD
 70
     1
  9
$DIMZIN
 70
     8
  9
$DIMBLK
  1

  9
$DIMASO
 70
     1
  9
$DIMSHO
 70
     0
  9
$DIMPOST
  1

  9
$DIMAPOST
  1

  9
$DIMALT
 70
     0
  9
$DIMALTD
 70
     2
  9
$DIMALTF
 40
25.399999999999999
  9
$DIMLFAC
 40
1.0
  9
$DIMTOFL
 70
     1
  9
$DIMTVP
 40
0.0
  9
$DIMTIX
 70
     1
  9
$DIMSOXD
 70
     0
  9
$DIMSAH
 70
     0
  9
$DIMBLK1
  1

  9
$DIMBLK2
  1

  9
$DIMSTYLE
  2
STANDARD
  9
$DIMCLRD
 70
     7
  9
$DIMCLRE
 70
     7
  9
$DIMCLRT
 70
     7
  9
$DIMTFAC
 40
1.0
  9
$DIMGAP
 40
25.0
  9
$LUNITS
 70
     2
  9
$LUPREC
 70
     4
  9
$SKETCHINC
 40
0.1
  9
$FILLETRAD
 40
3.0
  9
$AUNITS
 70
     1
  9
$AUPREC
 70
     3
  9
$MENU
  1
ACAD
  9
$ELEVATION
 40
0.0
  9
$PELEVATION
 40
0.0
  9
$THICKNESS
 40
0.0
  9
$LIMCHECK
 70
     0
  9
$CHAMFERA
 40
0.0
  9
$CHAMFERB
 40
0.0
  9
$SKPOLY
 70
     0
  9
$TDCREATE
 40
2453019.62301037
  9
$TDUPDATE
 40
2459268.674677789
  9
$TDINDWG
 40
1.7198770949
  9
$TDUSRTIMER
 40
1.7198770949
  9
$USRTIMER
 70
     1
  9
$ANGBASE
 50
0.0
  9
$ANGDIR
 70
     0
  9
$PDMODE
 70
     3
  9
$PDSIZE
 40
-2.0
  9
$PLINEWID
 40
0.0
  9
$SPLFRAME
 70
     0
  9
$SPLINETYPE
 70
     6
  9
$SPLINESEGS
 70
     8
  9
$SURFTAB1
 70
     6
  9
$SURFTAB2
 70
     6
  9
$SURFTYPE
 70
     6
  9
$SURFU
 70
     6
  9
$SURFV
 70
     6
  9
$UCSNAME
  2

  9
$UCSORG
 10
0.0
 20
0.0
 30
0.0
  9
$UCSXDIR
 10
1.0
 20
0.0
 30
0.0
  9
$UCSYDIR
 10
0.0
 20
1.0
 30
0.0
  9
$PUCSNAME
  2

  9
$PUCSORG
 10
0.0
 20
0.0
 30
0.0
  9
$PUCSXDIR
 10
1.0
 20
0.0
 30
0.0
  9
$PUCSYDIR
 10
0.0
 20
1.0
 30
0.0
  9
$USERI1
 70
     0
  9
$USERI2
 70
     0
  9
$USERI3
 70
     0
  9
$USERI4
 70
     0
  9
$USERI5
 70
     0
  9
$USERR1
 40
20.0
  9
$USERR2
 40
0.0
  9
$USERR3
 40
0.0
  9
$USERR4
 40
0.0
  9
$USERR5
 40
0.0
  9
$WORLDVIEW
 70
     1
  9
$SHADEDGE
 70
     3
  9
$SHADEDIF
 70
    70
  9
$TILEMODE
 70
     1
  9
$MAXACTVP
 70
    48
  9
$PINSBASE
 10
0.0
 20
0.0
 30
0.0
  9
$PLIMCHECK
 70
     0
  9
$PEXTMIN
 10
-100000000000000000000.0
 20
-100000000000000000000.0
 30
-100000000000000000000.0
  9
$PEXTMAX
 10
100000000000000000000.0
 20
100000000000000000000.0
 30
100000000000000000000.0
  9
$PLIMMIN
 10
0.0
 20
0.0
  9
$PLIMMAX
 10
12.0
 20
9.0
  9
$UNITMODE
 70
     0
  9
$VISRETAIN
 70
     0
  9
$PLINEGEN
 70
     0
  9
$PSLTSCALE
 70
     0
  9
$TREEDEPTH
 70
  3020
  9
$ATTDIA
 70
     0
  9
$ATTREQ
 70
     1
  9
$BLIPMODE
 70
     1
  9
$COORDS
 70
     1
  9
$DRAGMODE
 70
     2
  9
$OSMODE
 70
     0
  9
$HANDLING
 70
     0
  9
$HANDSEED
  5
FD4F
  0
ENDSEC
  0
SECTION
  2
TABLES
  0
TABLE
  2
LTYPE
 70
     2
  0
LTYPE
  2
CONTINUOUS
 70
     0
  3
実線
 72
    65
 73
     0
 40
0.0
  0
LTYPE
  2
DASHDOT
 70
     0
  3
____ _ ____ _ ____ _ ____ _ ____ _ ____ _ ____
 72
    65
 73
     4
 40
5.5
 49
4.0
 49
-0.6
 49
0.3
 49
-0.6
  0
ENDTAB
  0
TABLE
  2
LAYER
 70
    12
  0
LAYER
  2
0
 70
     0
 62
     7
  6
CONTINUOUS
  0
LAYER
  2
BASIS
 70
     0
 62
     6
  6
DASHDOT
  0
LAYER
  2
OUTLINE
 70
     0
 62
     3
  6
CONTINUOUS
  0
LAYER
  2
DETAIL
 70
     0
 62
     5
  6
CONTINUOUS
  0
LAYER
  2
SIZE
 70
     0
 62
    30
  6
CONTINUOUS
  0
LAYER
  2
ARRANGE
 70
     0
 62
     1
  6
CONTINUOUS
  0
LAYER
  2
DEFPOINTS
 70
     0
 62
     7
  6
CONTINUOUS
  0
LAYER
  2
ETC
 70
     0
 62
    61
  6
CONTINUOUS
  0
LAYER
  2
FIX
 70
     0
 62
    11
  6
CONTINUOUS
  0
LAYER
  2
NOTE
 70
     0
 62
     4
  6
CONTINUOUS
  0
LAYER
  2
SERVICESPACE
 70
     0
 62
     2
  6
DASHDOT
  0
LAYER
  2
SYMBOLLINE
 70
    64
 62
    15
  6
CONTINUOUS
  0
ENDTAB
  0
TABLE
  2
STYLE
 70
     1
  0
STYLE
  2
STANDARD
 70
     0
 40
64.0
 41
0.9
 50
0.0
 71
     0
 42
64.0
  3
SIMPLEX.shx
  4
BIGFONT.shx
  0
ENDTAB
  0
TABLE
  2
APPID
 70
    19
  0
APPID
  2
ACAD
 70
     0
  0
APPID
  2
AUTOCAD_POSTSCRIPT_FIGURE
 70
     0
  0
APPID
  2
ACAD_EXEMPT_FROM_CAD_STANDARDS
 70
     0
  0
APPID
  2
ACAD_PSEXT
 70
     0
  0
APPID
  2
ACAUTHENVIRON
 70
     0
  0
APPID
  2
GENIUS_GENOENT_13
 70
     0
  0
APPID
  2
GENIUS_GENCFG_13
 70
     0
  0
APPID
  2
GENIUS_GENCFG0_13
 70
     0
  0
APPID
  2
GENIUS_GENCFG1_13
 70
     0
  0
APPID
  2
GENIUS_GENCFG2_13
 70
     0
  0
APPID
  2
GENIUS_GENCFG3_13
 70
     0
  0
APPID
  2
GENIUS_GENCFG4_13
 70
     0
  0
APPID
  2
GENIUS_GEVCFG0_13
 70
     0
  0
APPID
  2
CONTENTBLOCKICON
 70
     0
  0
APPID
  2
CONTENTBLOCKDESCRIPTION
 70
     0
  0
APPID
  2
ACAD_NAV_VCDISPLAY
 70
     0
  0
APPID
  2
ACAD_MLEADERVER
 70
     0
  0
APPID
  2
ACDBDYNAMICBLOCKTRUENAME
 70
     0
  0
APPID
  2
ACDBDYNAMICBLOCKGUID
 70
     0
  0
ENDTAB
  0
TABLE
  2
DIMSTYLE
 70
     1
  0
DIMSTYLE
  2
STANDARD
 70
     0
  3

  4

  5
_ORIGIN
  6

  7

 40
1.0
 41
12.0
 42
20.0
 43
200.0
 44
20.0
 45
0.0
 46
0.0
 47
0.0
 48
0.0
140
64.0
141
0.09
142
0.0
143
25.399999999999999
144
1.0
145
0.0
146
1.0
147
25.0
 71
     0
 72
     0
 73
     0
 74
     0
 75
     0
 76
     0
 77
     1
 78
     8
170
     0
171
     2
172
     1
173
     0
174
     1
175
     0
176
     7
177
     7
178
     7
  0
ENDTAB
  0
TABLE
  2
VIEW
 70
     1
  0
VIEW
  2
ALL
 70
     0
 40
4282.6198079999986
 10
0.0
 20
41.309904000000003
 41
5940.0
 11
0.0
 21
0.0
 31
1.0
 12
0.0
 22
0.0
 32
0.0
 42
50.0
 43
0.0
 44
0.0
 50
0.0
 71
     0
  0
ENDTAB
  0
TABLE
  2
UCS
 70
     0
  0
ENDTAB
  0
TABLE
  2
VPORT
 70
     1
  0
VPORT
  2
*ACTIVE
 70
     0
 10
0.0
 20
0.0
 11
1.0
 21
1.0
 12
164.2799517655267
 22
198.02857446254711
 13
0.0
 23
0.0
 14
1.0
 24
1.0
 15
0.0
 25
0.0
 16
0.0
 26
0.0
 36
1.0
 17
0.0
 27
0.0
 37
0.0
 40
890.28509499210679
 41
2.1453957996768982
 42
50.0
 43
0.0
 44
0.0
 50
0.0
 51
0.0
 71
     0
 72
  1000
 73
     1
 74
     3
 75
     0
 76
     0
 77
     0
 78
     0
  0
ENDTAB
  0
ENDSEC
  0
SECTION
  2
BLOCKS
  0
BLOCK
  8
0
  2
_ORIGIN
 70
     0
 10
0.0
 20
0.0
 30
0.0
  3
_ORIGIN
  1
_ORIGIN
  0
CIRCLE
  8
SIZE
  6
CONTINUOUS
 62
    30
 10
0.0
 20
0.0
 30
0.0
 40
0.5
  0
LINE
  8
SIZE
  6
CONTINUOUS
 62
    30
 10
0.0
 20
0.0
 30
0.0
 11
-1.0
 21
0.0
 31
0.0
  0
ENDBLK
  8
0
  0
ENDSEC
  0
SECTION
  2
ENTITIES
  0
CIRCLE
  8
ARRANGE
  6
CONTINUOUS
 62
     1
 10
0.0
 20
0.0
 30
0.0
 40
40.0
  0
POINT
  8
ARRANGE
  6
CONTINUOUS
 62
     1
 10
0.0
 20
0.0
 30
0.0
  0
LINE
  8
BASIS
  6
DASHDOT
 62
     6
 10
0.0
 20
-316.94072419497911
 30
0.0
 11
0.0
 21
67.990326353362434
 31
0.0
  0
LINE
  8
BASIS
  6
DASHDOT
 62
     6
 10
267.05574306446971
 20
-153.3126226735078
 30
0.0
 11
-267.05574306446971
 21
-153.3126226735078
 31
0.0
  0
LINE
  8
SIZE
  6
CONTINUOUS
 62
    30
 10
-186.73168794215169
 20
17.232816251641221
 30
0.0
 11
-186.73168794215169
 21
155.69690527572109
 31
0.0
  0
LINE
  8
SIZE
  6
CONTINUOUS
 62
    30
 10
186.73168794215169
 20
17.232816251641221
 30
0.0
 11
186.73168794215169
 21
155.69690527572109
 31
0.0
  0
LINE
  8
SIZE
  6
CONTINUOUS
 62
    30
 10
-174.73168794215169
 20
135.69690527572109
 30
0.0
 11
174.73168794215169
 21
135.69690527572109
 31
0.0
  0
CIRCLE
  8
SIZE
  6
CONTINUOUS
 62
    30
 10
-186.73168794215169
 20
135.69690527572109
 30
0.0
 40
6.0
  0
LINE
  8
SIZE
  6
CONTINUOUS
 62
    30
 10
-186.73168794215169
 20
135.69690527572109
 30
0.0
 11
-174.73168794215169
 21
135.69690527572109
 31
0.0
  0
CIRCLE
  8
SIZE
  6
CONTINUOUS
 62
    30
 10
186.73168794215169
 20
135.69690527572109
 30
0.0
 40
6.0
  0
LINE
  8
SIZE
  6
CONTINUOUS
 62
    30
 10
186.73168794215169
 20
135.69690527572109
 30
0.0
 11
174.73168794215169
 21
135.69690527572109
 31
0.0
  0
TEXT
  8
SIZE
  6
CONTINUOUS
 62
    30
 10
-74.132137631092874
 20
160.69690527572109
 30
0.0
 40
64.0
  1
373
 41
0.9
 72
     1
 11
-0.0749947739500385
 21
160.69690527572109
 31
0.0
  0
POINT
  8
DEFPOINTS
  6
CONTINUOUS
 62
    30
 10
-186.73168794215169
 20
-2.7671837483587751
 30
0.0
  0
POINT
  8
DEFPOINTS
  6
CONTINUOUS
 62
    30
 10
186.73168794215169
 20
-2.7671837483587751
 30
0.0
  0
POINT
  8
DEFPOINTS
  6
CONTINUOUS
 62
    30
 10
186.73168794215169
 20
135.69690527572109
 30
0.0
  0
CIRCLE
  8
FIX
  6
CONTINUOUS
 62
    11
 10
224.47620874596521
 20
-142.83446510184939
 30
0.0
 40
5.0
  0
LINE
  8
NOTE
  6
CONTINUOUS
 62
     4
 10
224.47620874596521
 20
-166.25784676836651
 30
0.0
 11
224.47620874596521
 21
-119.6110834353324
 31
0.0
  0
LINE
  8
NOTE
  6
CONTINUOUS
 62
     4
 10
252.849231557049
 20
-142.83446510184939
 30
0.0
 11
195.6031859348814
 21
-142.83446510184939
 31
0.0
  0
CIRCLE
  8
FIX
  6
CONTINUOUS
 62
    11
 10
-224.5
 20
-142.81825996359339
 30
0.0
 40
5.0
  0
LINE
  8
NOTE
  6
CONTINUOUS
 62
     4
 10
-224.5
 20
-166.24164163011051
 30
0.0
 11
-224.5
 21
-119.59487829707631
 31
0.0
  0
LINE
  8
NOTE
  6
CONTINUOUS
 62
     4
 10
-196.12697718891619
 20
-142.81825996359339
 30
0.0
 11
-252.87302281108381
 21
-142.81825996359339
 31
0.0
  0
LINE
  8
SIZE
  6
CONTINUOUS
 62
    30
 10
-224.5
 20
-99.59487829707632
 30
0.0
 11
-224.5
 21
308.1527807195796
 31
0.0
  0
LINE
  8
SIZE
  6
CONTINUOUS
 62
    30
 10
224.47620874596521
 20
-99.589972653990571
 30
0.0
 11
224.47620874596521
 21
308.1527807195796
 31
0.0
  0
LINE
  8
SIZE
  6
CONTINUOUS
 62
    30
 10
-212.5
 20
288.1527807195796
 30
0.0
 11
212.47620874596521
 21
288.1527807195796
 31
0.0
  0
CIRCLE
  8
SIZE
  6
CONTINUOUS
 62
    30
 10
-224.5
 20
288.1527807195796
 30
0.0
 40
6.0
  0
LINE
  8
SIZE
  6
CONTINUOUS
 62
    30
 10
-224.5
 20
288.1527807195796
 30
0.0
 11
-212.5
 21
288.1527807195796
 31
0.0
  0
CIRCLE
  8
SIZE
  6
CONTINUOUS
 62
    30
 10
224.47620874596521
 20
288.1527807195796
 30
0.0
 40
6.0
  0
LINE
  8
SIZE
  6
CONTINUOUS
 62
    30
 10
224.47620874596521
 20
288.1527807195796
 30
0.0
 11
212.47620874596521
 21
288.1527807195796
 31
0.0
  0
TEXT
  8
SIZE
  6
CONTINUOUS
 62
    30
 10
-72.685714285714255
 20
313.1527807195796
 30
0.0
 40
64.0
  1
449
 41
0.9
 72
     1
 11
0.0000000000000284
 21
313.1527807195796
 31
0.0
  0
POINT
  8
DEFPOINTS
  6
CONTINUOUS
 62
    30
 10
-224.5
 20
-119.59487829707631
 30
0.0
  0
POINT
  8
DEFPOINTS
  6
CONTINUOUS
 62
    30
 10
224.47620874596521
 20
-119.5899726539906
 30
0.0
  0
POINT
  8
DEFPOINTS
  6
CONTINUOUS
 62
    30
 10
224.47620874596521
 20
288.1527807195796
 30
0.0
  0
LINE
  8
SIZE
  6
CONTINUOUS
 62
    30
 10
244.84254665769171
 20
-122.7760384009098
 30
0.0
 11
244.8425466576918
 21
447.28727189275912
 31
0.0
  0
LINE
  8
SIZE
  6
CONTINUOUS
 62
    30
 10
-244.63611651352431
 20
-122.8295594587637
 30
0.0
 11
-244.63611651352431
 21
447.28727189275912
 31
0.0
  0
LINE
  8
SIZE
  6
CONTINUOUS
 62
    30
 10
232.8425466576918
 20
427.28727189275912
 30
0.0
 11
-232.63611651352431
 21
427.28727189275912
 31
0.0
  0
CIRCLE
  8
SIZE
  6
CONTINUOUS
 62
    30
 10
244.8425466576918
 20
427.28727189275912
 30
0.0
 40
6.0
  0
LINE
  8
SIZE
  6
CONTINUOUS
 62
    30
 10
244.8425466576918
 20
427.28727189275912
 30
0.0
 11
232.8425466576918
 21
427.28727189275912
 31
0.0
  0
CIRCLE
  8
SIZE
  6
CONTINUOUS
 62
    30
 10
-244.63611651352431
 20
427.28727189275912
 30
0.0
 40
6.0
  0
LINE
  8
SIZE
  6
CONTINUOUS
 62
    30
 10
-244.63611651352431
 20
427.28727189275912
 30
0.0
 11
-232.63611651352431
 21
427.28727189275912
 31
0.0
  0
TEXT
  8
SIZE
  6
CONTINUOUS
 62
    30
 10
-72.610712543697574
 20
452.28727189275912
 30
0.0
 40
64.0
  1
489
 41
0.9
 72
     1
 11
0.0750017420166955
 21
452.28727189275912
 31
0.0
  0
POINT
  8
DEFPOINTS
  6
CONTINUOUS
 62
    30
 10
244.84254665769171
 20
-142.77603840090981
 30
0.0
  0
POINT
  8
DEFPOINTS
  6
CONTINUOUS
 62
    30
 10
-244.63611651352431
 20
-142.8295594587637
 30
0.0
  0
POINT
  8
DEFPOINTS
  6
CONTINUOUS
 62
    30
 10
-244.63611651352431
 20
427.28727189275912
 30
0.0
  0
LINE
  8
SIZE
  6
CONTINUOUS
 62
    30
 10
-195.50330773246401
 20
0.0
 30
0.0
 11
-312.17579164878958
 21
0.0000000000000568
 31
0.0
  0
LINE
  8
SIZE
  6
CONTINUOUS
 62
    30
 10
-205.5077412842239
 20
-305.42058912159081
 30
0.0
 11
-312.17579164878958
 21
-305.42058912159081
 31
0.0
  0
LINE
  8
SIZE
  6
CONTINUOUS
 62
    30
 10
-292.17579164878958
 20
-12.0
 30
0.0
 11
-292.17579164878958
 21
-293.42058912159081
 31
0.0
  0
CIRCLE
  8
SIZE
  6
CONTINUOUS
 62
    30
 10
-292.17579164878958
 20
0.0000000000000568
 30
0.0
 40
6.0
  0
LINE
  8
SIZE
  6
CONTINUOUS
 62
    30
 10
-292.17579164878958
 20
0.0000000000000568
 30
0.0
 11
-292.17579164878958
 21
-11.99999999999994
 31
0.0
  0
CIRCLE
  8
SIZE
  6
CONTINUOUS
 62
    30
 10
-292.17579164878958
 20
-305.42058912159081
 30
0.0
 40
6.0
  0
LINE
  8
SIZE
  6
CONTINUOUS
 62
    30
 10
-292.17579164878958
 20
-305.42058912159081
 30
0.0
 11
-292.17579164878958
 21
-293.42058912159081
 31
0.0
  0
TEXT
  8
SIZE
  6
CONTINUOUS
 62
    30
 10
-317.17579164878958
 20
-226.92472982813791
 30
0.0
 40
64.0
  1
305
 50
90.0
 41
0.9
 72
     1
 11
-317.17579164878958
 21
-152.86758697099509
 31
0.0
  0
POINT
  8
DEFPOINTS
  6
CONTINUOUS
 62
    30
 10
-175.50330773246401
 20
0.0
 30
0.0
  0
POINT
  8
DEFPOINTS
  6
CONTINUOUS
 62
    30
 10
-185.5077412842239
 20
-305.42058912159081
 30
0.0
  0
POINT
  8
DEFPOINTS
  6
CONTINUOUS
 62
    30
 10
-292.17579164878958
 20
-305.42058912159081
 30
0.0
  0
TEXT
  8
NOTE
  6
CONTINUOUS
 62
     4
 10
309.04449357503108
 20
76.201908035336089
 30
0.0
 40
64.0
  1
AH
 41
0.9
  0
LINE
  8
NOTE
  6
CONTINUOUS
 62
     4
 10
227.81556632765981
 20
-137.59677570369121
 30
0.0
 11
224.47620874596521
 21
-142.83446510184939
 31
0.0
  0
LINE
  8
NOTE
  6
CONTINUOUS
 62
     4
 10
224.47620874596521
 20
-142.83446510184939
 30
0.0
 11
224.7493231933868
 21
-136.62881382348951
 31
0.0
  0
LINE
  8
NOTE
  6
CONTINUOUS
 62
     4
 10
224.47620874596521
 20
-142.83446510184939
 30
0.0
 11
228.08868077508129
 21
-131.3911244253313
 31
0.0
  0
LINE
  8
NOTE
  6
CONTINUOUS
 62
     4
 10
228.08868077508129
 20
-131.39112442533141
 30
0.0
 11
288.31712274996471
 21
59.39639569371775
 31
0.0
  0
LINE
  8
NOTE
  6
CONTINUOUS
 62
     4
 10
288.31712274996471
 20
59.39639569371775
 30
0.0
 11
424.05997989282167
 21
59.39639569371775
 31
0.0
  0
TEXT
  8
NOTE
  6
CONTINUOUS
 62
     4
 10
-47.300048776466639
 20
-186.5123890884895
 30
0.0
 40
64.0
  1
EA
 41
0.9
 72
     1
 11
0.6999512235333611
 21
-186.5123890884895
 31
0.0
  0
LINE
  8
SIZE
  6
CONTINUOUS
 62
    30
 10
562.60134695360193
 20
-85.314137591942824
 30
0.0
 11
115.161895253872
 21
-139.39364708130941
 31
0.0
  0
LINE
  8
SIZE
  6
CONTINUOUS
 62
    30
 10
-115.161895253872
 20
-167.23159826570631
 30
0.0
 11
-127.0751947628932
 21
-168.6714922924854
 31
0.0
  0
TEXT
  8
SIZE
  6
CONTINUOUS
 62
    30
 10
321.8404745299124
 20
-89.231620070215754
 30
0.0
 40
64.0
  1
φ208
 50
6.8915929118478516
 41
0.9
 72
     1
 11
435.39123785018342
 21
-75.507373003543591
 31
0.0
  0
LINE
  8
SIZE
  6
CONTINUOUS
 62
    30
 10
-103.2485957448508
 20
-165.79170423892711
 30
0.0
 11
103.2485957448508
 21
-140.8335411080885
 31
0.0
  0
CIRCLE
  8
SIZE
  6
CONTINUOUS
 62
    30
 10
-103.2485957448508
 20
-165.79170423892711
 30
0.0
 40
6.0
  0
LINE
  8
SIZE
  6
CONTINUOUS
 62
    30
 10
-103.2485957448508
 20
-165.79170423892711
 30
0.0
 11
-115.161895253872
 21
-167.23159826570631
 31
0.0
  0
CIRCLE
  8
SIZE
  6
CONTINUOUS
 62
    30
 10
103.2485957448508
 20
-140.8335411080885
 30
0.0
 40
6.0
  0
LINE
  8
SIZE
  6
CONTINUOUS
 62
    30
 10
103.2485957448508
 20
-140.8335411080885
 30
0.0
 11
115.161895253872
 21
-139.3936470813093
 31
0.0
  0
POINT
  8
DEFPOINTS
  6
CONTINUOUS
 62
    30
 10
103.2485957448508
 20
-140.8335411080885
 30
0.0
  0
POINT
  8
DEFPOINTS
  6
CONTINUOUS
 62
    30
 10
-103.2485957448508
 20
-165.79170423892711
 30
0.0
  0
LINE
  8
SIZE
  6
CONTINUOUS
 62
    30
 10
489.27237520268
 20
-326.85301958614963
 30
0.0
 11
101.78694127970461
 21
-189.41551154575691
 31
0.0
  0
LINE
  8
SIZE
  6
CONTINUOUS
 62
    30
 10
-101.78694127970461
 20
-117.20973380125881
 30
0.0
 11
-113.09660142189399
 21
-113.1983017043422
 31
0.0
  0
TEXT
  8
SIZE
  6
CONTINUOUS
 62
    30
 10
282.25589743016269
 20
-226.9001890576404
 30
0.0
 40
64.0
  1
φ192
 50
340.47087367878862
 41
0.9
 72
     1
 11
384.88298489185848
 21
-263.30107002851759
 31
0.0
  0
LINE
  8
SIZE
  6
CONTINUOUS
 62
    30
 10
-90.477281137515206
 20
-121.2211658981753
 30
0.0
 11
90.477281137515206
 21
-185.40407944884029
 31
0.0
  0
CIRCLE
  8
SIZE
  6
CONTINUOUS
 62
    30
 10
-90.477281137515206
 20
-121.2211658981753
 30
0.0
 40
6.0
  0
LINE
  8
SIZE
  6
CONTINUOUS
 62
    30
 10
-90.477281137515206
 20
-121.2211658981753
 30
0.0
 11
-101.78694127970461
 21
-117.20973380125869
 31
0.0
  0
CIRCLE
  8
SIZE
  6
CONTINUOUS
 62
    30
 10
90.477281137515206
 20
-185.40407944884029
 30
0.0
 40
6.0
  0
LINE
  8
SIZE
  6
CONTINUOUS
 62
    30
 10
90.477281137515206
 20
-185.40407944884029
 30
0.0
 11
101.78694127970461
 21
-189.41551154575691
 31
0.0
  0
POINT
  8
DEFPOINTS
  6
CONTINUOUS
 62
    30
 10
90.477281137515206
 20
-185.40407944884029
 30
0.0
  0
POINT
  8
DEFPOINTS
  6
CONTINUOUS
 62
    30
 10
-90.477281137515206
 20
-121.2211658981753
 30
0.0
  0
LINE
  8
DETAIL
  6
CONTINUOUS
 62
     5
 10
104.03546592388361
 20
-153.3126226735078
 30
0.0
 11
103.5033152030452
 21
-143.52104941008341
 31
0.0
  0
LINE
  8
DETAIL
  6
CONTINUOUS
 62
     5
 10
103.5033152030452
 20
-143.52104941008341
 30
0.0
 11
102.0132931846978
 21
-133.5166158583238
 31
0.0
  0
LINE
  8
DETAIL
  6
CONTINUOUS
 62
     5
 10
102.0132931846978
 20
-133.5166158583238
 30
0.0
 11
99.831475229261059
 21
-123.9911179553185
 31
0.0
  0
LINE
  8
DETAIL
  6
CONTINUOUS
 62
     5
 10
99.831475229261059
 20
-123.9911179553185
 30
0.0
 11
96.532140760063385
 21
-114.5188351243971
 31
0.0
  0
LINE
  8
DETAIL
  6
CONTINUOUS
 62
     5
 10
96.532140760063385
 20
-114.5188351243971
 30
0.0
 11
92.487795281692911
 21
-105.4722728701468
 31
0.0
  0
LINE
  8
DETAIL
  6
CONTINUOUS
 62
     5
 10
92.487795281692911
 20
-105.4722728701468
 30
0.0
 11
87.48557850581301
 21
-97.011076408817644
 31
0.0
  0
LINE
  8
DETAIL
  6
CONTINUOUS
 62
     5
 10
87.48557850581301
 20
-97.011076408817644
 30
0.0
 11
81.685135648675669
 21
-88.975600524159972
 31
0.0
  0
LINE
  8
DETAIL
  6
CONTINUOUS
 62
     5
 10
81.685135648675669
 20
-88.975600524159972
 30
0.0
 11
75.299326998616493
 21
-81.472275360340063
 31
0.0
  0
LINE
  8
DETAIL
  6
CONTINUOUS
 62
     5
 10
75.299326998616493
 20
-81.472275360340063
 30
0.0
 11
68.008862123131848
 21
-74.713961205693977
 31
0.0
  0
LINE
  8
DETAIL
  6
CONTINUOUS
 62
     5
 10
68.008862123131848
 20
-74.713961205693977
 30
0.0
 11
60.292676670976789
 21
-68.487797771886108
 31
0.0
  0
LINE
  8
DETAIL
  6
CONTINUOUS
 62
     5
 10
60.292676670976789
 20
-68.487797771886108
 30
0.0
 11
51.991125425899781
 21
-63.272720707671169
 31
0.0
  0
LINE
  8
DETAIL
  6
CONTINUOUS
 62
     5
 10
51.991125425899781
 20
-63.272720707671169
 30
0.0
 11
43.317068676235863
 21
-58.69622450846191
 31
0.0
  0
LINE
  8
DETAIL
  6
CONTINUOUS
 62
     5
 10
43.317068676235863
 20
-58.69622450846191
 30
0.0
 11
34.004431061565917
 21
-54.971169462593927
 31
0.0
  0
LINE
  8
DETAIL
  6
CONTINUOUS
 62
     5
 10
34.004431061565917
 20
-54.971169462593927
 30
0.0
 11
24.478933158561059
 21
-52.203985714234932
 31
0.0
  0
LINE
  8
DETAIL
  6
CONTINUOUS
 62
     5
 10
24.478933158561059
 20
-52.203985714234932
 30
0.0
 11
14.793790039304209
 21
-50.288243119217213
 31
0.0
  0
LINE
  8
DETAIL
  6
CONTINUOUS
 62
     5
 10
14.793790039304209
 20
-50.288243119217213
 30
0.0
 11
5.0022167758799014
 21
-49.490017037959888
 31
0.0
  0
LINE
  8
DETAIL
  6
CONTINUOUS
 62
     5
 10
5.0022167758799014
 20
-49.490017037959888
 30
0.0
 11
-5.0022167758799014
 21
-49.490017037959888
 31
0.0
  0
LINE
  8
DETAIL
  6
CONTINUOUS
 62
     5
 10
-5.0022167758799014
 20
-49.490017037959888
 30
0.0
 11
-14.6873598951363
 21
-50.288243119217213
 31
0.0
  0
LINE
  8
DETAIL
  6
CONTINUOUS
 62
     5
 10
-14.6873598951363
 20
-50.288243119217213
 30
0.0
 11
-24.47893315856118
 21
-52.203985714234932
 31
0.0
  0
LINE
  8
DETAIL
  6
CONTINUOUS
 62
     5
 10
-24.47893315856118
 20
-52.203985714234932
 30
0.0
 11
-34.004431061565917
 21
-54.971169462593927
 31
0.0
  0
LINE
  8
DETAIL
  6
CONTINUOUS
 62
     5
 10
-34.004431061565917
 20
-54.971169462593927
 30
0.0
 11
-43.317068676235863
 21
-58.69622450846191
 31
0.0
  0
LINE
  8
DETAIL
  6
CONTINUOUS
 62
     5
 10
-43.317068676235863
 20
-58.69622450846191
 30
0.0
 11
-51.991125425899781
 21
-63.272720707671169
 31
0.0
  0
LINE
  8
DETAIL
  6
CONTINUOUS
 62
     5
 10
-51.991125425899781
 20
-63.272720707671169
 30
0.0
 11
-60.186246526809327
 21
-68.487797771886108
 31
0.0
  0
LINE
  8
DETAIL
  6
CONTINUOUS
 62
     5
 10
-60.186246526809327
 20
-68.487797771886108
 30
0.0
 11
-68.328152555634802
 21
-74.713961205693977
 31
0.0
  0
LINE
  8
DETAIL
  6
CONTINUOUS
 62
     5
 10
-68.328152555634802
 20
-74.713961205693977
 30
0.0
 11
-75.192896854449032
 21
-81.472275360340063
 31
0.0
  0
LINE
  8
DETAIL
  6
CONTINUOUS
 62
     5
 10
-75.192896854449032
 20
-81.472275360340063
 30
0.0
 11
-81.685135648675782
 21
-88.975600524159972
 31
0.0
  0
LINE
  8
DETAIL
  6
CONTINUOUS
 62
     5
 10
-81.685135648675782
 20
-88.975600524159972
 30
0.0
 11
-87.485578505813123
 21
-97.011076408817644
 31
0.0
  0
LINE
  8
DETAIL
  6
CONTINUOUS
 62
     5
 10
-87.485578505813123
 20
-97.011076408817644
 30
0.0
 11
-92.487795281693025
 21
-105.4722728701468
 31
0.0
  0
LINE
  8
DETAIL
  6
CONTINUOUS
 62
     5
 10
-92.487795281693025
 20
-105.4722728701468
 30
0.0
 11
-96.53214076006347
 21
-114.5188351243971
 31
0.0
  0
LINE
  8
DETAIL
  6
CONTINUOUS
 62
     5
 10
-96.53214076006347
 20
-114.5188351243971
 30
0.0
 11
-99.725045085093029
 21
-123.9911179553185
 31
0.0
  0
LINE
  8
DETAIL
  6
CONTINUOUS
 62
     5
 10
-99.725045085093029
 20
-123.9911179553185
 30
0.0
 11
-102.22615347303341
 21
-133.5166158583238
 31
0.0
  0
LINE
  8
DETAIL
  6
CONTINUOUS
 62
     5
 10
-102.22615347303341
 20
-133.5166158583238
 30
0.0
 11
-103.5033152030452
 21
-143.52104941008341
 31
0.0
  0
LINE
  8
DETAIL
  6
CONTINUOUS
 62
     5
 10
-103.5033152030452
 20
-143.52104941008341
 30
0.0
 11
-103.98225085179961
 21
-153.3126226735078
 31
0.0
  0
LINE
  8
DETAIL
  6
CONTINUOUS
 62
     5
 10
-103.98225085179961
 20
-153.3126226735078
 30
0.0
 11
-103.5033152030452
 21
-163.31705622526741
 31
0.0
  0
LINE
  8
DETAIL
  6
CONTINUOUS
 62
     5
 10
-103.5033152030452
 20
-163.31705622526741
 30
0.0
 11
-102.22615347303341
 21
-173.00219934452431
 31
0.0
  0
LINE
  8
DETAIL
  6
CONTINUOUS
 62
     5
 10
-102.22615347303341
 20
-173.00219934452431
 30
0.0
 11
-99.725045085093029
 21
-182.5276972475292
 31
0.0
  0
LINE
  8
DETAIL
  6
CONTINUOUS
 62
     5
 10
-99.725045085093029
 20
-182.5276972475292
 30
0.0
 11
-96.53214076006347
 21
-191.99998007845051
 31
0.0
  0
LINE
  8
DETAIL
  6
CONTINUOUS
 62
     5
 10
-96.53214076006347
 20
-191.99998007845051
 30
0.0
 11
-92.487795281693025
 21
-200.99332726061741
 31
0.0
  0
LINE
  8
DETAIL
  6
CONTINUOUS
 62
     5
 10
-92.487795281693025
 20
-200.99332726061741
 30
0.0
 11
-87.485578505813123
 21
-209.50773879402971
 31
0.0
  0
LINE
  8
DETAIL
  6
CONTINUOUS
 62
     5
 10
-87.485578505813123
 20
-209.50773879402971
 30
0.0
 11
-81.685135648675782
 21
-217.48999960660419
 31
0.0
  0
LINE
  8
DETAIL
  6
CONTINUOUS
 62
     5
 10
-81.685135648675782
 20
-217.48999960660419
 30
0.0
 11
-75.192896854449032
 21
-224.9933247704241
 31
0.0
  0
LINE
  8
DETAIL
  6
CONTINUOUS
 62
     5
 10
-75.192896854449032
 20
-224.9933247704241
 30
0.0
 11
-68.328152555634802
 21
-231.80485399715391
 31
0.0
  0
LINE
  8
DETAIL
  6
CONTINUOUS
 62
     5
 10
-68.328152555634802
 20
-231.80485399715391
 30
0.0
 11
-60.186246526809327
 21
-238.03101743096161
 31
0.0
  0
LINE
  8
DETAIL
  6
CONTINUOUS
 62
     5
 10
-60.186246526809327
 20
-238.03101743096161
 30
0.0
 11
-51.991125425899781
 21
-243.19287942309299
 31
0.0
  0
LINE
  8
DETAIL
  6
CONTINUOUS
 62
     5
 10
-51.991125425899781
 20
-243.19287942309299
 30
0.0
 11
-43.317068676235863
 21
-247.82259069438621
 31
0.0
  0
LINE
  8
DETAIL
  6
CONTINUOUS
 62
     5
 10
-43.317068676235863
 20
-247.82259069438621
 30
0.0
 11
-34.004431061565917
 21
-251.49443066817031
 31
0.0
  0
LINE
  8
DETAIL
  6
CONTINUOUS
 62
     5
 10
-34.004431061565917
 20
-251.49443066817031
 30
0.0
 11
-24.47893315856118
 21
-254.31482948861321
 31
0.0
  0
LINE
  8
DETAIL
  6
CONTINUOUS
 62
     5
 10
-24.47893315856118
 20
-254.31482948861321
 30
0.0
 11
-14.6873598951363
 21
-256.2305720836307
 31
0.0
  0
LINE
  8
DETAIL
  6
CONTINUOUS
 62
     5
 10
-14.6873598951363
 20
-256.2305720836307
 30
0.0
 11
-5.0022167758799014
 21
-257.29487352530759
 31
0.0
  0
LINE
  8
DETAIL
  6
CONTINUOUS
 62
     5
 10
-5.0022167758799014
 20
-257.29487352530759
 30
0.0
 11
5.0022167758799014
 21
-257.29487352530759
 31
0.0
  0
LINE
  8
DETAIL
  6
CONTINUOUS
 62
     5
 10
5.0022167758799014
 20
-257.29487352530759
 30
0.0
 11
14.793790039304209
 21
-256.2305720836307
 31
0.0
  0
LINE
  8
DETAIL
  6
CONTINUOUS
 62
     5
 10
14.793790039304209
 20
-256.2305720836307
 30
0.0
 11
24.478933158561059
 21
-254.31482948861321
 31
0.0
  0
LINE
  8
DETAIL
  6
CONTINUOUS
 62
     5
 10
24.478933158561059
 20
-254.31482948861321
 30
0.0
 11
34.004431061565917
 21
-251.49443066817031
 31
0.0
  0
LINE
  8
DETAIL
  6
CONTINUOUS
 62
     5
 10
34.004431061565917
 20
-251.49443066817031
 30
0.0
 11
43.317068676235863
 21
-247.82259069438621
 31
0.0
  0
LINE
  8
DETAIL
  6
CONTINUOUS
 62
     5
 10
43.317068676235863
 20
-247.82259069438621
 30
0.0
 11
51.991125425899781
 21
-243.19287942309299
 31
0.0
  0
LINE
  8
DETAIL
  6
CONTINUOUS
 62
     5
 10
51.991125425899781
 20
-243.19287942309299
 30
0.0
 11
60.292676670976789
 21
-238.03101743096161
 31
0.0
  0
LINE
  8
DETAIL
  6
CONTINUOUS
 62
     5
 10
60.292676670976789
 20
-238.03101743096161
 30
0.0
 11
68.008862123131848
 21
-231.80485399715391
 31
0.0
  0
LINE
  8
DETAIL
  6
CONTINUOUS
 62
     5
 10
68.008862123131848
 20
-231.80485399715391
 30
0.0
 11
75.299326998616493
 21
-224.9933247704241
 31
0.0
  0
LINE
  8
DETAIL
  6
CONTINUOUS
 62
     5
 10
75.299326998616493
 20
-224.9933247704241
 30
0.0
 11
81.685135648675669
 21
-217.48999960660419
 31
0.0
  0
LINE
  8
DETAIL
  6
CONTINUOUS
 62
     5
 10
81.685135648675669
 20
-217.48999960660419
 30
0.0
 11
87.48557850581301
 21
-209.50773879402971
 31
0.0
  0
LINE
  8
DETAIL
  6
CONTINUOUS
 62
     5
 10
87.48557850581301
 20
-209.50773879402971
 30
0.0
 11
92.487795281692911
 21
-200.99332726061741
 31
0.0
  0
LINE
  8
DETAIL
  6
CONTINUOUS
 62
     5
 10
92.487795281692911
 20
-200.99332726061741
 30
0.0
 11
96.532140760063385
 21
-191.99998007845051
 31
0.0
  0
LINE
  8
DETAIL
  6
CONTINUOUS
 62
     5
 10
96.532140760063385
 20
-191.99998007845051
 30
0.0
 11
99.831475229261059
 21
-182.5276972475292
 31
0.0
  0
LINE
  8
DETAIL
  6
CONTINUOUS
 62
     5
 10
99.831475229261059
 20
-182.5276972475292
 30
0.0
 11
102.0132931846978
 21
-173.00219934452431
 31
0.0
  0
LINE
  8
DETAIL
  6
CONTINUOUS
 62
     5
 10
102.0132931846978
 20
-173.00219934452431
 30
0.0
 11
103.5033152030452
 21
-163.31705622526741
 31
0.0
  0
LINE
  8
DETAIL
  6
CONTINUOUS
 62
     5
 10
103.5033152030452
 20
-163.31705622526741
 30
0.0
 11
104.03546592388361
 21
-153.3126226735078
 31
0.0
  0
LINE
  8
DETAIL
  6
CONTINUOUS
 62
     5
 10
66.199549672282046
 20
-61.516623328904871
 30
0.0
 11
66.199549672282046
 21
-60.771612319731048
 31
0.0
  0
LINE
  8
DETAIL
  6
CONTINUOUS
 62
     5
 10
66.199549672282046
 20
-60.771612319731048
 30
0.0
 11
65.986689383946555
 21
-60.292676670976789
 31
0.0
  0
LINE
  8
DETAIL
  6
CONTINUOUS
 62
     5
 10
65.986689383946555
 20
-60.292676670976789
 30
0.0
 11
65.507753735192182
 21
-59.707310878054841
 31
0.0
  0
LINE
  8
DETAIL
  6
CONTINUOUS
 62
     5
 10
65.507753735192182
 20
-59.707310878054841
 30
0.0
 11
64.815957798102204
 21
-59.494450589719243
 31
0.0
  0
LINE
  8
DETAIL
  6
CONTINUOUS
 62
     5
 10
64.815957798102204
 20
-59.494450589719243
 30
0.0
 11
64.017731716844878
 21
-59.494450589719243
 31
0.0
  0
LINE
  8
DETAIL
  6
CONTINUOUS
 62
     5
 10
64.017731716844878
 20
-59.494450589719243
 30
0.0
 11
63.325935779755469
 21
-59.494450589719243
 31
0.0
  0
LINE
  8
DETAIL
  6
CONTINUOUS
 62
     5
 10
63.325935779755469
 20
-59.494450589719243
 30
0.0
 11
62.793785058917017
 21
-59.973386238473722
 31
0.0
  0
LINE
  8
DETAIL
  6
CONTINUOUS
 62
     5
 10
62.793785058917017
 20
-59.973386238473722
 30
0.0
 11
62.314849410162537
 21
-60.505536959312167
 31
0.0
  0
LINE
  8
DETAIL
  6
CONTINUOUS
 62
     5
 10
62.314849410162537
 20
-60.505536959312167
 30
0.0
 11
61.995558977659577
 21
-61.197332896401797
 31
0.0
  0
LINE
  8
DETAIL
  6
CONTINUOUS
 62
     5
 10
61.995558977659577
 20
-61.197332896401797
 30
0.0
 11
61.995558977659577
 21
-61.995558977659357
 31
0.0
  0
LINE
  8
DETAIL
  6
CONTINUOUS
 62
     5
 10
61.995558977659577
 20
-61.995558977659357
 30
0.0
 11
62.314849410162537
 21
-62.474494626413623
 31
0.0
  0
LINE
  8
DETAIL
  6
CONTINUOUS
 62
     5
 10
62.314849410162537
 20
-62.474494626413623
 30
0.0
 11
62.793785058917017
 21
-63.006645347251833
 31
0.0
  0
LINE
  8
DETAIL
  6
CONTINUOUS
 62
     5
 10
62.793785058917017
 20
-63.006645347251833
 30
0.0
 11
63.325935779755469
 21
-63.48558099600632
 31
0.0
  0
LINE
  8
DETAIL
  6
CONTINUOUS
 62
     5
 10
63.325935779755469
 20
-63.48558099600632
 30
0.0
 11
64.017731716844878
 21
-63.698441284341918
 31
0.0
  0
LINE
  8
DETAIL
  6
CONTINUOUS
 62
     5
 10
64.017731716844878
 20
-63.698441284341918
 30
0.0
 11
64.815957798102204
 21
-63.48558099600632
 31
0.0
  0
LINE
  8
DETAIL
  6
CONTINUOUS
 62
     5
 10
64.815957798102204
 20
-63.48558099600632
 30
0.0
 11
65.507753735192182
 21
-63.272720707671169
 31
0.0
  0
LINE
  8
DETAIL
  6
CONTINUOUS
 62
     5
 10
65.507753735192182
 20
-63.272720707671169
 30
0.0
 11
65.986689383946555
 21
-62.793785058916683
 31
0.0
  0
LINE
  8
DETAIL
  6
CONTINUOUS
 62
     5
 10
65.986689383946555
 20
-62.793785058916683
 30
0.0
 11
66.199549672282046
 21
-62.208419265994507
 31
0.0
  0
LINE
  8
DETAIL
  6
CONTINUOUS
 62
     5
 10
66.199549672282046
 20
-62.208419265994507
 30
0.0
 11
66.199549672282046
 21
-61.516623328904871
 31
0.0
  0
LINE
  8
DETAIL
  6
CONTINUOUS
 62
     5
 10
-89.720611533333795
 20
-88.975600524159972
 30
0.0
 11
-89.720611533333795
 21
-88.283804587069881
 31
0.0
  0
LINE
  8
DETAIL
  6
CONTINUOUS
 62
     5
 10
-89.720611533333795
 20
-88.283804587069881
 30
0.0
 11
-89.98668689375279
 21
-87.804868938315849
 31
0.0
  0
LINE
  8
DETAIL
  6
CONTINUOUS
 62
     5
 10
-89.98668689375279
 20
-87.804868938315849
 30
0.0
 11
-90.518837614591234
 21
-87.219503145393446
 31
0.0
  0
LINE
  8
DETAIL
  6
CONTINUOUS
 62
     5
 10
-90.518837614591234
 20
-87.219503145393446
 30
0.0
 11
-91.317063695848674
 21
-87.006642857058068
 31
0.0
  0
LINE
  8
DETAIL
  6
CONTINUOUS
 62
     5
 10
-91.317063695848674
 20
-87.006642857058068
 30
0.0
 11
-92.008859632937941
 21
-87.006642857058068
 31
0.0
  0
LINE
  8
DETAIL
  6
CONTINUOUS
 62
     5
 10
-92.008859632937941
 20
-87.006642857058068
 30
0.0
 11
-92.700655570027948
 21
-87.006642857058068
 31
0.0
  0
LINE
  8
DETAIL
  6
CONTINUOUS
 62
     5
 10
-92.700655570027948
 20
-87.006642857058068
 30
0.0
 11
-93.286021362949867
 21
-87.485578505812555
 31
0.0
  0
LINE
  8
DETAIL
  6
CONTINUOUS
 62
     5
 10
-93.286021362949867
 20
-87.485578505812555
 30
0.0
 11
-93.818172083788909
 21
-88.017729226650772
 31
0.0
  0
LINE
  8
DETAIL
  6
CONTINUOUS
 62
     5
 10
-93.818172083788909
 20
-88.017729226650772
 30
0.0
 11
-94.031032372123832
 21
-88.709525163740636
 31
0.0
  0
LINE
  8
DETAIL
  6
CONTINUOUS
 62
     5
 10
-94.031032372123832
 20
-88.709525163740636
 30
0.0
 11
-94.031032372123832
 21
-89.50775124499819
 31
0.0
  0
LINE
  8
DETAIL
  6
CONTINUOUS
 62
     5
 10
-94.031032372123832
 20
-89.50775124499819
 30
0.0
 11
-93.818172083788909
 21
-89.986686893752676
 31
0.0
  0
LINE
  8
DETAIL
  6
CONTINUOUS
 62
     5
 10
-93.818172083788909
 20
-89.986686893752676
 30
0.0
 11
-93.286021362949867
 21
-90.518837614591121
 31
0.0
  0
LINE
  8
DETAIL
  6
CONTINUOUS
 62
     5
 10
-93.286021362949867
 20
-90.518837614591121
 30
0.0
 11
-92.700655570027948
 21
-90.997773263345579
 31
0.0
  0
LINE
  8
DETAIL
  6
CONTINUOUS
 62
     5
 10
-92.700655570027948
 20
-90.997773263345579
 30
0.0
 11
-92.008859632937941
 21
-91.210633551680758
 31
0.0
  0
LINE
  8
DETAIL
  6
CONTINUOUS
 62
     5
 10
-92.008859632937941
 20
-91.210633551680758
 30
0.0
 11
-91.317063695848674
 21
-90.997773263345579
 31
0.0
  0
LINE
  8
DETAIL
  6
CONTINUOUS
 62
     5
 10
-91.317063695848674
 20
-90.997773263345579
 30
0.0
 11
-90.518837614591234
 21
-90.784912975010229
 31
0.0
  0
LINE
  8
DETAIL
  6
CONTINUOUS
 62
     5
 10
-90.518837614591234
 20
-90.784912975010229
 30
0.0
 11
-89.98668689375279
 21
-90.305977326255743
 31
0.0
  0
LINE
  8
DETAIL
  6
CONTINUOUS
 62
     5
 10
-89.98668689375279
 20
-90.305977326255743
 30
0.0
 11
-89.720611533333795
 21
-89.720611533333567
 31
0.0
  0
LINE
  8
DETAIL
  6
CONTINUOUS
 62
     5
 10
-89.720611533333795
 20
-89.720611533333567
 30
0.0
 11
-89.720611533333795
 21
-88.975600524159972
 31
0.0
  0
LINE
  8
DETAIL
  6
CONTINUOUS
 62
     5
 10
-62.208419265994621
 20
-245.00219187394299
 30
0.0
 11
-62.208419265994621
 21
-244.31039593685341
 31
0.0
  0
LINE
  8
DETAIL
  6
CONTINUOUS
 62
     5
 10
-62.208419265994621
 20
-244.31039593685341
 30
0.0
 11
-62.527709698497567
 21
-243.72503014393121
 31
0.0
  0
LINE
  8
DETAIL
  6
CONTINUOUS
 62
     5
 10
-62.527709698497567
 20
-243.72503014393121
 30
0.0
 11
-63.006645347252523
 21
-243.19287942309299
 31
0.0
  0
LINE
  8
DETAIL
  6
CONTINUOUS
 62
     5
 10
-63.006645347252523
 20
-243.19287942309299
 30
0.0
 11
-63.804871428509387
 21
-243.0332342068416
 31
0.0
  0
LINE
  8
DETAIL
  6
CONTINUOUS
 62
     5
 10
-63.804871428509387
 20
-243.0332342068416
 30
0.0
 11
-64.496667365599365
 21
-242.82037391850639
 31
0.0
  0
LINE
  8
DETAIL
  6
CONTINUOUS
 62
     5
 10
-64.496667365599365
 20
-242.82037391850639
 30
0.0
 11
-65.188463302689229
 21
-243.0332342068416
 31
0.0
  0
LINE
  8
DETAIL
  6
CONTINUOUS
 62
     5
 10
-65.188463302689229
 20
-243.0332342068416
 30
0.0
 11
-65.827044167695135
 21
-243.51216985559611
 31
0.0
  0
LINE
  8
DETAIL
  6
CONTINUOUS
 62
     5
 10
-65.827044167695135
 20
-243.51216985559611
 30
0.0
 11
-66.305979816449621
 21
-243.9911055043506
 31
0.0
  0
LINE
  8
DETAIL
  6
CONTINUOUS
 62
     5
 10
-66.305979816449621
 20
-243.9911055043506
 30
0.0
 11
-66.518840104785113
 21
-244.7893315856079
 31
0.0
  0
LINE
  8
DETAIL
  6
CONTINUOUS
 62
     5
 10
-66.518840104785113
 20
-244.7893315856079
 30
0.0
 11
-66.518840104785113
 21
-245.32148230644589
 31
0.0
  0
LINE
  8
DETAIL
  6
CONTINUOUS
 62
     5
 10
-66.518840104785113
 20
-245.32148230644589
 30
0.0
 11
-66.305979816449621
 21
-246.01327824353601
 31
0.0
  0
LINE
  8
DETAIL
  6
CONTINUOUS
 62
     5
 10
-66.305979816449621
 20
-246.01327824353601
 30
0.0
 11
-65.827044167695135
 21
-246.49221389229049
 31
0.0
  0
LINE
  8
DETAIL
  6
CONTINUOUS
 62
     5
 10
-65.827044167695135
 20
-246.49221389229049
 30
0.0
 11
-65.188463302689229
 21
-247.02436461312851
 31
0.0
  0
LINE
  8
DETAIL
  6
CONTINUOUS
 62
     5
 10
-65.188463302689229
 20
-247.02436461312851
 30
0.0
 11
-64.496667365599365
 21
-247.29043997354771
 31
0.0
  0
LINE
  8
DETAIL
  6
CONTINUOUS
 62
     5
 10
-64.496667365599365
 20
-247.29043997354771
 30
0.0
 11
-63.804871428509387
 21
-247.02436461312851
 31
0.0
  0
LINE
  8
DETAIL
  6
CONTINUOUS
 62
     5
 10
-63.804871428509387
 20
-247.02436461312851
 30
0.0
 11
-63.006645347252523
 21
-246.8115043247935
 31
0.0
  0
LINE
  8
DETAIL
  6
CONTINUOUS
 62
     5
 10
-63.006645347252523
 20
-246.8115043247935
 30
0.0
 11
-62.527709698497567
 21
-246.2261385318711
 31
0.0
  0
LINE
  8
DETAIL
  6
CONTINUOUS
 62
     5
 10
-62.527709698497567
 20
-246.2261385318711
 30
0.0
 11
-62.208419265994621
 21
-245.69398781103311
 31
0.0
  0
LINE
  8
DETAIL
  6
CONTINUOUS
 62
     5
 10
-62.208419265994621
 20
-245.69398781103311
 30
0.0
 11
-62.208419265994621
 21
-245.00219187394299
 31
0.0
  0
LINE
  8
DETAIL
  6
CONTINUOUS
 62
     5
 10
93.711741939620765
 20
-217.48999960660419
 30
0.0
 11
93.711741939620765
 21
-216.79820366951461
 31
0.0
  0
LINE
  8
DETAIL
  6
CONTINUOUS
 62
     5
 10
93.711741939620765
 20
-216.79820366951461
 30
0.0
 11
93.498881651285842
 21
-216.2128378765924
 31
0.0
  0
LINE
  8
DETAIL
  6
CONTINUOUS
 62
     5
 10
93.498881651285842
 20
-216.2128378765924
 30
0.0
 11
93.019946002530901
 21
-215.73390222783789
 31
0.0
  0
LINE
  8
DETAIL
  6
CONTINUOUS
 62
     5
 10
93.019946002530901
 20
-215.73390222783789
 30
0.0
 11
92.328150065441491
 21
-215.52104193950279
 31
0.0
  0
LINE
  8
DETAIL
  6
CONTINUOUS
 62
     5
 10
92.328150065441491
 20
-215.52104193950279
 30
0.0
 11
91.529923984184052
 21
-215.30818165116719
 31
0.0
  0
LINE
  8
DETAIL
  6
CONTINUOUS
 62
     5
 10
91.529923984184052
 20
-215.30818165116719
 30
0.0
 11
90.784912975010116
 21
-215.52104193950279
 31
0.0
  0
LINE
  8
DETAIL
  6
CONTINUOUS
 62
     5
 10
90.784912975010116
 20
-215.52104193950279
 30
0.0
 11
90.305977326255629
 21
-215.99997758825731
 31
0.0
  0
LINE
  8
DETAIL
  6
CONTINUOUS
 62
     5
 10
90.305977326255629
 20
-215.99997758825731
 30
0.0
 11
89.827041677501256
 21
-216.53212830909521
 31
0.0
  0
LINE
  8
DETAIL
  6
CONTINUOUS
 62
     5
 10
89.827041677501256
 20
-216.53212830909521
 30
0.0
 11
89.507751244998303
 21
-217.3303543903528
 31
0.0
  0
LINE
  8
DETAIL
  6
CONTINUOUS
 62
     5
 10
89.507751244998303
 20
-217.3303543903528
 30
0.0
 11
89.507751244998303
 21
-217.80929003910711
 31
0.0
  0
LINE
  8
DETAIL
  6
CONTINUOUS
 62
     5
 10
89.507751244998303
 20
-217.80929003910711
 30
0.0
 11
89.827041677501256
 21
-218.50108597619689
 31
0.0
  0
LINE
  8
DETAIL
  6
CONTINUOUS
 62
     5
 10
89.827041677501256
 20
-218.50108597619689
 30
0.0
 11
90.305977326255629
 21
-219.03323669703539
 31
0.0
  0
LINE
  8
DETAIL
  6
CONTINUOUS
 62
     5
 10
90.305977326255629
 20
-219.03323669703539
 30
0.0
 11
90.784912975010116
 21
-219.51217234578959
 31
0.0
  0
LINE
  8
DETAIL
  6
CONTINUOUS
 62
     5
 10
90.784912975010116
 20
-219.51217234578959
 30
0.0
 11
91.529923984184052
 21
-219.83146277829269
 31
0.0
  0
LINE
  8
DETAIL
  6
CONTINUOUS
 62
     5
 10
91.529923984184052
 20
-219.83146277829269
 30
0.0
 11
92.328150065441491
 21
-219.51217234578959
 31
0.0
  0
LINE
  8
DETAIL
  6
CONTINUOUS
 62
     5
 10
92.328150065441491
 20
-219.51217234578959
 30
0.0
 11
93.019946002530901
 21
-219.29931205745419
 31
0.0
  0
LINE
  8
DETAIL
  6
CONTINUOUS
 62
     5
 10
93.019946002530901
 20
-219.29931205745419
 30
0.0
 11
93.498881651285842
 21
-218.7139462645323
 31
0.0
  0
LINE
  8
DETAIL
  6
CONTINUOUS
 62
     5
 10
93.498881651285842
 20
-218.7139462645323
 30
0.0
 11
93.711741939620765
 21
-218.23501061577781
 31
0.0
  0
LINE
  8
DETAIL
  6
CONTINUOUS
 62
     5
 10
93.711741939620765
 20
-218.23501061577781
 30
0.0
 11
93.711741939620765
 21
-217.48999960660419
 31
0.0
  0
LINE
  8
DETAIL
  6
CONTINUOUS
 62
     5
 10
-106.69621952807471
 20
-202.4833492789646
 30
0.0
 11
-102.22615347303341
 21
-211.21062110071281
 31
0.0
  0
LINE
  8
DETAIL
  6
CONTINUOUS
 62
     5
 10
-102.22615347303341
 20
-211.21062110071281
 30
0.0
 11
-97.01107640881844
 21
-219.83146277829269
 31
0.0
  0
LINE
  8
DETAIL
  6
CONTINUOUS
 62
     5
 10
-97.01107640881844
 20
-219.83146277829269
 30
0.0
 11
-90.997773263345721
 21
-227.8137235908666
 31
0.0
  0
LINE
  8
DETAIL
  6
CONTINUOUS
 62
     5
 10
-90.997773263345721
 20
-227.8137235908666
 30
0.0
 11
-84.186244036616017
 21
-234.9977583221835
 31
0.0
  0
LINE
  8
DETAIL
  6
CONTINUOUS
 62
     5
 10
-84.186244036616017
 20
-234.9977583221835
 30
0.0
 11
-77.002209305298834
 21
-242.02214783724889
 31
0.0
  0
LINE
  8
DETAIL
  6
CONTINUOUS
 62
     5
 10
107.0155099605777
 20
-201.20618754895281
 30
0.0
 11
107.0155099605777
 21
-105.31262765389511
 31
0.0
  0
LINE
  8
DETAIL
  6
CONTINUOUS
 62
     5
 10
106.69621952807471
 20
-103.98225085179961
 30
0.0
 11
102.3325836172007
 21
-95.308194102135531
 31
0.0
  0
LINE
  8
DETAIL
  6
CONTINUOUS
 62
     5
 10
102.3325836172007
 20
-95.308194102135531
 30
0.0
 11
96.691785976315373
 21
-86.793782568723145
 31
0.0
  0
LINE
  8
DETAIL
  6
CONTINUOUS
 62
     5
 10
96.691785976315373
 20
-86.793782568723145
 30
0.0
 11
90.997773263345607
 21
-78.705091611981288
 31
0.0
  0
LINE
  8
DETAIL
  6
CONTINUOUS
 62
     5
 10
90.997773263345607
 20
-78.705091611981288
 30
0.0
 11
84.186244036615903
 21
-71.521056880664219
 31
0.0
  0
LINE
  8
DETAIL
  6
CONTINUOUS
 62
     5
 10
84.186244036615903
 20
-71.521056880664219
 30
0.0
 11
77.00220930529872
 21
-64.496667365599251
 31
0.0
  0
LINE
  8
DETAIL
  6
CONTINUOUS
 62
     5
 10
-107.0155099605778
 20
-201.20618754895281
 30
0.0
 11
-107.0155099605778
 21
-183.00663289628369
 31
0.0
  0
LINE
  8
DETAIL
  6
CONTINUOUS
 62
     5
 10
-107.0155099605778
 20
-173.69399528161401
 30
0.0
 11
-107.0155099605778
 21
-105.31262765389511
 31
0.0
  0
LINE
  8
DETAIL
  6
CONTINUOUS
 62
     5
 10
95.999990039225509
 20
-153.3126226735078
 30
0.0
 11
95.521054390471022
 21
-143.52104941008341
 31
0.0
  0
LINE
  8
DETAIL
  6
CONTINUOUS
 62
     5
 10
95.521054390471022
 20
-143.52104941008341
 30
0.0
 11
94.031032372123718
 21
-133.67626107457551
 31
0.0
  0
LINE
  8
DETAIL
  6
CONTINUOUS
 62
     5
 10
94.031032372123718
 20
-133.67626107457551
 30
0.0
 11
91.529923984184052
 21
-123.9911179553185
 31
0.0
  0
LINE
  8
DETAIL
  6
CONTINUOUS
 62
     5
 10
91.529923984184052
 20
-123.9911179553185
 30
0.0
 11
88.017729226651454
 21
-114.67848034064851
 31
0.0
  0
LINE
  8
DETAIL
  6
CONTINUOUS
 62
     5
 10
88.017729226651454
 20
-114.67848034064851
 30
0.0
 11
83.494448099526039
 21
-106.0044235909847
 31
0.0
  0
LINE
  8
DETAIL
  6
CONTINUOUS
 62
     5
 10
83.494448099526039
 20
-106.0044235909847
 30
0.0
 11
78.332586107394604
 21
-97.809302490075197
 31
0.0
  0
LINE
  8
DETAIL
  6
CONTINUOUS
 62
     5
 10
78.332586107394604
 20
-97.809302490075197
 30
0.0
 11
71.999992529419387
 21
-89.986686893752676
 31
0.0
  0
LINE
  8
DETAIL
  6
CONTINUOUS
 62
     5
 10
71.999992529419387
 20
-89.986686893752676
 30
0.0
 11
65.29489344685669
 21
-82.802652162436061
 31
0.0
  0
LINE
  8
DETAIL
  6
CONTINUOUS
 62
     5
 10
65.29489344685669
 20
-82.802652162436061
 30
0.0
 11
57.525492922618128
 21
-76.470058584460276
 31
0.0
  0
LINE
  8
DETAIL
  6
CONTINUOUS
 62
     5
 10
57.525492922618128
 20
-76.470058584460276
 30
0.0
 11
49.490017037960108
 21
-70.988906159826229
 31
0.0
  0
LINE
  8
DETAIL
  6
CONTINUOUS
 62
     5
 10
49.490017037960108
 20
-70.988906159826229
 30
0.0
 11
40.815960288296203
 21
-66.199549672281591
 31
0.0
  0
LINE
  8
DETAIL
  6
CONTINUOUS
 62
     5
 10
40.815960288296203
 20
-66.199549672281591
 30
0.0
 11
31.503322673626261
 21
-62.474494626413623
 31
0.0
  0
LINE
  8
DETAIL
  6
CONTINUOUS
 62
     5
 10
31.503322673626261
 20
-62.474494626413623
 30
0.0
 11
21.977824770620831
 21
-59.707310878054841
 31
0.0
  0
LINE
  8
DETAIL
  6
CONTINUOUS
 62
     5
 10
21.977824770620831
 20
-59.707310878054841
 30
0.0
 11
12.29268165136455
 21
-58.004428571372273
 31
0.0
  0
LINE
  8
DETAIL
  6
CONTINUOUS
 62
     5
 10
12.29268165136455
 20
-58.004428571372273
 30
0.0
 11
2.5011083879396661
 21
-57.206202490114492
 31
0.0
  0
LINE
  8
DETAIL
  6
CONTINUOUS
 62
     5
 10
2.5011083879396661
 20
-57.206202490114492
 30
0.0
 11
-7.5033251638195679
 21
-57.472277850533828
 31
0.0
  0
LINE
  8
DETAIL
  6
CONTINUOUS
 62
     5
 10
-7.5033251638195679
 20
-57.472277850533828
 30
0.0
 11
-17.188468283076531
 21
-58.69622450846191
 31
0.0
  0
LINE
  8
DETAIL
  6
CONTINUOUS
 62
     5
 10
-17.188468283076531
 20
-58.69622450846191
 30
0.0
 11
-26.713966186081851
 21
-60.984472608066653
 31
0.0
  0
LINE
  8
DETAIL
  6
CONTINUOUS
 62
     5
 10
-26.713966186081851
 20
-60.984472608066653
 30
0.0
 11
-36.292679161170668
 21
-64.283807077263646
 31
0.0
  0
LINE
  8
DETAIL
  6
CONTINUOUS
 62
     5
 10
-36.292679161170668
 20
-64.283807077263646
 30
0.0
 11
-45.179596199169623
 21
-68.487797771886108
 31
0.0
  0
LINE
  8
DETAIL
  6
CONTINUOUS
 62
     5
 10
-45.179596199169623
 20
-68.487797771886108
 30
0.0
 11
-53.800437876750152
 21
-73.490014547766123
 31
0.0
  0
LINE
  8
DETAIL
  6
CONTINUOUS
 62
     5
 10
-53.800437876750152
 20
-73.490014547766123
 30
0.0
 11
-61.516623328904643
 21
-79.503317693238614
 31
0.0
  0
LINE
  8
DETAIL
  6
CONTINUOUS
 62
     5
 10
-61.516623328904643
 20
-79.503317693238614
 30
0.0
 11
-68.807088204389288
 21
-86.208416775800742
 31
0.0
  0
LINE
  8
DETAIL
  6
CONTINUOUS
 62
     5
 10
-68.807088204389288
 20
-86.208416775800742
 30
0.0
 11
-75.192896854449032
 21
-93.711741939620651
 31
0.0
  0
LINE
  8
DETAIL
  6
CONTINUOUS
 62
     5
 10
-75.192896854449032
 20
-93.711741939620651
 30
0.0
 11
-80.993339711585918
 21
-101.80043289636249
 31
0.0
  0
LINE
  8
DETAIL
  6
CONTINUOUS
 62
     5
 10
-80.993339711585918
 20
-101.80043289636249
 30
0.0
 11
-85.995556487465706
 21
-110.31484442977489
 31
0.0
  0
LINE
  8
DETAIL
  6
CONTINUOUS
 62
     5
 10
-85.995556487465706
 20
-110.31484442977489
 30
0.0
 11
-89.720611533333795
 21
-119.5210519002771
 31
0.0
  0
LINE
  8
DETAIL
  6
CONTINUOUS
 62
     5
 10
-89.720611533333795
 20
-119.5210519002771
 30
0.0
 11
-92.700655570027948
 21
-128.72725937077919
 31
0.0
  0
LINE
  8
DETAIL
  6
CONTINUOUS
 62
     5
 10
-92.700655570027948
 20
-128.72725937077919
 30
0.0
 11
-94.988903669632691
 21
-138.51883263420359
 31
0.0
  0
LINE
  8
DETAIL
  6
CONTINUOUS
 62
     5
 10
-94.988903669632691
 20
-138.51883263420359
 30
0.0
 11
-95.999990039225622
 21
-148.31040589762799
 31
0.0
  0
LINE
  8
DETAIL
  6
CONTINUOUS
 62
     5
 10
-95.999990039225622
 20
-148.31040589762799
 30
0.0
 11
-95.999990039225622
 21
-158.31483944938759
 31
0.0
  0
LINE
  8
DETAIL
  6
CONTINUOUS
 62
     5
 10
-95.999990039225622
 20
-158.31483944938759
 30
0.0
 11
-94.988903669632691
 21
-167.9999825686443
 31
0.0
  0
LINE
  8
DETAIL
  6
CONTINUOUS
 62
     5
 10
-94.988903669632691
 20
-167.9999825686443
 30
0.0
 11
-92.700655570027948
 21
-177.7915558320685
 31
0.0
  0
LINE
  8
DETAIL
  6
CONTINUOUS
 62
     5
 10
-92.700655570027948
 20
-177.7915558320685
 30
0.0
 11
-89.720611533333795
 21
-187.21062359090621
 31
0.0
  0
LINE
  8
DETAIL
  6
CONTINUOUS
 62
     5
 10
-89.720611533333795
 20
-187.21062359090621
 30
0.0
 11
-85.995556487465706
 21
-196.203970773073
 31
0.0
  0
LINE
  8
DETAIL
  6
CONTINUOUS
 62
     5
 10
-85.995556487465706
 20
-196.203970773073
 30
0.0
 11
-80.993339711585918
 21
-204.8248124506533
 31
0.0
  0
LINE
  8
DETAIL
  6
CONTINUOUS
 62
     5
 10
-80.993339711585918
 20
-204.8248124506533
 30
0.0
 11
-75.192896854449032
 21
-212.80707326322749
 31
0.0
  0
LINE
  8
DETAIL
  6
CONTINUOUS
 62
     5
 10
-75.192896854449032
 20
-212.80707326322749
 30
0.0
 11
-68.807088204389288
 21
-220.3103984270472
 31
0.0
  0
LINE
  8
DETAIL
  6
CONTINUOUS
 62
     5
 10
-68.807088204389288
 20
-220.3103984270472
 30
0.0
 11
-61.516623328904643
 21
-227.0154975096093
 31
0.0
  0
LINE
  8
DETAIL
  6
CONTINUOUS
 62
     5
 10
-61.516623328904643
 20
-227.0154975096093
 30
0.0
 11
-53.800437876750152
 21
-233.02880065508199
 31
0.0
  0
LINE
  8
DETAIL
  6
CONTINUOUS
 62
     5
 10
-53.800437876750152
 20
-233.02880065508199
 30
0.0
 11
-45.179596199169623
 21
-238.03101743096161
 31
0.0
  0
LINE
  8
DETAIL
  6
CONTINUOUS
 62
     5
 10
-45.179596199169623
 20
-238.03101743096161
 30
0.0
 11
-36.292679161170668
 21
-242.288223197668
 31
0.0
  0
LINE
  8
DETAIL
  6
CONTINUOUS
 62
     5
 10
-36.292679161170668
 20
-242.288223197668
 30
0.0
 11
-26.713966186081851
 21
-245.53434259478149
 31
0.0
  0
LINE
  8
DETAIL
  6
CONTINUOUS
 62
     5
 10
-26.713966186081851
 20
-245.53434259478149
 30
0.0
 11
-17.188468283076531
 21
-247.82259069438621
 31
0.0
  0
LINE
  8
DETAIL
  6
CONTINUOUS
 62
     5
 10
-17.188468283076531
 20
-247.82259069438621
 30
0.0
 11
-7.5033251638195679
 21
-248.9933222802301
 31
0.0
  0
LINE
  8
DETAIL
  6
CONTINUOUS
 62
     5
 10
-7.5033251638195679
 20
-248.9933222802301
 30
0.0
 11
2.5011083879396661
 21
-249.312612712733
 31
0.0
  0
LINE
  8
DETAIL
  6
CONTINUOUS
 62
     5
 10
2.5011083879396661
 20
-249.312612712733
 30
0.0
 11
12.29268165136455
 21
-248.51438663147559
 31
0.0
  0
LINE
  8
DETAIL
  6
CONTINUOUS
 62
     5
 10
12.29268165136455
 20
-248.51438663147559
 30
0.0
 11
21.977824770620831
 21
-246.8115043247935
 31
0.0
  0
LINE
  8
DETAIL
  6
CONTINUOUS
 62
     5
 10
21.977824770620831
 20
-246.8115043247935
 30
0.0
 11
31.503322673626261
 21
-243.9911055043506
 31
0.0
  0
LINE
  8
DETAIL
  6
CONTINUOUS
 62
     5
 10
31.503322673626261
 20
-243.9911055043506
 30
0.0
 11
40.815960288296203
 21
-240.3192655305661
 31
0.0
  0
LINE
  8
DETAIL
  6
CONTINUOUS
 62
     5
 10
40.815960288296203
 20
-240.3192655305661
 30
0.0
 11
49.490017037960108
 21
-235.52990904302169
 31
0.0
  0
LINE
  8
DETAIL
  6
CONTINUOUS
 62
     5
 10
49.490017037960108
 20
-235.52990904302169
 30
0.0
 11
57.525492922618128
 21
-229.99554154630371
 31
0.0
  0
LINE
  8
DETAIL
  6
CONTINUOUS
 62
     5
 10
57.525492922618128
 20
-229.99554154630371
 30
0.0
 11
65.29489344685669
 21
-223.71616304041231
 31
0.0
  0
LINE
  8
DETAIL
  6
CONTINUOUS
 62
     5
 10
65.29489344685669
 20
-223.71616304041231
 30
0.0
 11
71.999992529419387
 21
-216.79820366951461
 31
0.0
  0
LINE
  8
DETAIL
  6
CONTINUOUS
 62
     5
 10
71.999992529419387
 20
-216.79820366951461
 30
0.0
 11
78.332586107394604
 21
-209.02880314527559
 31
0.0
  0
LINE
  8
DETAIL
  6
CONTINUOUS
 62
     5
 10
78.332586107394604
 20
-209.02880314527559
 30
0.0
 11
83.494448099526039
 21
-200.51439161186289
 31
0.0
  0
LINE
  8
DETAIL
  6
CONTINUOUS
 62
     5
 10
83.494448099526039
 20
-200.51439161186289
 30
0.0
 11
88.017729226651454
 21
-191.78711979011541
 31
0.0
  0
LINE
  8
DETAIL
  6
CONTINUOUS
 62
     5
 10
88.017729226651454
 20
-191.78711979011541
 30
0.0
 11
91.529923984184052
 21
-182.5276972475292
 31
0.0
  0
LINE
  8
DETAIL
  6
CONTINUOUS
 62
     5
 10
91.529923984184052
 20
-182.5276972475292
 30
0.0
 11
94.031032372123718
 21
-173.00219934452431
 31
0.0
  0
LINE
  8
DETAIL
  6
CONTINUOUS
 62
     5
 10
94.031032372123718
 20
-173.00219934452431
 30
0.0
 11
95.521054390471022
 21
-163.31705622526741
 31
0.0
  0
LINE
  8
DETAIL
  6
CONTINUOUS
 62
     5
 10
95.521054390471022
 20
-163.31705622526741
 30
0.0
 11
95.999990039225509
 21
-153.3126226735078
 31
0.0
  0
LINE
  8
DETAIL
  6
CONTINUOUS
 62
     5
 10
90.997773263345607
 20
-153.3126226735078
 30
0.0
 11
90.518837614591234
 21
-143.52104941008341
 31
0.0
  0
LINE
  8
DETAIL
  6
CONTINUOUS
 62
     5
 10
90.518837614591234
 20
-143.52104941008341
 30
0.0
 11
88.709525163740864
 21
-133.67626107457551
 31
0.0
  0
LINE
  8
DETAIL
  6
CONTINUOUS
 62
     5
 10
88.709525163740864
 20
-133.67626107457551
 30
0.0
 11
86.208416775801197
 21
-124.3104083878216
 31
0.0
  0
LINE
  8
DETAIL
  6
CONTINUOUS
 62
     5
 10
86.208416775801197
 20
-124.3104083878216
 30
0.0
 11
82.483361729933108
 21
-114.9977707731516
 31
0.0
  0
LINE
  8
DETAIL
  6
CONTINUOUS
 62
     5
 10
82.483361729933108
 20
-114.9977707731516
 30
0.0
 11
78.013295674891651
 21
-106.21728387932031
 31
0.0
  0
LINE
  8
DETAIL
  6
CONTINUOUS
 62
     5
 10
78.013295674891651
 20
-106.21728387932031
 30
0.0
 11
72.532143250257263
 21
-98.288238138829684
 31
0.0
  0
LINE
  8
DETAIL
  6
CONTINUOUS
 62
     5
 10
72.532143250257263
 20
-98.288238138829684
 30
0.0
 11
65.986689383946555
 21
-90.784912975010229
 31
0.0
  0
LINE
  8
DETAIL
  6
CONTINUOUS
 62
     5
 10
65.986689383946555
 20
-90.784912975010229
 30
0.0
 11
59.015514940964863
 21
-83.973383748279957
 31
0.0
  0
LINE
  8
DETAIL
  6
CONTINUOUS
 62
     5
 10
59.015514940964863
 20
-83.973383748279957
 30
0.0
 11
50.98003905630685
 21
-78.013295674891197
 31
0.0
  0
LINE
  8
DETAIL
  6
CONTINUOUS
 62
     5
 10
50.98003905630685
 20
-78.013295674891197
 30
0.0
 11
42.51884259497831
 21
-72.798218610676031
 31
0.0
  0
LINE
  8
DETAIL
  6
CONTINUOUS
 62
     5
 10
42.51884259497831
 20
-72.798218610676031
 30
0.0
 11
33.685140629062971
 21
-68.700658060221485
 31
0.0
  0
LINE
  8
DETAIL
  6
CONTINUOUS
 62
     5
 10
33.685140629062971
 20
-68.700658060221485
 30
0.0
 11
24.212857798141499
 21
-65.507753735191727
 31
0.0
  0
LINE
  8
DETAIL
  6
CONTINUOUS
 62
     5
 10
24.212857798141499
 20
-65.507753735191727
 30
0.0
 11
14.793790039304209
 21
-63.48558099600632
 31
0.0
  0
LINE
  8
DETAIL
  6
CONTINUOUS
 62
     5
 10
14.793790039304209
 20
-63.48558099600632
 30
0.0
 11
5.0022167758799014
 21
-62.474494626413623
 31
0.0
  0
LINE
  8
DETAIL
  6
CONTINUOUS
 62
     5
 10
5.0022167758799014
 20
-62.474494626413623
 30
0.0
 11
-5.0022167758799014
 21
-62.474494626413623
 31
0.0
  0
LINE
  8
DETAIL
  6
CONTINUOUS
 62
     5
 10
-5.0022167758799014
 20
-62.474494626413623
 30
0.0
 11
-14.6873598951363
 21
-63.48558099600632
 31
0.0
  0
LINE
  8
DETAIL
  6
CONTINUOUS
 62
     5
 10
-14.6873598951363
 20
-63.48558099600632
 30
0.0
 11
-24.47893315856118
 21
-65.507753735191727
 31
0.0
  0
LINE
  8
DETAIL
  6
CONTINUOUS
 62
     5
 10
-24.47893315856118
 20
-65.507753735191727
 30
0.0
 11
-33.791570773231001
 21
-68.700658060221485
 31
0.0
  0
LINE
  8
DETAIL
  6
CONTINUOUS
 62
     5
 10
-33.791570773231001
 20
-68.700658060221485
 30
0.0
 11
-42.678487811229957
 21
-72.798218610676031
 31
0.0
  0
LINE
  8
DETAIL
  6
CONTINUOUS
 62
     5
 10
-42.678487811229957
 20
-72.798218610676031
 30
0.0
 11
-50.980039056306957
 21
-78.013295674891197
 31
0.0
  0
LINE
  8
DETAIL
  6
CONTINUOUS
 62
     5
 10
-50.980039056306957
 20
-78.013295674891197
 30
0.0
 11
-59.015514940964977
 21
-83.973383748279957
 31
0.0
  0
LINE
  8
DETAIL
  6
CONTINUOUS
 62
     5
 10
-59.015514940964977
 20
-83.973383748279957
 30
0.0
 11
-65.986689383946668
 21
-90.784912975010229
 31
0.0
  0
LINE
  8
DETAIL
  6
CONTINUOUS
 62
     5
 10
-65.986689383946668
 20
-90.784912975010229
 30
0.0
 11
-72.532143250257377
 21
-98.288238138829684
 31
0.0
  0
LINE
  8
DETAIL
  6
CONTINUOUS
 62
     5
 10
-72.532143250257377
 20
-98.288238138829684
 30
0.0
 11
-78.013295674891765
 21
-106.21728387932031
 31
0.0
  0
LINE
  8
DETAIL
  6
CONTINUOUS
 62
     5
 10
-78.013295674891765
 20
-106.21728387932031
 30
0.0
 11
-82.483361729933222
 21
-114.9977707731516
 31
0.0
  0
LINE
  8
DETAIL
  6
CONTINUOUS
 62
     5
 10
-82.483361729933222
 20
-114.9977707731516
 30
0.0
 11
-86.314846919968772
 21
-124.3104083878216
 31
0.0
  0
LINE
  8
DETAIL
  6
CONTINUOUS
 62
     5
 10
-86.314846919968772
 20
-124.3104083878216
 30
0.0
 11
-89.028815596243817
 21
-133.67626107457551
 31
0.0
  0
LINE
  8
DETAIL
  6
CONTINUOUS
 62
     5
 10
-89.028815596243817
 20
-133.67626107457551
 30
0.0
 11
-90.518837614591234
 21
-143.52104941008341
 31
0.0
  0
LINE
  8
DETAIL
  6
CONTINUOUS
 62
     5
 10
-90.518837614591234
 20
-143.52104941008341
 30
0.0
 11
-90.997773263345721
 21
-153.3126226735078
 31
0.0
  0
LINE
  8
DETAIL
  6
CONTINUOUS
 62
     5
 10
-90.997773263345721
 20
-153.3126226735078
 30
0.0
 11
-90.518837614591234
 21
-162.99776579276451
 31
0.0
  0
LINE
  8
DETAIL
  6
CONTINUOUS
 62
     5
 10
-90.518837614591234
 20
-162.99776579276451
 30
0.0
 11
-89.028815596243817
 21
-172.78933905618871
 31
0.0
  0
LINE
  8
DETAIL
  6
CONTINUOUS
 62
     5
 10
-89.028815596243817
 20
-172.78933905618871
 30
0.0
 11
-86.314846919968772
 21
-182.20840681502639
 31
0.0
  0
LINE
  8
DETAIL
  6
CONTINUOUS
 62
     5
 10
-86.314846919968772
 20
-182.20840681502639
 30
0.0
 11
-82.483361729933222
 21
-191.5210444296963
 31
0.0
  0
LINE
  8
DETAIL
  6
CONTINUOUS
 62
     5
 10
-82.483361729933222
 20
-191.5210444296963
 30
0.0
 11
-78.013295674891765
 21
-200.3015313235278
 31
0.0
  0
LINE
  8
DETAIL
  6
CONTINUOUS
 62
     5
 10
-78.013295674891765
 20
-200.3015313235278
 30
0.0
 11
-72.532143250257377
 21
-208.23057706401801
 31
0.0
  0
LINE
  8
DETAIL
  6
CONTINUOUS
 62
     5
 10
-72.532143250257377
 20
-208.23057706401801
 30
0.0
 11
-65.986689383946668
 21
-215.73390222783789
 31
0.0
  0
LINE
  8
DETAIL
  6
CONTINUOUS
 62
     5
 10
-65.986689383946668
 20
-215.73390222783789
 30
0.0
 11
-59.015514940964977
 21
-222.4922163824842
 31
0.0
  0
LINE
  8
DETAIL
  6
CONTINUOUS
 62
     5
 10
-59.015514940964977
 20
-222.4922163824842
 30
0.0
 11
-50.980039056306957
 21
-228.50551952795669
 31
0.0
  0
LINE
  8
DETAIL
  6
CONTINUOUS
 62
     5
 10
-50.980039056306957
 20
-228.50551952795669
 30
0.0
 11
-42.678487811229957
 21
-233.72059659217169
 31
0.0
  0
LINE
  8
DETAIL
  6
CONTINUOUS
 62
     5
 10
-42.678487811229957
 20
-233.72059659217169
 30
0.0
 11
-33.791570773231001
 21
-237.8181571426264
 31
0.0
  0
LINE
  8
DETAIL
  6
CONTINUOUS
 62
     5
 10
-33.791570773231001
 20
-237.8181571426264
 30
0.0
 11
-24.47893315856118
 21
-241.01106146765599
 31
0.0
  0
LINE
  8
DETAIL
  6
CONTINUOUS
 62
     5
 10
-24.47893315856118
 20
-241.01106146765599
 30
0.0
 11
-14.6873598951363
 21
-243.0332342068416
 31
0.0
  0
LINE
  8
DETAIL
  6
CONTINUOUS
 62
     5
 10
-14.6873598951363
 20
-243.0332342068416
 30
0.0
 11
-5.0022167758799014
 21
-244.31039593685341
 31
0.0
  0
LINE
  8
DETAIL
  6
CONTINUOUS
 62
     5
 10
-5.0022167758799014
 20
-244.31039593685341
 30
0.0
 11
5.0022167758799014
 21
-244.31039593685341
 31
0.0
  0
LINE
  8
DETAIL
  6
CONTINUOUS
 62
     5
 10
5.0022167758799014
 20
-244.31039593685341
 30
0.0
 11
14.793790039304209
 21
-243.0332342068416
 31
0.0
  0
LINE
  8
DETAIL
  6
CONTINUOUS
 62
     5
 10
14.793790039304209
 20
-243.0332342068416
 30
0.0
 11
24.212857798141499
 21
-241.01106146765599
 31
0.0
  0
LINE
  8
DETAIL
  6
CONTINUOUS
 62
     5
 10
24.212857798141499
 20
-241.01106146765599
 30
0.0
 11
33.685140629062971
 21
-237.8181571426264
 31
0.0
  0
LINE
  8
DETAIL
  6
CONTINUOUS
 62
     5
 10
33.685140629062971
 20
-237.8181571426264
 30
0.0
 11
42.51884259497831
 21
-233.72059659217169
 31
0.0
  0
LINE
  8
DETAIL
  6
CONTINUOUS
 62
     5
 10
42.51884259497831
 20
-233.72059659217169
 30
0.0
 11
50.98003905630685
 21
-228.50551952795669
 31
0.0
  0
LINE
  8
DETAIL
  6
CONTINUOUS
 62
     5
 10
50.98003905630685
 20
-228.50551952795669
 30
0.0
 11
59.015514940964863
 21
-222.4922163824842
 31
0.0
  0
LINE
  8
DETAIL
  6
CONTINUOUS
 62
     5
 10
59.015514940964863
 20
-222.4922163824842
 30
0.0
 11
65.986689383946555
 21
-215.73390222783789
 31
0.0
  0
LINE
  8
DETAIL
  6
CONTINUOUS
 62
     5
 10
65.986689383946555
 20
-215.73390222783789
 30
0.0
 11
72.532143250257263
 21
-208.23057706401801
 31
0.0
  0
LINE
  8
DETAIL
  6
CONTINUOUS
 62
     5
 10
72.532143250257263
 20
-208.23057706401801
 30
0.0
 11
78.013295674891651
 21
-200.3015313235278
 31
0.0
  0
LINE
  8
DETAIL
  6
CONTINUOUS
 62
     5
 10
78.013295674891651
 20
-200.3015313235278
 30
0.0
 11
82.483361729933108
 21
-191.5210444296963
 31
0.0
  0
LINE
  8
DETAIL
  6
CONTINUOUS
 62
     5
 10
82.483361729933108
 20
-191.5210444296963
 30
0.0
 11
86.208416775801197
 21
-182.20840681502639
 31
0.0
  0
LINE
  8
DETAIL
  6
CONTINUOUS
 62
     5
 10
86.208416775801197
 20
-182.20840681502639
 30
0.0
 11
88.709525163740864
 21
-172.78933905618871
 31
0.0
  0
LINE
  8
DETAIL
  6
CONTINUOUS
 62
     5
 10
88.709525163740864
 20
-172.78933905618871
 30
0.0
 11
90.518837614591234
 21
-162.99776579276451
 31
0.0
  0
LINE
  8
DETAIL
  6
CONTINUOUS
 62
     5
 10
90.518837614591234
 20
-162.99776579276451
 30
0.0
 11
90.997773263345607
 21
-153.3126226735078
 31
0.0
  0
LINE
  8
DETAIL
  6
CONTINUOUS
 62
     5
 10
19.476716382681161
 20
-39.485583486200312
 30
0.0
 11
19.210641022261711
 21
-40.975605504547048
 31
0.0
  0
LINE
  8
DETAIL
  6
CONTINUOUS
 62
     5
 10
19.210641022261711
 20
-40.975605504547048
 30
0.0
 11
18.997780733926788
 21
-42.99777824373291
 31
0.0
  0
LINE
  8
DETAIL
  6
CONTINUOUS
 62
     5
 10
18.997780733926788
 20
-42.99777824373291
 30
0.0
 11
19.796006815184111
 21
-44.966735910834132
 31
0.0
  0
LINE
  8
DETAIL
  6
CONTINUOUS
 62
     5
 10
19.796006815184111
 20
-44.966735910834132
 30
0.0
 11
21.019953473111968
 21
-46.509973001265507
 31
0.0
  0
LINE
  8
DETAIL
  6
CONTINUOUS
 62
     5
 10
21.019953473111968
 20
-46.509973001265507
 30
0.0
 11
22.829265923962229
 21
-47.467844298774033
 31
0.0
  0
LINE
  8
DETAIL
  6
CONTINUOUS
 62
     5
 10
22.829265923962229
 20
-47.467844298774033
 30
0.0
 11
24.798223591064019
 21
-47.99999501961247
 31
0.0
  0
LINE
  8
DETAIL
  6
CONTINUOUS
 62
     5
 10
24.798223591064019
 20
-47.99999501961247
 30
0.0
 11
26.713966186081851
 21
-47.78713473127732
 31
0.0
  0
LINE
  8
DETAIL
  6
CONTINUOUS
 62
     5
 10
26.713966186081851
 20
-47.78713473127732
 30
0.0
 11
28.52327863693154
 21
-46.988908650019773
 31
0.0
  0
LINE
  8
DETAIL
  6
CONTINUOUS
 62
     5
 10
28.52327863693154
 20
-46.988908650019773
 30
0.0
 11
30.01330065527884
 21
-45.498886631672349
 31
0.0
  0
LINE
  8
DETAIL
  6
CONTINUOUS
 62
     5
 10
30.01330065527884
 20
-45.498886631672349
 30
0.0
 11
30.81152673653628
 21
-43.476713892487403
 31
0.0
  0
LINE
  8
DETAIL
  6
CONTINUOUS
 62
     5
 10
31.184032241123191
 20
-42.199552162475356
 30
0.0
 11
30.81152673653628
 21
-43.476713892487403
 31
0.0
  0
LINE
  8
DETAIL
  6
CONTINUOUS
 62
     5
 10
-106.69621952807471
 20
-182.20840681502639
 30
0.0
 11
-105.79156330264991
 21
-180.98446015709831
 31
0.0
  0
LINE
  8
DETAIL
  6
CONTINUOUS
 62
     5
 10
-105.79156330264991
 20
-180.98446015709831
 30
0.0
 11
-105.2061975097275
 21
-179.28157785041569
 31
0.0
  0
LINE
  8
DETAIL
  6
CONTINUOUS
 62
     5
 10
-105.2061975097275
 20
-179.28157785041569
 30
0.0
 11
-105.2061975097275
 21
-177.52548047164939
 31
0.0
  0
LINE
  8
DETAIL
  6
CONTINUOUS
 62
     5
 10
-105.2061975097275
 20
-177.52548047164939
 30
0.0
 11
-105.79156330264991
 21
-175.82259816496679
 31
0.0
  0
LINE
  8
DETAIL
  6
CONTINUOUS
 62
     5
 10
-105.79156330264991
 20
-175.82259816496679
 30
0.0
 11
-106.69621952807471
 21
-174.27936107453621
 31
0.0
  0
LINE
  8
DETAIL
  6
CONTINUOUS
 62
     5
 10
-77.002209305298834
 20
-64.496667365599251
 30
0.0
 11
-84.186244036616017
 21
-71.521056880664219
 31
0.0
  0
LINE
  8
DETAIL
  6
CONTINUOUS
 62
     5
 10
-84.186244036616017
 20
-71.521056880664219
 30
0.0
 11
-90.997773263345721
 21
-78.705091611981288
 31
0.0
  0
LINE
  8
DETAIL
  6
CONTINUOUS
 62
     5
 10
-90.997773263345721
 20
-78.705091611981288
 30
0.0
 11
-97.01107640881844
 21
-86.793782568723145
 31
0.0
  0
LINE
  8
DETAIL
  6
CONTINUOUS
 62
     5
 10
-97.01107640881844
 20
-86.793782568723145
 30
0.0
 11
-102.22615347303341
 21
-95.308194102135531
 31
0.0
  0
LINE
  8
DETAIL
  6
CONTINUOUS
 62
     5
 10
-102.22615347303341
 20
-95.308194102135531
 30
0.0
 11
-106.69621952807471
 21
-103.98225085179961
 31
0.0
  0
LINE
  8
DETAIL
  6
CONTINUOUS
 62
     5
 10
-74.022165268604681
 20
-244.52325622518859
 30
0.0
 11
-65.986689383946668
 21
-250.53655937066111
 31
0.0
  0
LINE
  8
DETAIL
  6
CONTINUOUS
 62
     5
 10
-65.986689383946668
 20
-250.53655937066111
 30
0.0
 11
-57.525492922618128
 21
-255.69842136279249
 31
0.0
  0
LINE
  8
DETAIL
  6
CONTINUOUS
 62
     5
 10
-57.525492922618128
 20
-255.69842136279249
 30
0.0
 11
-48.478930668367298
 21
-260.3281326340857
 31
0.0
  0
LINE
  8
DETAIL
  6
CONTINUOUS
 62
     5
 10
-48.478930668367298
 20
-260.3281326340857
 30
0.0
 11
-39.219508125781317
 21
-263.99997260786989
 31
0.0
  0
LINE
  8
DETAIL
  6
CONTINUOUS
 62
     5
 10
-39.219508125781317
 20
-263.99997260786989
 30
0.0
 11
-29.694010222776001
 21
-267.03323171664812
 31
0.0
  0
LINE
  8
DETAIL
  6
CONTINUOUS
 62
     5
 10
-29.694010222776001
 20
-267.03323171664812
 30
0.0
 11
-20.008867103519151
 21
-269.00218938374962
 31
0.0
  0
LINE
  8
DETAIL
  6
CONTINUOUS
 62
     5
 10
-20.008867103519151
 20
-269.00218938374962
 30
0.0
 11
-10.00443355175992
 21
-270.33256618584511
 31
0.0
  0
LINE
  8
DETAIL
  6
CONTINUOUS
 62
     5
 10
-10.00443355175992
 20
-270.33256618584511
 30
0.0
 11
0.0
 21
-270.70507169043191
 31
0.0
  0
LINE
  8
DETAIL
  6
CONTINUOUS
 62
     5
 10
0.0
 20
-270.70507169043191
 30
0.0
 11
10.004433551759799
 21
-270.33256618584511
 31
0.0
  0
LINE
  8
DETAIL
  6
CONTINUOUS
 62
     5
 10
10.004433551759799
 20
-270.33256618584511
 30
0.0
 11
19.796006815184111
 21
-269.00218938374962
 31
0.0
  0
LINE
  8
DETAIL
  6
CONTINUOUS
 62
     5
 10
19.796006815184111
 20
-269.00218938374962
 30
0.0
 11
29.800440366943459
 21
-267.03323171664812
 31
0.0
  0
LINE
  8
DETAIL
  6
CONTINUOUS
 62
     5
 10
29.800440366943459
 20
-267.03323171664812
 30
0.0
 11
39.219508125781317
 21
-263.99997260786989
 31
0.0
  0
LINE
  8
DETAIL
  6
CONTINUOUS
 62
     5
 10
39.219508125781317
 20
-263.99997260786989
 30
0.0
 11
48.532145740451263
 21
-260.3281326340857
 31
0.0
  0
LINE
  8
DETAIL
  6
CONTINUOUS
 62
     5
 10
48.532145740451263
 20
-260.3281326340857
 30
0.0
 11
57.525492922618128
 21
-255.69842136279249
 31
0.0
  0
LINE
  8
DETAIL
  6
CONTINUOUS
 62
     5
 10
57.525492922618128
 20
-255.69842136279249
 30
0.0
 11
65.986689383946555
 21
-250.53655937066111
 31
0.0
  0
LINE
  8
DETAIL
  6
CONTINUOUS
 62
     5
 10
65.986689383946555
 20
-250.53655937066111
 30
0.0
 11
74.022165268604681
 21
-244.52325622518859
 31
0.0
  0
LINE
  8
DETAIL
  6
CONTINUOUS
 62
     5
 10
77.00220930529872
 20
-242.02214783724889
 30
0.0
 11
84.186244036615903
 21
-234.9977583221835
 31
0.0
  0
LINE
  8
DETAIL
  6
CONTINUOUS
 62
     5
 10
84.186244036615903
 20
-234.9977583221835
 30
0.0
 11
90.997773263345607
 21
-227.8137235908666
 31
0.0
  0
LINE
  8
DETAIL
  6
CONTINUOUS
 62
     5
 10
90.997773263345607
 20
-227.8137235908666
 30
0.0
 11
96.691785976315373
 21
-219.83146277829269
 31
0.0
  0
LINE
  8
DETAIL
  6
CONTINUOUS
 62
     5
 10
96.691785976315373
 20
-219.83146277829269
 30
0.0
 11
102.3325836172007
 21
-211.21062110071281
 31
0.0
  0
LINE
  8
DETAIL
  6
CONTINUOUS
 62
     5
 10
102.3325836172007
 20
-211.21062110071281
 30
0.0
 11
106.69621952807471
 21
-202.4833492789646
 31
0.0
  0
LINE
  8
DETAIL
  6
CONTINUOUS
 62
     5
 10
74.022165268604681
 20
-61.995558977659357
 30
0.0
 11
66.518840104784999
 21
-56.514406553024862
 31
0.0
  0
LINE
  8
DETAIL
  6
CONTINUOUS
 62
     5
 10
66.518840104784999
 20
-56.514406553024862
 30
0.0
 11
58.696224508462024
 21
-51.512189777145302
 31
0.0
  0
LINE
  8
DETAIL
  6
CONTINUOUS
 62
     5
 10
58.696224508462024
 20
-51.512189777145302
 30
0.0
 11
50.820393840055999
 21
-47.201768938354917
 31
0.0
  0
LINE
  8
DETAIL
  6
CONTINUOUS
 62
     5
 10
50.820393840055999
 20
-47.201768938354917
 30
0.0
 11
42.305982306642932
 21
-43.689574180822319
 31
0.0
  0
LINE
  8
DETAIL
  6
CONTINUOUS
 62
     5
 10
42.305982306642932
 20
-43.689574180822319
 30
0.0
 11
33.685140629062971
 21
-40.815960288295862
 31
0.0
  0
LINE
  8
DETAIL
  6
CONTINUOUS
 62
     5
 10
17.82704914808232
 20
-37.197335386595341
 30
0.0
 11
7.9822608125740544
 21
-35.97338872866726
 31
0.0
  0
LINE
  8
DETAIL
  6
CONTINUOUS
 62
     5
 10
7.9822608125740544
 20
-35.97338872866726
 30
0.0
 11
-1.702882306682227
 21
-35.81374351241584
 31
0.0
  0
LINE
  8
DETAIL
  6
CONTINUOUS
 62
     5
 10
-1.702882306682227
 20
-35.81374351241584
 30
0.0
 11
-11.49445557010665
 21
-36.186249017002638
 31
0.0
  0
LINE
  8
DETAIL
  6
CONTINUOUS
 62
     5
 10
-11.49445557010665
 20
-36.186249017002638
 30
0.0
 11
-21.28602883353096
 21
-37.782701179517737
 31
0.0
  0
LINE
  8
DETAIL
  6
CONTINUOUS
 62
     5
 10
-21.28602883353096
 20
-37.782701179517737
 30
0.0
 11
-30.81152673653639
 21
-39.698443774535242
 31
0.0
  0
LINE
  8
DETAIL
  6
CONTINUOUS
 62
     5
 10
-30.81152673653639
 20
-39.698443774535242
 30
0.0
 11
-40.017734207038188
 21
-42.784917955397297
 31
0.0
  0
LINE
  8
DETAIL
  6
CONTINUOUS
 62
     5
 10
-40.017734207038188
 20
-42.784917955397297
 30
0.0
 11
-49.011081389205167
 21
-46.509973001265507
 31
0.0
  0
LINE
  8
DETAIL
  6
CONTINUOUS
 62
     5
 10
-49.011081389205167
 20
-46.509973001265507
 30
0.0
 11
-57.685138138869092
 21
-50.98003905630685
 31
0.0
  0
LINE
  8
DETAIL
  6
CONTINUOUS
 62
     5
 10
-57.685138138869092
 20
-50.98003905630685
 30
0.0
 11
-66.305979816449621
 21
-56.195116120522023
 31
0.0
  0
LINE
  8
DETAIL
  6
CONTINUOUS
 62
     5
 10
-66.305979816449621
 20
-56.195116120522023
 30
0.0
 11
-74.022165268604681
 21
-61.995558977659357
 31
0.0
  0
LINE
  8
DETAIL
  6
CONTINUOUS
 62
     5
 10
-107.0155099605778
 20
-201.20618754895281
 30
0.0
 11
-107.0155099605778
 21
-201.79155334187519
 31
0.0
  0
LINE
  8
DETAIL
  6
CONTINUOUS
 62
     5
 10
-107.0155099605778
 20
-201.79155334187519
 30
0.0
 11
-106.69621952807471
 21
-202.4833492789646
 31
0.0
  0
LINE
  8
DETAIL
  6
CONTINUOUS
 62
     5
 10
-106.69621952807471
 20
-103.98225085179961
 30
0.0
 11
-107.0155099605778
 21
-104.674046788889
 31
0.0
  0
LINE
  8
DETAIL
  6
CONTINUOUS
 62
     5
 10
-107.0155099605778
 20
-104.674046788889
 30
0.0
 11
-107.0155099605778
 21
-105.31262765389511
 31
0.0
  0
LINE
  8
DETAIL
  6
CONTINUOUS
 62
     5
 10
107.0155099605777
 20
-105.31262765389511
 30
0.0
 11
107.0155099605777
 21
-104.674046788889
 31
0.0
  0
LINE
  8
DETAIL
  6
CONTINUOUS
 62
     5
 10
107.0155099605777
 20
-104.674046788889
 30
0.0
 11
106.69621952807471
 21
-103.98225085179961
 31
0.0
  0
LINE
  8
DETAIL
  6
CONTINUOUS
 62
     5
 10
106.69621952807471
 20
-202.4833492789646
 30
0.0
 11
107.0155099605777
 21
-201.79155334187519
 31
0.0
  0
LINE
  8
DETAIL
  6
CONTINUOUS
 62
     5
 10
107.0155099605777
 20
-201.79155334187519
 30
0.0
 11
107.0155099605777
 21
-201.20618754895281
 31
0.0
  0
LINE
  8
DETAIL
  6
CONTINUOUS
 62
     5
 10
-106.69621952807471
 20
-182.20840681502639
 30
0.0
 11
-107.0155099605778
 21
-183.00663289628369
 31
0.0
  0
LINE
  8
DETAIL
  6
CONTINUOUS
 62
     5
 10
-107.0155099605778
 20
-173.69399528161401
 30
0.0
 11
-106.69621952807471
 21
-174.27936107453621
 31
0.0
  0
LINE
  8
DETAIL
  6
CONTINUOUS
 62
     5
 10
19.476716382681161
 20
-39.485583486200312
 30
0.0
 11
19.476716382681161
 21
-39.006647837445833
 31
0.0
  0
LINE
  8
DETAIL
  6
CONTINUOUS
 62
     5
 10
19.476716382681161
 20
-39.006647837445833
 30
0.0
 11
19.210641022261711
 21
-38.314851900355961
 31
0.0
  0
LINE
  8
DETAIL
  6
CONTINUOUS
 62
     5
 10
19.210641022261711
 20
-38.314851900355961
 30
0.0
 11
18.997780733926788
 21
-37.782701179517737
 31
0.0
  0
LINE
  8
DETAIL
  6
CONTINUOUS
 62
     5
 10
18.997780733926788
 20
-37.782701179517737
 30
0.0
 11
18.518845085172298
 21
-37.197335386595341
 31
0.0
  0
LINE
  8
DETAIL
  6
CONTINUOUS
 62
     5
 10
18.518845085172298
 20
-37.197335386595341
 30
0.0
 11
17.82704914808232
 21
-37.197335386595341
 31
0.0
  0
LINE
  8
DETAIL
  6
CONTINUOUS
 62
     5
 10
33.685140629062971
 20
-40.815960288295862
 30
0.0
 11
32.993344691972993
 21
-40.496669855793023
 31
0.0
  0
LINE
  8
DETAIL
  6
CONTINUOUS
 62
     5
 10
32.993344691972993
 20
-40.496669855793023
 30
0.0
 11
32.514409043219189
 21
-40.815960288295862
 31
0.0
  0
LINE
  8
DETAIL
  6
CONTINUOUS
 62
     5
 10
32.514409043219189
 20
-40.815960288295862
 30
0.0
 11
31.716182961961181
 21
-40.975605504547048
 31
0.0
  0
LINE
  8
DETAIL
  6
CONTINUOUS
 62
     5
 10
31.716182961961181
 20
-40.975605504547048
 30
0.0
 11
31.503322673626261
 21
-41.507756225385258
 31
0.0
  0
LINE
  8
DETAIL
  6
CONTINUOUS
 62
     5
 10
31.503322673626261
 20
-41.507756225385258
 30
0.0
 11
31.184032241123191
 21
-42.199552162475356
 31
0.0
  0
LINE
  8
DETAIL
  6
CONTINUOUS
 62
     5
 10
75.299326998616493
 20
-64.975603014353737
 30
0.0
 11
75.512187286951985
 21
-64.709527653934401
 31
0.0
  0
LINE
  8
DETAIL
  6
CONTINUOUS
 62
     5
 10
73.702874836101728
 20
-63.698441284341918
 30
0.0
 11
74.022165268604681
 21
-63.48558099600632
 31
0.0
  0
LINE
  8
DETAIL
  6
CONTINUOUS
 62
     5
 10
73.702874836101728
 20
-63.698441284341918
 30
0.0
 11
73.490014547766236
 21
-64.017731716844764
 31
0.0
  0
LINE
  8
DETAIL
  6
CONTINUOUS
 62
     5
 10
73.490014547766236
 20
-64.017731716844764
 30
0.0
 11
73.490014547766236
 21
-64.496667365599251
 31
0.0
  0
LINE
  8
DETAIL
  6
CONTINUOUS
 62
     5
 10
73.490014547766236
 20
-64.496667365599251
 30
0.0
 11
73.490014547766236
 21
-64.709527653934401
 31
0.0
  0
LINE
  8
DETAIL
  6
CONTINUOUS
 62
     5
 10
73.490014547766236
 20
-64.709527653934401
 30
0.0
 11
73.702874836101728
 21
-64.975603014353737
 31
0.0
  0
LINE
  8
DETAIL
  6
CONTINUOUS
 62
     5
 10
73.702874836101728
 20
-64.975603014353737
 30
0.0
 11
74.022165268604681
 21
-65.294893446856577
 31
0.0
  0
LINE
  8
DETAIL
  6
CONTINUOUS
 62
     5
 10
74.022165268604681
 20
-65.294893446856577
 30
0.0
 11
74.181810484856101
 21
-65.507753735191727
 31
0.0
  0
LINE
  8
DETAIL
  6
CONTINUOUS
 62
     5
 10
74.181810484856101
 20
-65.507753735191727
 30
0.0
 11
74.820391349862007
 21
-65.507753735191727
 31
0.0
  0
LINE
  8
DETAIL
  6
CONTINUOUS
 62
     5
 10
74.820391349862007
 20
-65.507753735191727
 30
0.0
 11
75.03325163819693
 21
-65.294893446856577
 31
0.0
  0
LINE
  8
DETAIL
  6
CONTINUOUS
 62
     5
 10
75.03325163819693
 20
-65.294893446856577
 30
0.0
 11
75.299326998616493
 21
-64.975603014353737
 31
0.0
  0
LINE
  8
DETAIL
  6
CONTINUOUS
 62
     5
 10
77.00220930529872
 20
-64.496667365599251
 30
0.0
 11
76.682918872795767
 21
-64.496667365599251
 31
0.0
  0
LINE
  8
DETAIL
  6
CONTINUOUS
 62
     5
 10
76.682918872795767
 20
-64.496667365599251
 30
0.0
 11
76.523273656544347
 21
-64.283807077263646
 31
0.0
  0
LINE
  8
DETAIL
  6
CONTINUOUS
 62
     5
 10
76.523273656544347
 20
-64.283807077263646
 30
0.0
 11
76.203983224041394
 21
-64.283807077263646
 31
0.0
  0
LINE
  8
DETAIL
  6
CONTINUOUS
 62
     5
 10
76.203983224041394
 20
-64.283807077263646
 30
0.0
 11
75.831477719454938
 21
-64.496667365599251
 31
0.0
  0
LINE
  8
DETAIL
  6
CONTINUOUS
 62
     5
 10
75.831477719454938
 20
-64.496667365599251
 30
0.0
 11
75.512187286951985
 21
-64.709527653934401
 31
0.0
  0
LINE
  8
DETAIL
  6
CONTINUOUS
 62
     5
 10
74.022165268604681
 20
-63.48558099600632
 30
0.0
 11
74.181810484856101
 21
-63.006645347251833
 31
0.0
  0
LINE
  8
DETAIL
  6
CONTINUOUS
 62
     5
 10
74.181810484856101
 20
-63.006645347251833
 30
0.0
 11
74.181810484856101
 21
-62.793785058916683
 31
0.0
  0
LINE
  8
DETAIL
  6
CONTINUOUS
 62
     5
 10
74.181810484856101
 20
-62.793785058916683
 30
0.0
 11
74.181810484856101
 21
-62.474494626413623
 31
0.0
  0
LINE
  8
DETAIL
  6
CONTINUOUS
 62
     5
 10
74.181810484856101
 20
-62.474494626413623
 30
0.0
 11
74.181810484856101
 21
-62.208419265994507
 31
0.0
  0
LINE
  8
DETAIL
  6
CONTINUOUS
 62
     5
 10
74.181810484856101
 20
-62.208419265994507
 30
0.0
 11
74.022165268604681
 21
-61.995558977659357
 31
0.0
  0
LINE
  8
DETAIL
  6
CONTINUOUS
 62
     5
 10
-73.809304980269189
 20
-63.698441284341918
 30
0.0
 11
-74.181810484856214
 21
-63.48558099600632
 31
0.0
  0
LINE
  8
DETAIL
  6
CONTINUOUS
 62
     5
 10
-75.192896854449032
 20
-64.975603014353737
 30
0.0
 11
-75.192896854449032
 21
-65.294893446856577
 31
0.0
  0
LINE
  8
DETAIL
  6
CONTINUOUS
 62
     5
 10
-75.192896854449032
 20
-65.294893446856577
 30
0.0
 11
-74.71396120569409
 21
-65.507753735191727
 31
0.0
  0
LINE
  8
DETAIL
  6
CONTINUOUS
 62
     5
 10
-74.71396120569409
 20
-65.507753735191727
 30
0.0
 11
-74.501100917359167
 21
-65.507753735191727
 31
0.0
  0
LINE
  8
DETAIL
  6
CONTINUOUS
 62
     5
 10
-74.501100917359167
 20
-65.507753735191727
 30
0.0
 11
-74.181810484856214
 21
-65.294893446856577
 31
0.0
  0
LINE
  8
DETAIL
  6
CONTINUOUS
 62
     5
 10
-74.181810484856214
 20
-65.294893446856577
 30
0.0
 11
-74.022165268604681
 21
-65.294893446856577
 31
0.0
  0
LINE
  8
DETAIL
  6
CONTINUOUS
 62
     5
 10
-74.022165268604681
 20
-65.294893446856577
 30
0.0
 11
-73.809304980269189
 21
-64.975603014353737
 31
0.0
  0
LINE
  8
DETAIL
  6
CONTINUOUS
 62
     5
 10
-73.809304980269189
 20
-64.975603014353737
 30
0.0
 11
-73.809304980269189
 21
-64.709527653934401
 31
0.0
  0
LINE
  8
DETAIL
  6
CONTINUOUS
 62
     5
 10
-73.809304980269189
 20
-64.709527653934401
 30
0.0
 11
-73.490014547766236
 21
-64.283807077263646
 31
0.0
  0
LINE
  8
DETAIL
  6
CONTINUOUS
 62
     5
 10
-73.490014547766236
 20
-64.283807077263646
 30
0.0
 11
-73.809304980269189
 21
-64.017731716844764
 31
0.0
  0
LINE
  8
DETAIL
  6
CONTINUOUS
 62
     5
 10
-73.809304980269189
 20
-64.017731716844764
 30
0.0
 11
-73.809304980269189
 21
-63.698441284341918
 31
0.0
  0
LINE
  8
DETAIL
  6
CONTINUOUS
 62
     5
 10
-74.022165268604681
 20
-61.995558977659357
 30
0.0
 11
-74.181810484856214
 21
-62.208419265994507
 31
0.0
  0
LINE
  8
DETAIL
  6
CONTINUOUS
 62
     5
 10
-74.181810484856214
 20
-62.208419265994507
 30
0.0
 11
-74.181810484856214
 21
-62.474494626413623
 31
0.0
  0
LINE
  8
DETAIL
  6
CONTINUOUS
 62
     5
 10
-74.181810484856214
 20
-62.474494626413623
 30
0.0
 11
-74.181810484856214
 21
-62.793785058916683
 31
0.0
  0
LINE
  8
DETAIL
  6
CONTINUOUS
 62
     5
 10
-74.181810484856214
 20
-62.793785058916683
 30
0.0
 11
-74.181810484856214
 21
-63.006645347251833
 31
0.0
  0
LINE
  8
DETAIL
  6
CONTINUOUS
 62
     5
 10
-74.181810484856214
 20
-63.006645347251833
 30
0.0
 11
-74.181810484856214
 21
-63.48558099600632
 31
0.0
  0
LINE
  8
DETAIL
  6
CONTINUOUS
 62
     5
 10
-75.831477719454938
 20
-64.709527653934401
 30
0.0
 11
-75.991122935705903
 21
-64.496667365599251
 31
0.0
  0
LINE
  8
DETAIL
  6
CONTINUOUS
 62
     5
 10
-75.991122935705903
 20
-64.496667365599251
 30
0.0
 11
-76.31041336820897
 21
-64.283807077263646
 31
0.0
  0
LINE
  8
DETAIL
  6
CONTINUOUS
 62
     5
 10
-76.31041336820897
 20
-64.283807077263646
 30
0.0
 11
-76.523273656544347
 21
-64.283807077263646
 31
0.0
  0
LINE
  8
DETAIL
  6
CONTINUOUS
 62
     5
 10
-76.523273656544347
 20
-64.283807077263646
 30
0.0
 11
-76.682918872795881
 21
-64.496667365599251
 31
0.0
  0
LINE
  8
DETAIL
  6
CONTINUOUS
 62
     5
 10
-76.682918872795881
 20
-64.496667365599251
 30
0.0
 11
-77.002209305298834
 21
-64.496667365599251
 31
0.0
  0
LINE
  8
DETAIL
  6
CONTINUOUS
 62
     5
 10
-75.192896854449032
 20
-64.975603014353737
 30
0.0
 11
-75.831477719454938
 21
-64.709527653934401
 31
0.0
  0
LINE
  8
DETAIL
  6
CONTINUOUS
 62
     5
 10
74.022165268604681
 20
-244.52325622518859
 30
0.0
 11
74.181810484856101
 21
-244.31039593685341
 31
0.0
  0
LINE
  8
DETAIL
  6
CONTINUOUS
 62
     5
 10
74.181810484856101
 20
-244.31039593685341
 30
0.0
 11
74.181810484856101
 21
-243.9911055043506
 31
0.0
  0
LINE
  8
DETAIL
  6
CONTINUOUS
 62
     5
 10
74.181810484856101
 20
-243.9911055043506
 30
0.0
 11
74.181810484856101
 21
-243.72503014393121
 31
0.0
  0
LINE
  8
DETAIL
  6
CONTINUOUS
 62
     5
 10
74.181810484856101
 20
-243.72503014393121
 30
0.0
 11
74.181810484856101
 21
-243.51216985559611
 31
0.0
  0
LINE
  8
DETAIL
  6
CONTINUOUS
 62
     5
 10
74.181810484856101
 20
-243.51216985559611
 30
0.0
 11
74.022165268604681
 21
-243.19287942309299
 31
0.0
  0
LINE
  8
DETAIL
  6
CONTINUOUS
 62
     5
 10
73.702874836101728
 20
-242.82037391850639
 30
0.0
 11
74.022165268604681
 21
-243.19287942309299
 31
0.0
  0
LINE
  8
DETAIL
  6
CONTINUOUS
 62
     5
 10
75.512187286951985
 20
-241.80928754891349
 30
0.0
 11
75.831477719454938
 21
-242.02214783724889
 31
0.0
  0
LINE
  8
DETAIL
  6
CONTINUOUS
 62
     5
 10
75.831477719454938
 20
-242.02214783724889
 30
0.0
 11
76.203983224041394
 21
-242.288223197668
 31
0.0
  0
LINE
  8
DETAIL
  6
CONTINUOUS
 62
     5
 10
76.203983224041394
 20
-242.288223197668
 30
0.0
 11
76.523273656544347
 21
-242.288223197668
 31
0.0
  0
LINE
  8
DETAIL
  6
CONTINUOUS
 62
     5
 10
76.523273656544347
 20
-242.288223197668
 30
0.0
 11
76.682918872795767
 21
-242.288223197668
 31
0.0
  0
LINE
  8
DETAIL
  6
CONTINUOUS
 62
     5
 10
76.682918872795767
 20
-242.288223197668
 30
0.0
 11
77.00220930529872
 21
-242.02214783724889
 31
0.0
  0
LINE
  8
DETAIL
  6
CONTINUOUS
 62
     5
 10
75.299326998616493
 20
-241.48999711641039
 30
0.0
 11
75.512187286951985
 21
-241.80928754891349
 31
0.0
  0
LINE
  8
DETAIL
  6
CONTINUOUS
 62
     5
 10
75.299326998616493
 20
-241.48999711641039
 30
0.0
 11
75.03325163819693
 21
-241.2239217559916
 31
0.0
  0
LINE
  8
DETAIL
  6
CONTINUOUS
 62
     5
 10
75.03325163819693
 20
-241.2239217559916
 30
0.0
 11
74.820391349862007
 21
-241.2239217559916
 31
0.0
  0
LINE
  8
DETAIL
  6
CONTINUOUS
 62
     5
 10
74.820391349862007
 20
-241.2239217559916
 30
0.0
 11
74.181810484856101
 21
-241.2239217559916
 31
0.0
  0
LINE
  8
DETAIL
  6
CONTINUOUS
 62
     5
 10
74.181810484856101
 20
-241.2239217559916
 30
0.0
 11
74.022165268604681
 21
-241.2239217559916
 31
0.0
  0
LINE
  8
DETAIL
  6
CONTINUOUS
 62
     5
 10
74.022165268604681
 20
-241.2239217559916
 30
0.0
 11
73.702874836101728
 21
-241.48999711641039
 31
0.0
  0
LINE
  8
DETAIL
  6
CONTINUOUS
 62
     5
 10
73.702874836101728
 20
-241.48999711641039
 30
0.0
 11
73.490014547766236
 21
-241.80928754891349
 31
0.0
  0
LINE
  8
DETAIL
  6
CONTINUOUS
 62
     5
 10
73.490014547766236
 20
-241.80928754891349
 30
0.0
 11
73.490014547766236
 21
-242.288223197668
 31
0.0
  0
LINE
  8
DETAIL
  6
CONTINUOUS
 62
     5
 10
73.490014547766236
 20
-242.288223197668
 30
0.0
 11
73.490014547766236
 21
-242.50108348600341
 31
0.0
  0
LINE
  8
DETAIL
  6
CONTINUOUS
 62
     5
 10
73.490014547766236
 20
-242.50108348600341
 30
0.0
 11
73.702874836101728
 21
-242.82037391850639
 31
0.0
  0
LINE
  8
DETAIL
  6
CONTINUOUS
 62
     5
 10
-73.809304980269189
 20
-242.82037391850639
 30
0.0
 11
-74.181810484856214
 21
-243.19287942309299
 31
0.0
  0
LINE
  8
DETAIL
  6
CONTINUOUS
 62
     5
 10
-73.809304980269189
 20
-242.82037391850639
 30
0.0
 11
-73.809304980269189
 21
-242.50108348600341
 31
0.0
  0
LINE
  8
DETAIL
  6
CONTINUOUS
 62
     5
 10
-73.809304980269189
 20
-242.50108348600341
 30
0.0
 11
-73.490014547766236
 21
-242.288223197668
 31
0.0
  0
LINE
  8
DETAIL
  6
CONTINUOUS
 62
     5
 10
-73.490014547766236
 20
-242.288223197668
 30
0.0
 11
-73.809304980269189
 21
-242.02214783724889
 31
0.0
  0
LINE
  8
DETAIL
  6
CONTINUOUS
 62
     5
 10
-73.809304980269189
 20
-242.02214783724889
 30
0.0
 11
-73.809304980269189
 21
-241.48999711641039
 31
0.0
  0
LINE
  8
DETAIL
  6
CONTINUOUS
 62
     5
 10
-73.809304980269189
 20
-241.48999711641039
 30
0.0
 11
-74.022165268604681
 21
-241.2239217559916
 31
0.0
  0
LINE
  8
DETAIL
  6
CONTINUOUS
 62
     5
 10
-74.022165268604681
 20
-241.2239217559916
 30
0.0
 11
-74.181810484856214
 21
-241.2239217559916
 31
0.0
  0
LINE
  8
DETAIL
  6
CONTINUOUS
 62
     5
 10
-74.181810484856214
 20
-241.2239217559916
 30
0.0
 11
-74.501100917359167
 21
-241.2239217559916
 31
0.0
  0
LINE
  8
DETAIL
  6
CONTINUOUS
 62
     5
 10
-74.501100917359167
 20
-241.2239217559916
 30
0.0
 11
-74.71396120569409
 21
-241.2239217559916
 31
0.0
  0
LINE
  8
DETAIL
  6
CONTINUOUS
 62
     5
 10
-74.71396120569409
 20
-241.2239217559916
 30
0.0
 11
-75.192896854449032
 21
-241.2239217559916
 31
0.0
  0
LINE
  8
DETAIL
  6
CONTINUOUS
 62
     5
 10
-75.192896854449032
 20
-241.2239217559916
 30
0.0
 11
-75.192896854449032
 21
-241.48999711641039
 31
0.0
  0
LINE
  8
DETAIL
  6
CONTINUOUS
 62
     5
 10
-74.181810484856214
 20
-243.19287942309299
 30
0.0
 11
-74.181810484856214
 21
-243.51216985559611
 31
0.0
  0
LINE
  8
DETAIL
  6
CONTINUOUS
 62
     5
 10
-74.181810484856214
 20
-243.51216985559611
 30
0.0
 11
-74.181810484856214
 21
-243.72503014393121
 31
0.0
  0
LINE
  8
DETAIL
  6
CONTINUOUS
 62
     5
 10
-74.181810484856214
 20
-243.72503014393121
 30
0.0
 11
-74.181810484856214
 21
-243.9911055043506
 31
0.0
  0
LINE
  8
DETAIL
  6
CONTINUOUS
 62
     5
 10
-74.181810484856214
 20
-243.9911055043506
 30
0.0
 11
-74.181810484856214
 21
-244.31039593685341
 31
0.0
  0
LINE
  8
DETAIL
  6
CONTINUOUS
 62
     5
 10
-74.181810484856214
 20
-244.31039593685341
 30
0.0
 11
-74.022165268604681
 21
-244.52325622518859
 31
0.0
  0
LINE
  8
DETAIL
  6
CONTINUOUS
 62
     5
 10
-77.002209305298834
 20
-242.02214783724889
 30
0.0
 11
-76.682918872795881
 21
-242.288223197668
 31
0.0
  0
LINE
  8
DETAIL
  6
CONTINUOUS
 62
     5
 10
-76.682918872795881
 20
-242.288223197668
 30
0.0
 11
-76.523273656544347
 21
-242.288223197668
 31
0.0
  0
LINE
  8
DETAIL
  6
CONTINUOUS
 62
     5
 10
-76.523273656544347
 20
-242.288223197668
 30
0.0
 11
-76.31041336820897
 21
-242.288223197668
 31
0.0
  0
LINE
  8
DETAIL
  6
CONTINUOUS
 62
     5
 10
-76.31041336820897
 20
-242.288223197668
 30
0.0
 11
-75.991122935705903
 21
-242.02214783724889
 31
0.0
  0
LINE
  8
DETAIL
  6
CONTINUOUS
 62
     5
 10
-75.991122935705903
 20
-242.02214783724889
 30
0.0
 11
-75.831477719454938
 21
-241.80928754891349
 31
0.0
  0
LINE
  8
DETAIL
  6
CONTINUOUS
 62
     5
 10
-75.192896854449032
 20
-241.48999711641039
 30
0.0
 11
-75.831477719454938
 21
-241.80928754891349
 31
0.0
  0
LINE
  8
DETAIL
  6
CONTINUOUS
 62
     5
 10
-175.50330773246401
 20
-306.21881520284808
 30
0.0
 11
-175.50330773246401
 21
-305.42058912159081
 31
0.0
  0
LINE
  8
DETAIL
  6
CONTINUOUS
 62
     5
 10
175.50330773246401
 20
-306.21881520284808
 30
0.0
 11
175.50330773246401
 21
-305.42058912159081
 31
0.0
  0
LINE
  8
DETAIL
  6
CONTINUOUS
 62
     5
 10
-185.5077412842239
 20
-1.490022018346963
 30
0.0
 11
-185.5077412842239
 21
-0.7982260812573259
 31
0.0
  0
LINE
  8
DETAIL
  6
CONTINUOUS
 62
     5
 10
185.50774128422381
 20
-1.490022018346963
 30
0.0
 11
185.50774128422381
 21
-0.7982260812573259
 31
0.0
  0
LINE
  8
DETAIL
  6
CONTINUOUS
 62
     5
 10
185.50774128422381
 20
-2.7671837483587751
 30
0.0
 11
185.50774128422381
 21
-2.1818179554366002
 31
0.0
  0
LINE
  8
DETAIL
  6
CONTINUOUS
 62
     5
 10
-175.50330773246401
 20
-306.21881520284808
 30
0.0
 11
175.50330773246401
 21
-306.21881520284808
 31
0.0
  0
LINE
  8
DETAIL
  6
CONTINUOUS
 62
     5
 10
-185.5077412842239
 20
-0.7982260812573259
 30
0.0
 11
-175.50330773246401
 21
-0.7982260812573259
 31
0.0
  0
LINE
  8
DETAIL
  6
CONTINUOUS
 62
     5
 10
185.50774128422381
 20
-1.490022018346963
 30
0.0
 11
185.50774128422381
 21
-0.7982260812573259
 31
0.0
  0
LINE
  8
DETAIL
  6
CONTINUOUS
 62
     5
 10
185.50774128422381
 20
-2.7671837483587751
 30
0.0
 11
185.50774128422381
 21
-2.1818179554366002
 31
0.0
  0
LINE
  8
DETAIL
  6
CONTINUOUS
 62
     5
 10
175.50330773246401
 20
-0.7982260812573259
 30
0.0
 11
185.50774128422381
 21
-0.7982260812573259
 31
0.0
  0
LINE
  8
DETAIL
  6
CONTINUOUS
 62
     5
 10
-185.5077412842239
 20
-1.490022018346963
 30
0.0
 11
-185.5077412842239
 21
-0.7982260812573259
 31
0.0
  0
LINE
  8
DETAIL
  6
CONTINUOUS
 62
     5
 10
-185.5077412842239
 20
-2.7671837483587751
 30
0.0
 11
-185.5077412842239
 21
-2.1818179554366002
 31
0.0
  0
LINE
  8
DETAIL
  6
CONTINUOUS
 62
     5
 10
182.5276972475298
 20
-1.170731585843896
 30
0.0
 11
184.0177192658771
 21
-2.7671837483587751
 31
0.0
  0
LINE
  8
DETAIL
  6
CONTINUOUS
 62
     5
 10
-175.50330773246401
 20
-1.170731585843896
 30
0.0
 11
-182.5276972475292
 21
-1.170731585843896
 31
0.0
  0
LINE
  8
DETAIL
  6
CONTINUOUS
 62
     5
 10
182.5276972475298
 20
-1.170731585843896
 30
0.0
 11
175.50330773246401
 21
-1.170731585843896
 31
0.0
  0
LINE
  8
DETAIL
  6
CONTINUOUS
 62
     5
 10
175.50330773246401
 20
-1.170731585843896
 30
0.0
 11
175.50330773246401
 21
0.0
 31
0.0
  0
LINE
  8
DETAIL
  6
CONTINUOUS
 62
     5
 10
-175.50330773246401
 20
0.0
 30
0.0
 11
-175.50330773246401
 21
-1.170731585843896
 31
0.0
  0
LINE
  8
DETAIL
  6
CONTINUOUS
 62
     5
 10
-185.5077412842239
 20
-305.42058912159081
 30
0.0
 11
185.50774128422381
 21
-305.42058912159081
 31
0.0
  0
LINE
  8
DETAIL
  6
CONTINUOUS
 62
     5
 10
175.50330773246401
 20
0.0
 30
0.0
 11
-175.50330773246401
 21
0.0
 31
0.0
  0
LINE
  8
DETAIL
  6
CONTINUOUS
 62
     5
 10
185.50774128422381
 20
-305.42058912159081
 30
0.0
 11
185.50774128422381
 21
-303.39841638240529
 31
0.0
  0
LINE
  8
DETAIL
  6
CONTINUOUS
 62
     5
 10
-184.23057955421211
 20
-2.7671837483587751
 30
0.0
 11
-182.5276972475292
 21
-1.170731585843896
 31
0.0
  0
LINE
  8
DETAIL
  6
CONTINUOUS
 62
     5
 10
-185.5077412842239
 20
-303.39841638240529
 30
0.0
 11
-185.5077412842239
 21
-305.42058912159081
 31
0.0
  0
LINE
  8
DETAIL
  6
CONTINUOUS
 62
     5
 10
-177.73834075998479
 20
-146.8203838792808
 30
0.0
 11
-177.73834075998479
 21
-7.7694005242387902
 31
0.0
  0
LINE
  8
DETAIL
  6
CONTINUOUS
 62
     5
 10
-186.73168794215169
 20
-146.8203838792808
 30
0.0
 11
-186.73168794215169
 21
-2.7671837483587751
 31
0.0
  0
LINE
  8
DETAIL
  6
CONTINUOUS
 62
     5
 10
-186.0398920050624
 20
-304.03699724741131
 30
0.0
 11
-186.30596736548131
 21
-304.19664246366278
 31
0.0
  0
LINE
  8
DETAIL
  6
CONTINUOUS
 62
     5
 10
-186.30596736548131
 20
-304.19664246366278
 30
0.0
 11
-186.51882765381669
 21
-304.51593289616568
 31
0.0
  0
LINE
  8
DETAIL
  6
CONTINUOUS
 62
     5
 10
-186.51882765381669
 20
-304.51593289616568
 30
0.0
 11
-186.73168794215169
 21
-304.99486854492011
 31
0.0
  0
LINE
  8
DETAIL
  6
CONTINUOUS
 62
     5
 10
-186.73168794215169
 20
-304.99486854492011
 30
0.0
 11
-186.73168794215169
 21
-305.20772883325537
 31
0.0
  0
LINE
  8
DETAIL
  6
CONTINUOUS
 62
     5
 10
-186.73168794215169
 20
-305.20772883325537
 30
0.0
 11
-186.51882765381669
 21
-305.73987955409387
 31
0.0
  0
LINE
  8
DETAIL
  6
CONTINUOUS
 62
     5
 10
-186.51882765381669
 20
-305.73987955409387
 30
0.0
 11
-186.30596736548131
 21
-305.89952477034529
 31
0.0
  0
LINE
  8
DETAIL
  6
CONTINUOUS
 62
     5
 10
-186.30596736548131
 20
-305.89952477034529
 30
0.0
 11
-186.0398920050624
 21
-306.21881520284808
 31
0.0
  0
LINE
  8
DETAIL
  6
CONTINUOUS
 62
     5
 10
-186.0398920050624
 20
-306.21881520284808
 30
0.0
 11
-177.73834075998479
 21
-306.21881520284808
 31
0.0
  0
LINE
  8
DETAIL
  6
CONTINUOUS
 62
     5
 10
-177.73834075998479
 20
-305.42058912159081
 30
0.0
 11
-177.73834075998479
 21
-306.21881520284808
 31
0.0
  0
LINE
  8
DETAIL
  6
CONTINUOUS
 62
     5
 10
-185.5077412842239
 20
0.0
 30
0.0
 11
-186.0398920050624
 21
0.0
 31
0.0
  0
LINE
  8
DETAIL
  6
CONTINUOUS
 62
     5
 10
-186.0398920050624
 20
0.0
 30
0.0
 11
-186.30596736548131
 21
-0.2660753604188812
 31
0.0
  0
LINE
  8
DETAIL
  6
CONTINUOUS
 62
     5
 10
-186.30596736548131
 20
-0.2660753604188812
 30
0.0
 11
-186.51882765381669
 21
-0.4789356487544865
 31
0.0
  0
LINE
  8
DETAIL
  6
CONTINUOUS
 62
     5
 10
-186.51882765381669
 20
-0.4789356487544865
 30
0.0
 11
-186.73168794215169
 21
-1.0110863695924761
 31
0.0
  0
LINE
  8
DETAIL
  6
CONTINUOUS
 62
     5
 10
-186.73168794215169
 20
-1.0110863695924761
 30
0.0
 11
-186.73168794215169
 21
-1.490022018346963
 31
0.0
  0
LINE
  8
DETAIL
  6
CONTINUOUS
 62
     5
 10
-186.73168794215169
 20
-1.490022018346963
 30
0.0
 11
-186.51882765381669
 21
-1.809312450849802
 31
0.0
  0
LINE
  8
DETAIL
  6
CONTINUOUS
 62
     5
 10
-186.51882765381669
 20
-1.809312450849802
 30
0.0
 11
-186.30596736548131
 21
-1.968957667101449
 31
0.0
  0
LINE
  8
DETAIL
  6
CONTINUOUS
 62
     5
 10
-186.30596736548131
 20
-1.968957667101449
 30
0.0
 11
-186.0398920050624
 21
-2.1818179554366002
 31
0.0
  0
LINE
  8
DETAIL
  6
CONTINUOUS
 62
     5
 10
-186.0398920050624
 20
-2.1818179554366002
 30
0.0
 11
-185.5077412842239
 21
-2.1818179554366002
 31
0.0
  0
LINE
  8
DETAIL
  6
CONTINUOUS
 62
     5
 10
-185.5077412842239
 20
0.0
 30
0.0
 11
-177.73834075998479
 21
0.0
 31
0.0
  0
LINE
  8
DETAIL
  6
CONTINUOUS
 62
     5
 10
-177.73834075998479
 20
-0.7982260812573259
 30
0.0
 11
-177.73834075998479
 21
0.0
 31
0.0
  0
LINE
  8
DETAIL
  6
CONTINUOUS
 62
     5
 10
-185.5077412842239
 20
-0.7982260812573259
 30
0.0
 11
-177.73834075998479
 21
-0.7982260812573259
 31
0.0
  0
LINE
  8
DETAIL
  6
CONTINUOUS
 62
     5
 10
-182.7405575358647
 20
-303.39841638240529
 30
0.0
 11
-181.30375058960129
 21
-303.23877116615381
 31
0.0
  0
LINE
  8
DETAIL
  6
CONTINUOUS
 62
     5
 10
-181.30375058960129
 20
-303.23877116615381
 30
0.0
 11
-180.02658885958951
 21
-302.49376015698027
 31
0.0
  0
LINE
  8
DETAIL
  6
CONTINUOUS
 62
     5
 10
-180.02658885958951
 20
-302.49376015698027
 30
0.0
 11
-178.80264220166171
 21
-301.53588885947141
 31
0.0
  0
LINE
  8
DETAIL
  6
CONTINUOUS
 62
     5
 10
-178.80264220166171
 20
-301.53588885947141
 30
0.0
 11
-178.00441612040419
 21
-299.99265176904032
 31
0.0
  0
LINE
  8
DETAIL
  6
CONTINUOUS
 62
     5
 10
-178.00441612040419
 20
-299.99265176904032
 30
0.0
 11
-177.73834075998479
 21
-298.39619960652539
 31
0.0
  0
LINE
  8
DETAIL
  6
CONTINUOUS
 62
     5
 10
-177.73834075998479
 20
-7.7694005242387902
 30
0.0
 11
-178.00441612040419
 21
-6.1729483617234564
 31
0.0
  0
LINE
  8
DETAIL
  6
CONTINUOUS
 62
     5
 10
-178.00441612040419
 20
-6.1729483617234564
 30
0.0
 11
-178.80264220166171
 21
-4.682926343376721
 31
0.0
  0
LINE
  8
DETAIL
  6
CONTINUOUS
 62
     5
 10
-178.80264220166171
 20
-4.682926343376721
 30
0.0
 11
-180.02658885958951
 21
-3.6718399737840168
 31
0.0
  0
LINE
  8
DETAIL
  6
CONTINUOUS
 62
     5
 10
-180.02658885958951
 20
-3.6718399737840168
 30
0.0
 11
-181.30375058960129
 21
-2.980044036694153
 31
0.0
  0
LINE
  8
DETAIL
  6
CONTINUOUS
 62
     5
 10
-181.30375058960129
 20
-2.980044036694153
 30
0.0
 11
-182.7405575358647
 21
-2.7671837483587751
 31
0.0
  0
LINE
  8
DETAIL
  6
CONTINUOUS
 62
     5
 10
-177.73834075998479
 20
-298.39619960652539
 30
0.0
 11
-177.73834075998479
 21
-191.99998007845051
 31
0.0
  0
LINE
  8
DETAIL
  6
CONTINUOUS
 62
     5
 10
-186.73168794215169
 20
-2.7671837483587751
 30
0.0
 11
-182.7405575358647
 21
-2.7671837483587751
 31
0.0
  0
LINE
  8
DETAIL
  6
CONTINUOUS
 62
     5
 10
-186.73168794215169
 20
-303.39841638240529
 30
0.0
 11
-186.73168794215169
 21
-191.99998007845051
 31
0.0
  0
LINE
  8
DETAIL
  6
CONTINUOUS
 62
     5
 10
-185.5077412842239
 20
-2.1818179554366002
 30
0.0
 11
-183.80485897754099
 21
-2.1818179554366002
 31
0.0
  0
LINE
  8
DETAIL
  6
CONTINUOUS
 62
     5
 10
-185.5077412842239
 20
-0.7982260812573259
 30
0.0
 11
-185.5077412842239
 21
-1.490022018346963
 31
0.0
  0
LINE
  8
DETAIL
  6
CONTINUOUS
 62
     5
 10
-185.5077412842239
 20
-1.490022018346963
 30
0.0
 11
-183.00663289628409
 21
-1.490022018346963
 31
0.0
  0
LINE
  8
DETAIL
  6
CONTINUOUS
 62
     5
 10
-186.73168794215169
 20
-303.39841638240529
 30
0.0
 11
-182.7405575358647
 21
-303.39841638240529
 31
0.0
  0
LINE
  8
DETAIL
  6
CONTINUOUS
 62
     5
 10
177.84477090415271
 20
-146.8203838792808
 30
0.0
 11
177.84477090415271
 21
-7.7694005242387902
 31
0.0
  0
LINE
  8
DETAIL
  6
CONTINUOUS
 62
     5
 10
186.73168794215169
 20
-191.99998007845051
 30
0.0
 11
186.73168794215169
 21
-303.39841638240529
 31
0.0
  0
LINE
  8
DETAIL
  6
CONTINUOUS
 62
     5
 10
177.84477090415271
 20
-0.7982260812573259
 30
0.0
 11
185.50774128422381
 21
-0.7982260812573259
 31
0.0
  0
LINE
  8
DETAIL
  6
CONTINUOUS
 62
     5
 10
185.82703171672679
 20
-1.170731585843896
 30
0.0
 11
185.82703171672679
 21
-1.0110863695924761
 31
0.0
  0
LINE
  8
DETAIL
  6
CONTINUOUS
 62
     5
 10
185.82703171672679
 20
-1.0110863695924761
 30
0.0
 11
185.82703171672679
 21
-0.7982260812573259
 31
0.0
  0
LINE
  8
DETAIL
  6
CONTINUOUS
 62
     5
 10
185.82703171672679
 20
-0.7982260812573259
 30
0.0
 11
185.50774128422381
 21
-0.7982260812573259
 31
0.0
  0
LINE
  8
DETAIL
  6
CONTINUOUS
 62
     5
 10
185.50774128422381
 20
-0.7982260812573259
 30
0.0
 11
185.29488099588889
 21
-0.7982260812573259
 31
0.0
  0
LINE
  8
DETAIL
  6
CONTINUOUS
 62
     5
 10
185.29488099588889
 20
-0.7982260812573259
 30
0.0
 11
185.0288056354693
 21
-1.0110863695924761
 31
0.0
  0
LINE
  8
DETAIL
  6
CONTINUOUS
 62
     5
 10
185.0288056354693
 20
-1.0110863695924761
 30
0.0
 11
185.0288056354693
 21
-1.170731585843896
 31
0.0
  0
LINE
  8
DETAIL
  6
CONTINUOUS
 62
     5
 10
185.0288056354693
 20
-1.170731585843896
 30
0.0
 11
185.29488099588889
 21
-1.490022018346963
 31
0.0
  0
LINE
  8
DETAIL
  6
CONTINUOUS
 62
     5
 10
185.29488099588889
 20
-1.490022018346963
 30
0.0
 11
185.50774128422381
 21
-1.490022018346963
 31
0.0
  0
LINE
  8
DETAIL
  6
CONTINUOUS
 62
     5
 10
185.50774128422381
 20
-1.490022018346963
 30
0.0
 11
185.82703171672679
 21
-1.490022018346963
 31
0.0
  0
LINE
  8
DETAIL
  6
CONTINUOUS
 62
     5
 10
185.82703171672679
 20
-1.490022018346963
 30
0.0
 11
185.82703171672679
 21
-1.170731585843896
 31
0.0
  0
LINE
  8
DETAIL
  6
CONTINUOUS
 62
     5
 10
185.50774128422381
 20
-2.1818179554366002
 30
0.0
 11
185.82703171672679
 21
-2.1818179554366002
 31
0.0
  0
LINE
  8
DETAIL
  6
CONTINUOUS
 62
     5
 10
185.82703171672679
 20
-2.1818179554366002
 30
0.0
 11
186.1995372213137
 21
-2.1818179554366002
 31
0.0
  0
LINE
  8
DETAIL
  6
CONTINUOUS
 62
     5
 10
186.1995372213137
 20
-2.1818179554366002
 30
0.0
 11
186.51882765381669
 21
-1.809312450849802
 31
0.0
  0
LINE
  8
DETAIL
  6
CONTINUOUS
 62
     5
 10
186.51882765381669
 20
-1.809312450849802
 30
0.0
 11
186.51882765381669
 21
-1.490022018346963
 31
0.0
  0
LINE
  8
DETAIL
  6
CONTINUOUS
 62
     5
 10
186.51882765381669
 20
-1.490022018346963
 30
0.0
 11
186.73168794215169
 21
-1.170731585843896
 31
0.0
  0
LINE
  8
DETAIL
  6
CONTINUOUS
 62
     5
 10
186.73168794215169
 20
-1.170731585843896
 30
0.0
 11
186.51882765381669
 21
-0.7982260812573259
 31
0.0
  0
LINE
  8
DETAIL
  6
CONTINUOUS
 62
     5
 10
186.51882765381669
 20
-0.7982260812573259
 30
0.0
 11
186.51882765381669
 21
-0.4789356487544865
 31
0.0
  0
LINE
  8
DETAIL
  6
CONTINUOUS
 62
     5
 10
186.51882765381669
 20
-0.4789356487544865
 30
0.0
 11
186.1995372213137
 21
-0.2660753604188812
 31
0.0
  0
LINE
  8
DETAIL
  6
CONTINUOUS
 62
     5
 10
186.1995372213137
 20
-0.2660753604188812
 30
0.0
 11
185.82703171672679
 21
0.0
 31
0.0
  0
LINE
  8
DETAIL
  6
CONTINUOUS
 62
     5
 10
185.82703171672679
 20
0.0
 30
0.0
 11
185.50774128422381
 21
0.0
 31
0.0
  0
LINE
  8
DETAIL
  6
CONTINUOUS
 62
     5
 10
177.84477090415271
 20
0.0
 30
0.0
 11
185.50774128422381
 21
0.0
 31
0.0
  0
LINE
  8
DETAIL
  6
CONTINUOUS
 62
     5
 10
177.84477090415271
 20
0.0
 30
0.0
 11
177.84477090415271
 21
-0.7982260812573259
 31
0.0
  0
LINE
  8
DETAIL
  6
CONTINUOUS
 62
     5
 10
177.84477090415271
 20
-306.21881520284808
 30
0.0
 11
185.82703171672679
 21
-306.21881520284808
 31
0.0
  0
LINE
  8
DETAIL
  6
CONTINUOUS
 62
     5
 10
185.82703171672679
 20
-306.21881520284808
 30
0.0
 11
186.1995372213137
 21
-305.89952477034529
 31
0.0
  0
LINE
  8
DETAIL
  6
CONTINUOUS
 62
     5
 10
186.1995372213137
 20
-305.89952477034529
 30
0.0
 11
186.51882765381669
 21
-305.73987955409387
 31
0.0
  0
LINE
  8
DETAIL
  6
CONTINUOUS
 62
     5
 10
186.51882765381669
 20
-305.73987955409387
 30
0.0
 11
186.51882765381669
 21
-305.42058912159081
 31
0.0
  0
LINE
  8
DETAIL
  6
CONTINUOUS
 62
     5
 10
186.51882765381669
 20
-305.42058912159081
 30
0.0
 11
186.73168794215169
 21
-304.99486854492011
 31
0.0
  0
LINE
  8
DETAIL
  6
CONTINUOUS
 62
     5
 10
186.73168794215169
 20
-304.99486854492011
 30
0.0
 11
186.51882765381669
 21
-304.72879318450089
 31
0.0
  0
LINE
  8
DETAIL
  6
CONTINUOUS
 62
     5
 10
186.51882765381669
 20
-304.72879318450089
 30
0.0
 11
186.51882765381669
 21
-304.51593289616568
 31
0.0
  0
LINE
  8
DETAIL
  6
CONTINUOUS
 62
     5
 10
186.51882765381669
 20
-304.51593289616568
 30
0.0
 11
186.1995372213137
 21
-304.19664246366278
 31
0.0
  0
LINE
  8
DETAIL
  6
CONTINUOUS
 62
     5
 10
186.1995372213137
 20
-304.19664246366278
 30
0.0
 11
185.82703171672679
 21
-304.03699724741131
 31
0.0
  0
LINE
  8
DETAIL
  6
CONTINUOUS
 62
     5
 10
185.82703171672679
 20
-304.03699724741131
 30
0.0
 11
185.50774128422381
 21
-304.03699724741131
 31
0.0
  0
LINE
  8
DETAIL
  6
CONTINUOUS
 62
     5
 10
177.84477090415271
 20
-305.42058912159081
 30
0.0
 11
177.84477090415271
 21
-306.21881520284808
 31
0.0
  0
LINE
  8
DETAIL
  6
CONTINUOUS
 62
     5
 10
177.84477090415271
 20
-298.39619960652539
 30
0.0
 11
177.84477090415271
 21
-191.99998007845051
 31
0.0
  0
LINE
  8
DETAIL
  6
CONTINUOUS
 62
     5
 10
186.73168794215169
 20
-303.39841638240529
 30
0.0
 11
182.79377260794871
 21
-303.39841638240529
 31
0.0
  0
LINE
  8
DETAIL
  6
CONTINUOUS
 62
     5
 10
186.73168794215169
 20
-2.7671837483587751
 30
0.0
 11
186.73168794215169
 21
-146.8203838792808
 31
0.0
  0
LINE
  8
DETAIL
  6
CONTINUOUS
 62
     5
 10
182.79377260794871
 20
-2.7671837483587751
 30
0.0
 11
181.1973204454338
 21
-2.980044036694153
 31
0.0
  0
LINE
  8
DETAIL
  6
CONTINUOUS
 62
     5
 10
181.1973204454338
 20
-2.980044036694153
 30
0.0
 11
179.8137285712545
 21
-3.6718399737840168
 31
0.0
  0
LINE
  8
DETAIL
  6
CONTINUOUS
 62
     5
 10
179.8137285712545
 20
-3.6718399737840168
 30
0.0
 11
178.69621205749371
 21
-4.682926343376721
 31
0.0
  0
LINE
  8
DETAIL
  6
CONTINUOUS
 62
     5
 10
178.69621205749371
 20
-4.682926343376721
 30
0.0
 11
178.00441612040419
 21
-6.1729483617234564
 31
0.0
  0
LINE
  8
DETAIL
  6
CONTINUOUS
 62
     5
 10
178.00441612040419
 20
-6.1729483617234564
 30
0.0
 11
177.84477090415271
 21
-7.7694005242387902
 31
0.0
  0
LINE
  8
DETAIL
  6
CONTINUOUS
 62
     5
 10
177.84477090415271
 20
-298.39619960652539
 30
0.0
 11
178.00441612040419
 21
-299.99265176904032
 31
0.0
  0
LINE
  8
DETAIL
  6
CONTINUOUS
 62
     5
 10
178.00441612040419
 20
-299.99265176904032
 30
0.0
 11
178.69621205749371
 21
-301.53588885947141
 31
0.0
  0
LINE
  8
DETAIL
  6
CONTINUOUS
 62
     5
 10
178.69621205749371
 20
-301.53588885947141
 30
0.0
 11
179.8137285712545
 21
-302.49376015698027
 31
0.0
  0
LINE
  8
DETAIL
  6
CONTINUOUS
 62
     5
 10
179.8137285712545
 20
-302.49376015698027
 30
0.0
 11
181.1973204454338
 21
-303.23877116615381
 31
0.0
  0
LINE
  8
DETAIL
  6
CONTINUOUS
 62
     5
 10
181.1973204454338
 20
-303.23877116615381
 30
0.0
 11
182.79377260794871
 21
-303.39841638240529
 31
0.0
  0
LINE
  8
DETAIL
  6
CONTINUOUS
 62
     5
 10
182.79377260794871
 20
-1.490022018346963
 30
0.0
 11
185.50774128422381
 21
-1.490022018346963
 31
0.0
  0
LINE
  8
DETAIL
  6
CONTINUOUS
 62
     5
 10
183.69842883337409
 20
-2.1818179554366002
 30
0.0
 11
185.50774128422381
 21
-2.1818179554366002
 31
0.0
  0
LINE
  8
DETAIL
  6
CONTINUOUS
 62
     5
 10
182.79377260794871
 20
-2.7671837483587751
 30
0.0
 11
186.73168794215169
 21
-2.7671837483587751
 31
0.0
  0
LINE
  8
DETAIL
  6
CONTINUOUS
 62
     5
 10
-187.5299140234097
 20
-142.77603840090981
 30
0.0
 11
-187.5299140234097
 21
-3.512194757532598
 31
0.0
  0
LINE
  8
DETAIL
  6
CONTINUOUS
 62
     5
 10
-185.5077412842239
 20
-304.03699724741131
 30
0.0
 11
-186.73168794215169
 21
-304.03699724741131
 31
0.0
  0
LINE
  8
DETAIL
  6
CONTINUOUS
 62
     5
 10
-186.73168794215169
 20
-304.03699724741131
 30
0.0
 11
-186.9977633025712
 21
-304.19664246366278
 31
0.0
  0
LINE
  8
DETAIL
  6
CONTINUOUS
 62
     5
 10
-186.9977633025712
 20
-304.19664246366278
 30
0.0
 11
-187.21062359090669
 21
-304.51593289616568
 31
0.0
  0
LINE
  8
DETAIL
  6
CONTINUOUS
 62
     5
 10
-187.21062359090669
 20
-304.51593289616568
 30
0.0
 11
-187.5299140234097
 21
-304.72879318450089
 31
0.0
  0
LINE
  8
DETAIL
  6
CONTINUOUS
 62
     5
 10
-187.5299140234097
 20
-304.72879318450089
 30
0.0
 11
-187.5299140234097
 21
-305.73987955409387
 31
0.0
  0
LINE
  8
DETAIL
  6
CONTINUOUS
 62
     5
 10
-187.5299140234097
 20
-305.73987955409387
 30
0.0
 11
-187.21062359090669
 21
-305.89952477034529
 31
0.0
  0
LINE
  8
DETAIL
  6
CONTINUOUS
 62
     5
 10
-187.21062359090669
 20
-305.89952477034529
 30
0.0
 11
-186.73168794215169
 21
-306.21881520284808
 31
0.0
  0
LINE
  8
DETAIL
  6
CONTINUOUS
 62
     5
 10
-186.73168794215169
 20
-306.21881520284808
 30
0.0
 11
-186.51882765381669
 21
-306.21881520284808
 31
0.0
  0
LINE
  8
DETAIL
  6
CONTINUOUS
 62
     5
 10
-178.80264220166171
 20
-307.22990157244078
 30
0.0
 11
-186.51882765381669
 21
-306.21881520284808
 31
0.0
  0
LINE
  8
DETAIL
  6
CONTINUOUS
 62
     5
 10
-178.80264220166171
 20
-306.5381056353512
 30
0.0
 11
-179.70729842708661
 21
-306.21881520284808
 31
0.0
  0
LINE
  8
DETAIL
  6
CONTINUOUS
 62
     5
 10
-178.80264220166171
 20
-306.5381056353512
 30
0.0
 11
-178.80264220166171
 21
-307.22990157244078
 31
0.0
  0
LINE
  8
DETAIL
  6
CONTINUOUS
 62
     5
 10
-186.51882765381669
 20
0.0
 30
0.0
 11
-186.73168794215169
 21
0.0
 31
0.0
  0
LINE
  8
DETAIL
  6
CONTINUOUS
 62
     5
 10
-186.73168794215169
 20
0.0
 30
0.0
 11
-187.21062359090669
 21
-0.2660753604188812
 31
0.0
  0
LINE
  8
DETAIL
  6
CONTINUOUS
 62
     5
 10
-187.21062359090669
 20
-0.2660753604188812
 30
0.0
 11
-187.5299140234097
 21
-0.7982260812573259
 31
0.0
  0
LINE
  8
DETAIL
  6
CONTINUOUS
 62
     5
 10
-187.5299140234097
 20
-0.7982260812573259
 30
0.0
 11
-187.5299140234097
 21
-1.0110863695924761
 31
0.0
  0
LINE
  8
DETAIL
  6
CONTINUOUS
 62
     5
 10
-187.5299140234097
 20
-1.0110863695924761
 30
0.0
 11
-187.5299140234097
 21
-1.490022018346963
 31
0.0
  0
LINE
  8
DETAIL
  6
CONTINUOUS
 62
     5
 10
-187.5299140234097
 20
-1.490022018346963
 30
0.0
 11
-187.21062359090669
 21
-1.809312450849802
 31
0.0
  0
LINE
  8
DETAIL
  6
CONTINUOUS
 62
     5
 10
-187.21062359090669
 20
-1.809312450849802
 30
0.0
 11
-186.9977633025712
 21
-1.968957667101449
 31
0.0
  0
LINE
  8
DETAIL
  6
CONTINUOUS
 62
     5
 10
-186.9977633025712
 20
-1.968957667101449
 30
0.0
 11
-186.73168794215169
 21
-2.1818179554366002
 31
0.0
  0
LINE
  8
DETAIL
  6
CONTINUOUS
 62
     5
 10
-186.73168794215169
 20
-2.1818179554366002
 30
0.0
 11
-186.30596736548131
 21
-2.1818179554366002
 31
0.0
  0
LINE
  8
DETAIL
  6
CONTINUOUS
 62
     5
 10
-178.80264220166171
 20
1.0110863695929311
 30
0.0
 11
-186.51882765381669
 21
0.0
 31
0.0
  0
LINE
  8
DETAIL
  6
CONTINUOUS
 62
     5
 10
-178.80264220166171
 20
0.3192904325030668
 30
0.0
 11
-179.70729842708661
 21
0.0
 31
0.0
  0
LINE
  8
DETAIL
  6
CONTINUOUS
 62
     5
 10
-178.80264220166171
 20
0.3192904325030668
 30
0.0
 11
-178.80264220166171
 21
1.0110863695929311
 31
0.0
  0
LINE
  8
DETAIL
  6
CONTINUOUS
 62
     5
 10
-186.30596736548131
 20
-2.1818179554366002
 30
0.0
 11
-185.5077412842239
 21
-2.1818179554366002
 31
0.0
  0
LINE
  8
DETAIL
  6
CONTINUOUS
 62
     5
 10
-187.5299140234097
 20
-3.512194757532598
 30
0.0
 11
-186.73168794215169
 21
-3.512194757532598
 31
0.0
  0
LINE
  8
DETAIL
  6
CONTINUOUS
 62
     5
 10
-187.5299140234097
 20
-302.70662044531548
 30
0.0
 11
-187.5299140234097
 21
-191.99998007845051
 31
0.0
  0
LINE
  8
DETAIL
  6
CONTINUOUS
 62
     5
 10
-187.5299140234097
 20
-302.70662044531548
 30
0.0
 11
-186.73168794215169
 21
-302.70662044531548
 31
0.0
  0
LINE
  8
DETAIL
  6
CONTINUOUS
 62
     5
 10
213.7117294886524
 20
-191.99998007845051
 30
0.0
 11
215.52104193950271
 21
-191.78711979011541
 31
0.0
  0
LINE
  8
DETAIL
  6
CONTINUOUS
 62
     5
 10
215.52104193950271
 20
-191.78711979011541
 30
0.0
 11
217.33035439035299
 21
-190.98889370885809
 31
0.0
  0
LINE
  8
DETAIL
  6
CONTINUOUS
 62
     5
 10
217.33035439035299
 20
-190.98889370885809
 30
0.0
 11
218.5010859761968
 21
-190.03102241134891
 31
0.0
  0
LINE
  8
DETAIL
  6
CONTINUOUS
 62
     5
 10
242.50108348600349
 20
-166.03102490154271
 30
0.0
 11
243.62503014393141
 21
-164.4877878111117
 31
0.0
  0
LINE
  8
DETAIL
  6
CONTINUOUS
 62
     5
 10
243.62503014393141
 20
-164.4877878111117
 30
0.0
 11
244.42325622518871
 21
-162.78490550442919
 31
0.0
  0
LINE
  8
DETAIL
  6
CONTINUOUS
 62
     5
 10
244.42325622518871
 20
-162.78490550442919
 30
0.0
 11
244.74254665769169
 21
-161.02880812566289
 31
0.0
  0
LINE
  8
DETAIL
  6
CONTINUOUS
 62
     5
 10
242.50108348600349
 20
-166.03102490154271
 30
0.0
 11
218.5010859761968
 21
-190.03102241134891
 31
0.0
  0
LINE
  8
DETAIL
  6
CONTINUOUS
 62
     5
 10
187.7959893838287
 20
-146.8203838792808
 30
0.0
 11
187.7959893838287
 21
-142.77603840090981
 31
0.0
  0
LINE
  8
DETAIL
  6
CONTINUOUS
 62
     5
 10
168.31927300114739
 20
-178.48335176915839
 30
0.0
 11
162.03989449525571
 21
-178.48335176915839
 31
0.0
  0
LINE
  8
DETAIL
  6
CONTINUOUS
 62
     5
 10
174.49222136287159
 20
-185.0288056354693
 30
0.0
 11
174.49222136287159
 21
-190.98889370885809
 31
0.0
  0
LINE
  8
DETAIL
  6
CONTINUOUS
 62
     5
 10
174.49222136287159
 20
-185.0288056354693
 30
0.0
 11
174.2261460024522
 21
-183.00663289628369
 31
0.0
  0
LINE
  8
DETAIL
  6
CONTINUOUS
 62
     5
 10
174.2261460024522
 20
-183.00663289628369
 30
0.0
 11
173.3214897770273
 21
-181.19732044543389
 31
0.0
  0
LINE
  8
DETAIL
  6
CONTINUOUS
 62
     5
 10
173.3214897770273
 20
-181.19732044543389
 30
0.0
 11
171.99111297493141
 21
-179.7072984270865
 31
0.0
  0
LINE
  8
DETAIL
  6
CONTINUOUS
 62
     5
 10
171.99111297493141
 20
-179.7072984270865
 30
0.0
 11
170.34144574033311
 21
-179.01550248999661
 31
0.0
  0
LINE
  8
DETAIL
  6
CONTINUOUS
 62
     5
 10
170.34144574033311
 20
-179.01550248999661
 30
0.0
 11
168.31927300114739
 21
-178.48335176915839
 31
0.0
  0
LINE
  8
DETAIL
  6
CONTINUOUS
 62
     5
 10
244.74254665769169
 20
-142.77603840090981
 30
0.0
 11
244.74254665769169
 21
-161.02880812566289
 31
0.0
  0
LINE
  8
DETAIL
  6
CONTINUOUS
 62
     5
 10
213.7117294886524
 20
-191.99998007845051
 30
0.0
 11
166.1906701177941
 21
-191.99998007845051
 31
0.0
  0
LINE
  8
DETAIL
  6
CONTINUOUS
 62
     5
 10
159.8048614677349
 20
-182.20840681502639
 30
0.0
 11
159.2194956748128
 21
-184.49665491463091
 31
0.0
  0
LINE
  8
DETAIL
  6
CONTINUOUS
 62
     5
 10
159.2194956748128
 20
-184.49665491463091
 30
0.0
 11
159.5387861073159
 21
-186.7849030142356
 31
0.0
  0
LINE
  8
DETAIL
  6
CONTINUOUS
 62
     5
 10
159.5387861073159
 20
-186.7849030142356
 30
0.0
 11
160.33701218857331
 21
-188.70064560925331
 31
0.0
  0
LINE
  8
DETAIL
  6
CONTINUOUS
 62
     5
 10
160.33701218857331
 20
-188.70064560925331
 30
0.0
 11
162.03989449525571
 21
-190.5099580601036
 31
0.0
  0
LINE
  8
DETAIL
  6
CONTINUOUS
 62
     5
 10
162.03989449525571
 20
-190.5099580601036
 30
0.0
 11
164.00885216235741
 21
-191.5210444296963
 31
0.0
  0
LINE
  8
DETAIL
  6
CONTINUOUS
 62
     5
 10
164.00885216235741
 20
-191.5210444296963
 30
0.0
 11
166.1906701177941
 21
-191.99998007845051
 31
0.0
  0
LINE
  8
DETAIL
  6
CONTINUOUS
 62
     5
 10
199.02436959351621
 20
-175.50330773246401
 30
0.0
 11
200.51439161186281
 21
-175.2904474441286
 31
0.0
  0
LINE
  8
DETAIL
  6
CONTINUOUS
 62
     5
 10
200.51439161186281
 20
-175.2904474441286
 30
0.0
 11
202.00441363021039
 21
-174.49222136287131
 31
0.0
  0
LINE
  8
DETAIL
  6
CONTINUOUS
 62
     5
 10
202.00441363021039
 20
-174.49222136287131
 30
0.0
 11
203.01549999980321
 21
-173.4811349932786
 31
0.0
  0
LINE
  8
DETAIL
  6
CONTINUOUS
 62
     5
 10
203.01549999980321
 20
-173.4811349932786
 30
0.0
 11
203.7072959368933
 21
-171.99111297493141
 31
0.0
  0
LINE
  8
DETAIL
  6
CONTINUOUS
 62
     5
 10
203.7072959368933
 20
-171.99111297493141
 30
0.0
 11
204.02658636939611
 21
-170.50109095658419
 31
0.0
  0
LINE
  8
DETAIL
  6
CONTINUOUS
 62
     5
 10
204.02658636939611
 20
-170.50109095658419
 30
0.0
 11
203.7072959368933
 21
-169.011068938237
 31
0.0
  0
LINE
  8
DETAIL
  6
CONTINUOUS
 62
     5
 10
203.7072959368933
 20
-169.011068938237
 30
0.0
 11
203.01549999980321
 21
-167.52104691988981
 31
0.0
  0
LINE
  8
DETAIL
  6
CONTINUOUS
 62
     5
 10
203.01549999980321
 20
-167.52104691988981
 30
0.0
 11
202.00441363021039
 21
-166.50996055029711
 31
0.0
  0
LINE
  8
DETAIL
  6
CONTINUOUS
 62
     5
 10
202.00441363021039
 20
-166.50996055029711
 30
0.0
 11
200.51439161186281
 21
-165.8181646132073
 31
0.0
  0
LINE
  8
DETAIL
  6
CONTINUOUS
 62
     5
 10
200.51439161186281
 20
-165.8181646132073
 30
0.0
 11
199.02436959351621
 21
-165.49887418070441
 31
0.0
  0
LINE
  8
DETAIL
  6
CONTINUOUS
 62
     5
 10
175.34366251621299
 20
-175.50330773246401
 30
0.0
 11
199.02436959351621
 21
-175.50330773246401
 31
0.0
  0
LINE
  8
DETAIL
  6
CONTINUOUS
 62
     5
 10
175.34366251621299
 20
-165.49887418070441
 30
0.0
 11
173.53435006536279
 21
-165.8181646132073
 31
0.0
  0
LINE
  8
DETAIL
  6
CONTINUOUS
 62
     5
 10
173.53435006536279
 20
-165.8181646132073
 30
0.0
 11
171.99111297493141
 21
-166.8292509828
 31
0.0
  0
LINE
  8
DETAIL
  6
CONTINUOUS
 62
     5
 10
171.99111297493141
 20
-166.8292509828
 30
0.0
 11
171.03324167742261
 21
-167.9999825686443
 31
0.0
  0
LINE
  8
DETAIL
  6
CONTINUOUS
 62
     5
 10
171.03324167742261
 20
-167.9999825686443
 30
0.0
 11
170.34144574033311
 21
-169.49000458699149
 31
0.0
  0
LINE
  8
DETAIL
  6
CONTINUOUS
 62
     5
 10
170.34144574033311
 20
-169.49000458699149
 30
0.0
 11
170.34144574033311
 21
-171.19288689367411
 31
0.0
  0
LINE
  8
DETAIL
  6
CONTINUOUS
 62
     5
 10
170.34144574033311
 20
-171.19288689367411
 30
0.0
 11
171.03324167742261
 21
-173.00219934452431
 31
0.0
  0
LINE
  8
DETAIL
  6
CONTINUOUS
 62
     5
 10
171.03324167742261
 20
-173.00219934452431
 30
0.0
 11
171.99111297493141
 21
-174.27936107453621
 31
0.0
  0
LINE
  8
DETAIL
  6
CONTINUOUS
 62
     5
 10
171.99111297493141
 20
-174.27936107453621
 30
0.0
 11
173.53435006536279
 21
-175.2904474441286
 31
0.0
  0
LINE
  8
DETAIL
  6
CONTINUOUS
 62
     5
 10
173.53435006536279
 20
-175.2904474441286
 30
0.0
 11
175.34366251621299
 21
-175.50330773246401
 31
0.0
  0
LINE
  8
DETAIL
  6
CONTINUOUS
 62
     5
 10
199.02436959351621
 20
-165.49887418070441
 30
0.0
 11
175.34366251621299
 21
-165.49887418070441
 31
0.0
  0
LINE
  8
DETAIL
  6
CONTINUOUS
 62
     5
 10
241.54321218849461
 20
-142.77603840090981
 30
0.0
 11
238.72281336805131
 21
-147.7782551767898
 31
0.0
  0
LINE
  8
DETAIL
  6
CONTINUOUS
 62
     5
 10
235.8491994755249
 20
-142.77603840090981
 30
0.0
 11
238.72281336805131
 21
-147.7782551767898
 31
0.0
  0
LINE
  8
DETAIL
  6
CONTINUOUS
 62
     5
 10
238.72281336805131
 20
-147.7782551767898
 30
0.0
 11
238.72281336805131
 21
-142.77603840090981
 31
0.0
  0
LINE
  8
DETAIL
  6
CONTINUOUS
 62
     5
 10
207.80485648734759
 20
-142.77603840090981
 30
0.0
 11
210.8381155961257
 21
-147.7782551767898
 31
0.0
  0
LINE
  8
DETAIL
  6
CONTINUOUS
 62
     5
 10
213.4988692003175
 20
-142.77603840090981
 30
0.0
 11
210.8381155961257
 21
-147.7782551767898
 31
0.0
  0
LINE
  8
DETAIL
  6
CONTINUOUS
 62
     5
 10
210.8381155961257
 20
-147.7782551767898
 30
0.0
 11
210.8381155961257
 21
-142.77603840090981
 31
0.0
  0
LINE
  8
DETAIL
  6
CONTINUOUS
 62
     5
 10
187.7959893838287
 20
-146.8203838792808
 30
0.0
 11
173.69399528161429
 21
-146.8203838792808
 31
0.0
  0
LINE
  8
DETAIL
  6
CONTINUOUS
 62
     5
 10
173.69399528161429
 20
-146.8203838792808
 30
0.0
 11
171.72503761451239
 21
-147.19288938386759
 31
0.0
  0
LINE
  8
DETAIL
  6
CONTINUOUS
 62
     5
 10
171.72503761451239
 20
-147.19288938386759
 30
0.0
 11
170.02215530782959
 21
-147.99111546512489
 31
0.0
  0
LINE
  8
DETAIL
  6
CONTINUOUS
 62
     5
 10
170.02215530782959
 20
-147.99111546512489
 30
0.0
 11
168.53213328948291
 21
-149.48113748347191
 31
0.0
  0
LINE
  8
DETAIL
  6
CONTINUOUS
 62
     5
 10
168.53213328948291
 20
-149.48113748347191
 30
0.0
 11
167.308186631555
 21
-151.18401979015471
 31
0.0
  0
LINE
  8
DETAIL
  6
CONTINUOUS
 62
     5
 10
167.308186631555
 20
-151.18401979015471
 30
0.0
 11
166.72282083863249
 21
-153.3126226735078
 31
0.0
  0
LINE
  8
DETAIL
  6
CONTINUOUS
 62
     5
 10
159.8048614677349
 20
-182.20840681502639
 30
0.0
 11
163.31705622526749
 21
-172.78933905618871
 31
0.0
  0
LINE
  8
DETAIL
  6
CONTINUOUS
 62
     5
 10
163.31705622526749
 20
-172.78933905618871
 30
0.0
 11
165.4988741807048
 21
-163.31705622526741
 31
0.0
  0
LINE
  8
DETAIL
  6
CONTINUOUS
 62
     5
 10
165.4988741807048
 20
-163.31705622526741
 30
0.0
 11
166.72282083863249
 21
-153.3126226735078
 31
0.0
  0
LINE
  8
DETAIL
  6
CONTINUOUS
 62
     5
 10
187.7959893838287
 20
-144.6917809959275
 30
0.0
 11
186.73168794215169
 21
-144.6917809959275
 31
0.0
  0
LINE
  8
DETAIL
  6
CONTINUOUS
 62
     5
 10
244.74254665769169
 20
-142.77603840090981
 30
0.0
 11
186.73168794215169
 21
-142.77603840090981
 31
0.0
  0
LINE
  8
DETAIL
  6
CONTINUOUS
 62
     5
 10
-218.8203764086999
 20
-190.03102241134891
 30
0.0
 11
-217.22392424618499
 21
-190.98889370885809
 31
0.0
  0
LINE
  8
DETAIL
  6
CONTINUOUS
 62
     5
 10
-217.22392424618499
 20
-190.98889370885809
 30
0.0
 11
-215.52104193950279
 21
-191.78711979011541
 31
0.0
  0
LINE
  8
DETAIL
  6
CONTINUOUS
 62
     5
 10
-215.52104193950279
 20
-191.78711979011541
 30
0.0
 11
-213.81815963282051
 21
-191.99998007845051
 31
0.0
  0
LINE
  8
DETAIL
  6
CONTINUOUS
 62
     5
 10
-242.61394377433911
 20
-166.03102490154271
 30
0.0
 11
-218.8203764086999
 21
-190.03102241134891
 31
0.0
  0
LINE
  8
DETAIL
  6
CONTINUOUS
 62
     5
 10
-187.7427743117446
 20
-146.8203838792808
 30
0.0
 11
-187.7427743117446
 21
-142.77603840090981
 31
0.0
  0
LINE
  8
DETAIL
  6
CONTINUOUS
 62
     5
 10
-168.31927300114739
 20
-178.48335176915839
 30
0.0
 11
-162.1995397115071
 21
-178.48335176915839
 31
0.0
  0
LINE
  8
DETAIL
  6
CONTINUOUS
 62
     5
 10
-174.70508165120731
 20
-185.0288056354693
 30
0.0
 11
-174.70508165120731
 21
-190.98889370885809
 31
0.0
  0
LINE
  8
DETAIL
  6
CONTINUOUS
 62
     5
 10
-168.31927300114739
 20
-178.48335176915839
 30
0.0
 11
-170.2350155961652
 21
-179.01550248999661
 31
0.0
  0
LINE
  8
DETAIL
  6
CONTINUOUS
 62
     5
 10
-170.2350155961652
 20
-179.01550248999661
 30
0.0
 11
-171.9911129749315
 21
-179.7072984270865
 31
0.0
  0
LINE
  8
DETAIL
  6
CONTINUOUS
 62
     5
 10
-171.9911129749315
 20
-179.7072984270865
 30
0.0
 11
-173.53435006536219
 21
-181.19732044543389
 31
0.0
  0
LINE
  8
DETAIL
  6
CONTINUOUS
 62
     5
 10
-173.53435006536219
 20
-181.19732044543389
 30
0.0
 11
-174.2261460024522
 21
-183.00663289628369
 31
0.0
  0
LINE
  8
DETAIL
  6
CONTINUOUS
 62
     5
 10
-174.2261460024522
 20
-183.00663289628369
 30
0.0
 11
-174.70508165120731
 21
-185.0288056354693
 31
0.0
  0
LINE
  8
DETAIL
  6
CONTINUOUS
 62
     5
 10
-244.63611651352431
 20
-142.77603840090981
 30
0.0
 11
-186.73168794215169
 21
-142.77603840090981
 31
0.0
  0
LINE
  8
DETAIL
  6
CONTINUOUS
 62
     5
 10
-213.81815963282051
 20
-191.99998007845051
 30
0.0
 11
-166.29710026196221
 21
-191.99998007845051
 31
0.0
  0
LINE
  8
DETAIL
  6
CONTINUOUS
 62
     5
 10
-166.29710026196221
 20
-191.99998007845051
 30
0.0
 11
-164.0088521623575
 21
-191.5210444296963
 31
0.0
  0
LINE
  8
DETAIL
  6
CONTINUOUS
 62
     5
 10
-164.0088521623575
 20
-191.5210444296963
 30
0.0
 11
-162.03989449525571
 21
-190.5099580601036
 31
0.0
  0
LINE
  8
DETAIL
  6
CONTINUOUS
 62
     5
 10
-162.03989449525571
 20
-190.5099580601036
 30
0.0
 11
-160.4966574048249
 21
-188.70064560925331
 31
0.0
  0
LINE
  8
DETAIL
  6
CONTINUOUS
 62
     5
 10
-160.4966574048249
 20
-188.70064560925331
 30
0.0
 11
-159.53878610731601
 21
-186.7849030142356
 31
0.0
  0
LINE
  8
DETAIL
  6
CONTINUOUS
 62
     5
 10
-159.53878610731601
 20
-186.7849030142356
 30
0.0
 11
-159.21949567481309
 21
-184.49665491463091
 31
0.0
  0
LINE
  8
DETAIL
  6
CONTINUOUS
 62
     5
 10
-159.21949567481309
 20
-184.49665491463091
 30
0.0
 11
-159.69843132356741
 21
-182.20840681502639
 31
0.0
  0
LINE
  8
DETAIL
  6
CONTINUOUS
 62
     5
 10
-199.0243695935163
 20
-165.49887418070441
 30
0.0
 11
-200.83368204436599
 21
-165.8181646132073
 31
0.0
  0
LINE
  8
DETAIL
  6
CONTINUOUS
 62
     5
 10
-200.83368204436599
 20
-165.8181646132073
 30
0.0
 11
-202.21727391854591
 21
-166.8292509828
 31
0.0
  0
LINE
  8
DETAIL
  6
CONTINUOUS
 62
     5
 10
-202.21727391854591
 20
-166.8292509828
 30
0.0
 11
-203.33479043230619
 21
-167.9999825686443
 31
0.0
  0
LINE
  8
DETAIL
  6
CONTINUOUS
 62
     5
 10
-203.33479043230619
 20
-167.9999825686443
 30
0.0
 11
-204.02658636939569
 21
-169.49000458699149
 31
0.0
  0
LINE
  8
DETAIL
  6
CONTINUOUS
 62
     5
 10
-204.02658636939569
 20
-169.49000458699149
 30
0.0
 11
-204.02658636939569
 21
-171.19288689367411
 31
0.0
  0
LINE
  8
DETAIL
  6
CONTINUOUS
 62
     5
 10
-204.02658636939569
 20
-171.19288689367411
 30
0.0
 11
-203.33479043230619
 21
-173.00219934452431
 31
0.0
  0
LINE
  8
DETAIL
  6
CONTINUOUS
 62
     5
 10
-203.33479043230619
 20
-173.00219934452431
 30
0.0
 11
-202.21727391854591
 21
-174.27936107453621
 31
0.0
  0
LINE
  8
DETAIL
  6
CONTINUOUS
 62
     5
 10
-202.21727391854591
 20
-174.27936107453621
 30
0.0
 11
-200.83368204436599
 21
-175.2904474441286
 31
0.0
  0
LINE
  8
DETAIL
  6
CONTINUOUS
 62
     5
 10
-200.83368204436599
 20
-175.2904474441286
 30
0.0
 11
-199.0243695935163
 21
-175.50330773246401
 31
0.0
  0
LINE
  8
DETAIL
  6
CONTINUOUS
 62
     5
 10
-175.2372323720451
 20
-175.50330773246401
 30
0.0
 11
-199.0243695935163
 21
-175.50330773246401
 31
0.0
  0
LINE
  8
DETAIL
  6
CONTINUOUS
 62
     5
 10
-175.2372323720451
 20
-175.50330773246401
 30
0.0
 11
-173.80042542578181
 21
-175.2904474441286
 31
0.0
  0
LINE
  8
DETAIL
  6
CONTINUOUS
 62
     5
 10
-173.80042542578181
 20
-175.2904474441286
 30
0.0
 11
-172.52326369577
 21
-174.49222136287131
 31
0.0
  0
LINE
  8
DETAIL
  6
CONTINUOUS
 62
     5
 10
-172.52326369577
 20
-174.49222136287131
 30
0.0
 11
-171.29931703784149
 21
-173.4811349932786
 31
0.0
  0
LINE
  8
DETAIL
  6
CONTINUOUS
 62
     5
 10
-171.29931703784149
 20
-173.4811349932786
 30
0.0
 11
-170.5010909565847
 21
-171.99111297493141
 31
0.0
  0
LINE
  8
DETAIL
  6
CONTINUOUS
 62
     5
 10
-170.5010909565847
 20
-171.99111297493141
 30
0.0
 11
-170.2350155961652
 21
-170.50109095658419
 31
0.0
  0
LINE
  8
DETAIL
  6
CONTINUOUS
 62
     5
 10
-170.2350155961652
 20
-170.50109095658419
 30
0.0
 11
-170.5010909565847
 21
-169.011068938237
 31
0.0
  0
LINE
  8
DETAIL
  6
CONTINUOUS
 62
     5
 10
-170.5010909565847
 20
-169.011068938237
 30
0.0
 11
-171.29931703784149
 21
-167.52104691988981
 31
0.0
  0
LINE
  8
DETAIL
  6
CONTINUOUS
 62
     5
 10
-171.29931703784149
 20
-167.52104691988981
 30
0.0
 11
-172.52326369577
 21
-166.50996055029711
 31
0.0
  0
LINE
  8
DETAIL
  6
CONTINUOUS
 62
     5
 10
-172.52326369577
 20
-166.50996055029711
 30
0.0
 11
-173.80042542578181
 21
-165.8181646132073
 31
0.0
  0
LINE
  8
DETAIL
  6
CONTINUOUS
 62
     5
 10
-173.80042542578181
 20
-165.8181646132073
 30
0.0
 11
-175.2372323720451
 21
-165.49887418070441
 31
0.0
  0
LINE
  8
DETAIL
  6
CONTINUOUS
 62
     5
 10
-199.0243695935163
 20
-165.49887418070441
 30
0.0
 11
-175.2372323720451
 21
-165.49887418070441
 31
0.0
  0
LINE
  8
DETAIL
  6
CONTINUOUS
 62
     5
 10
-207.69842634318019
 20
-142.77603840090981
 30
0.0
 11
-210.83811559612579
 21
-147.7782551767898
 31
0.0
  0
LINE
  8
DETAIL
  6
CONTINUOUS
 62
     5
 10
-213.49886920031761
 20
-142.77603840090981
 30
0.0
 11
-210.83811559612579
 21
-147.7782551767898
 31
0.0
  0
LINE
  8
DETAIL
  6
CONTINUOUS
 62
     5
 10
-210.83811559612579
 20
-147.7782551767898
 30
0.0
 11
-210.83811559612579
 21
-142.77603840090981
 31
0.0
  0
LINE
  8
DETAIL
  6
CONTINUOUS
 62
     5
 10
-187.7427743117446
 20
-146.8203838792808
 30
0.0
 11
-174.0132857141173
 21
-146.8203838792808
 31
0.0
  0
LINE
  8
DETAIL
  6
CONTINUOUS
 62
     5
 10
-166.98889619905211
 20
-153.3126226735078
 30
0.0
 11
-167.5210469198901
 21
-151.18401979015471
 31
0.0
  0
LINE
  8
DETAIL
  6
CONTINUOUS
 62
     5
 10
-167.5210469198901
 20
-151.18401979015471
 30
0.0
 11
-168.53213328948291
 21
-149.48113748347191
 31
0.0
  0
LINE
  8
DETAIL
  6
CONTINUOUS
 62
     5
 10
-168.53213328948291
 20
-149.48113748347191
 30
0.0
 11
-170.02215530782971
 21
-147.99111546512489
 31
0.0
  0
LINE
  8
DETAIL
  6
CONTINUOUS
 62
     5
 10
-170.02215530782971
 20
-147.99111546512489
 30
0.0
 11
-171.7250376145125
 21
-147.19288938386759
 31
0.0
  0
LINE
  8
DETAIL
  6
CONTINUOUS
 62
     5
 10
-171.7250376145125
 20
-147.19288938386759
 30
0.0
 11
-174.0132857141173
 21
-146.8203838792808
 31
0.0
  0
LINE
  8
DETAIL
  6
CONTINUOUS
 62
     5
 10
-187.7427743117446
 20
-144.6917809959275
 30
0.0
 11
-186.73168794215169
 21
-144.6917809959275
 31
0.0
  0
LINE
  8
DETAIL
  6
CONTINUOUS
 62
     5
 10
-166.98889619905211
 20
-153.3126226735078
 30
0.0
 11
-165.8181646132077
 21
-163.31705622526741
 31
0.0
  0
LINE
  8
DETAIL
  6
CONTINUOUS
 62
     5
 10
-165.8181646132077
 20
-163.31705622526741
 30
0.0
 11
-163.31705622526749
 21
-172.78933905618871
 31
0.0
  0
LINE
  8
DETAIL
  6
CONTINUOUS
 62
     5
 10
-163.31705622526749
 20
-172.78933905618871
 30
0.0
 11
-159.69843132356741
 21
-182.20840681502639
 31
0.0
  0
LINE
  8
DETAIL
  6
CONTINUOUS
 62
     5
 10
-244.63611651352431
 20
-161.02880812566289
 30
0.0
 11
-244.42325622518879
 21
-162.78490550442919
 31
0.0
  0
LINE
  8
DETAIL
  6
CONTINUOUS
 62
     5
 10
-244.42325622518879
 20
-162.78490550442919
 30
0.0
 11
-243.7314602880989
 21
-164.4877878111117
 31
0.0
  0
LINE
  8
DETAIL
  6
CONTINUOUS
 62
     5
 10
-243.7314602880989
 20
-164.4877878111117
 30
0.0
 11
-242.61394377433911
 21
-166.03102490154271
 31
0.0
  0
LINE
  8
DETAIL
  6
CONTINUOUS
 62
     5
 10
-244.63611651352431
 20
-142.77603840090981
 30
0.0
 11
-244.63611651352431
 21
-161.02880812566289
 31
0.0
  0
LINE
  8
DETAIL
  6
CONTINUOUS
 62
     5
 10
-241.54321218849469
 20
-142.77603840090981
 30
0.0
 11
-238.82924351221951
 21
-147.7782551767898
 31
0.0
  0
LINE
  8
DETAIL
  6
CONTINUOUS
 62
     5
 10
-235.7959844034408
 20
-142.77603840090981
 30
0.0
 11
-238.82924351221951
 21
-147.7782551767898
 31
0.0
  0
LINE
  8
DETAIL
  6
CONTINUOUS
 62
     5
 10
-238.82924351221951
 20
-147.7782551767898
 30
0.0
 11
-238.82924351221951
 21
-142.77603840090981
 31
0.0
  0
LINE
  8
DETAIL
  6
CONTINUOUS
 62
     5
 10
-209.0288031452761
 20
-228.7183798162919
 30
0.0
 11
-209.0288031452761
 21
-191.99998007845051
 31
0.0
  0
LINE
  8
DETAIL
  6
CONTINUOUS
 62
     5
 10
-199.0243695935163
 20
-238.72281336805139
 30
0.0
 11
-187.5299140234097
 21
-238.72281336805139
 31
0.0
  0
LINE
  8
DETAIL
  6
CONTINUOUS
 62
     5
 10
-187.5299140234097
 20
-140.00885465255081
 30
0.0
 11
-199.0243695935163
 21
-140.00885465255081
 31
0.0
  0
LINE
  8
DETAIL
  6
CONTINUOUS
 62
     5
 10
-209.0288031452761
 20
-228.7183798162919
 30
0.0
 11
-208.49665242443771
 21
-232.01771428548909
 31
0.0
  0
LINE
  8
DETAIL
  6
CONTINUOUS
 62
     5
 10
-208.49665242443771
 20
-232.01771428548909
 30
0.0
 11
-207.0066304060903
 21
-234.78489803384829
 31
0.0
  0
LINE
  8
DETAIL
  6
CONTINUOUS
 62
     5
 10
-207.0066304060903
 20
-234.78489803384829
 30
0.0
 11
-204.71838230648549
 21
-237.01993106136911
 31
0.0
  0
LINE
  8
DETAIL
  6
CONTINUOUS
 62
     5
 10
-204.71838230648549
 20
-237.01993106136911
 30
0.0
 11
-202.00441363021039
 21
-238.5099530797161
 31
0.0
  0
LINE
  8
DETAIL
  6
CONTINUOUS
 62
     5
 10
-202.00441363021039
 20
-238.5099530797161
 30
0.0
 11
-199.0243695935163
 21
-238.72281336805139
 31
0.0
  0
LINE
  8
DETAIL
  6
CONTINUOUS
 62
     5
 10
-199.0243695935163
 20
-140.00885465255081
 30
0.0
 11
-201.52547798145599
 21
-140.32814508505379
 31
0.0
  0
LINE
  8
DETAIL
  6
CONTINUOUS
 62
     5
 10
-201.52547798145599
 20
-140.32814508505379
 30
0.0
 11
-204.02658636939569
 21
-141.1795862383951
 31
0.0
  0
LINE
  8
DETAIL
  6
CONTINUOUS
 62
     5
 10
-204.02658636939569
 20
-141.1795862383951
 30
0.0
 11
-205.99554403649739
 21
-142.77603840090981
 31
0.0
  0
LINE
  8
DETAIL
  6
CONTINUOUS
 62
     5
 10
83.707308387860962
 20
-232.49664993424361
 30
0.0
 11
83.494448099526039
 21
-231.00662791589639
 31
0.0
  0
LINE
  8
DETAIL
  6
CONTINUOUS
 62
     5
 10
83.494448099526039
 20
-231.00662791589639
 30
0.0
 11
82.802652162436061
 21
-229.5166058975492
 31
0.0
  0
LINE
  8
DETAIL
  6
CONTINUOUS
 62
     5
 10
82.802652162436061
 20
-229.5166058975492
 30
0.0
 11
81.685135648675669
 21
-228.50551952795669
 31
0.0
  0
LINE
  8
DETAIL
  6
CONTINUOUS
 62
     5
 10
81.685135648675669
 20
-228.50551952795669
 30
0.0
 11
80.301543774496395
 21
-228.02658387920221
 31
0.0
  0
LINE
  8
DETAIL
  6
CONTINUOUS
 62
     5
 10
80.301543774496395
 20
-228.02658387920221
 30
0.0
 11
78.705091611981629
 21
-227.8137235908666
 31
0.0
  0
LINE
  8
DETAIL
  6
CONTINUOUS
 62
     5
 10
78.705091611981629
 20
-227.8137235908666
 30
0.0
 11
77.321499737801787
 21
-228.18622909545371
 31
0.0
  0
LINE
  8
DETAIL
  6
CONTINUOUS
 62
     5
 10
77.321499737801787
 20
-228.18622909545371
 30
0.0
 11
75.991122935705903
 21
-228.98445517671101
 31
0.0
  0
LINE
  8
DETAIL
  6
CONTINUOUS
 62
     5
 10
75.991122935705903
 20
-228.98445517671101
 30
0.0
 11
75.03325163819693
 21
-230.3148319788065
 31
0.0
  0
LINE
  8
DETAIL
  6
CONTINUOUS
 62
     5
 10
75.03325163819693
 20
-230.3148319788065
 30
0.0
 11
74.501100917359054
 21
-231.80485399715391
 31
0.0
  0
LINE
  8
DETAIL
  6
CONTINUOUS
 62
     5
 10
74.501100917359054
 20
-231.80485399715391
 30
0.0
 11
74.501100917359054
 21
-233.1884458713337
 31
0.0
  0
LINE
  8
DETAIL
  6
CONTINUOUS
 62
     5
 10
74.501100917359054
 20
-233.1884458713337
 30
0.0
 11
75.03325163819693
 21
-234.78489803384829
 31
0.0
  0
LINE
  8
DETAIL
  6
CONTINUOUS
 62
     5
 10
75.03325163819693
 20
-234.78489803384829
 30
0.0
 11
75.991122935705903
 21
-236.0088446917762
 31
0.0
  0
LINE
  8
DETAIL
  6
CONTINUOUS
 62
     5
 10
75.991122935705903
 20
-236.0088446917762
 30
0.0
 11
77.321499737801787
 21
-236.8070707730335
 31
0.0
  0
LINE
  8
DETAIL
  6
CONTINUOUS
 62
     5
 10
77.321499737801787
 20
-236.8070707730335
 30
0.0
 11
78.705091611981629
 21
-237.28600642178799
 31
0.0
  0
LINE
  8
DETAIL
  6
CONTINUOUS
 62
     5
 10
78.705091611981629
 20
-237.28600642178799
 30
0.0
 11
80.301543774496395
 21
-237.01993106136911
 31
0.0
  0
LINE
  8
DETAIL
  6
CONTINUOUS
 62
     5
 10
80.301543774496395
 20
-237.01993106136911
 30
0.0
 11
81.685135648675669
 21
-236.48778034053069
 31
0.0
  0
LINE
  8
DETAIL
  6
CONTINUOUS
 62
     5
 10
81.685135648675669
 20
-236.48778034053069
 30
0.0
 11
82.802652162436061
 21
-235.31704875468651
 31
0.0
  0
LINE
  8
DETAIL
  6
CONTINUOUS
 62
     5
 10
82.802652162436061
 20
-235.31704875468651
 30
0.0
 11
83.494448099526039
 21
-233.986671952591
 31
0.0
  0
LINE
  8
DETAIL
  6
CONTINUOUS
 62
     5
 10
83.494448099526039
 20
-233.986671952591
 30
0.0
 11
83.707308387860962
 21
-232.49664993424361
 31
0.0
  0
LINE
  8
DETAIL
  6
CONTINUOUS
 62
     5
 10
80.833694495334271
 20
-231.00662791589639
 30
0.0
 11
77.80043538655616
 21
-233.986671952591
 31
0.0
  0
LINE
  8
DETAIL
  6
CONTINUOUS
 62
     5
 10
77.80043538655616
 20
-231.00662791589639
 30
0.0
 11
80.833694495334271
 21
-233.986671952591
 31
0.0
  0
LINE
  8
DETAIL
  6
CONTINUOUS
 62
     5
 10
-74.501100917359167
 20
-232.49664993424361
 30
0.0
 11
-74.71396120569409
 21
-231.00662791589639
 31
0.0
  0
LINE
  8
DETAIL
  6
CONTINUOUS
 62
     5
 10
-74.71396120569409
 20
-231.00662791589639
 30
0.0
 11
-75.512187286952098
 21
-229.5166058975492
 31
0.0
  0
LINE
  8
DETAIL
  6
CONTINUOUS
 62
     5
 10
-75.512187286952098
 20
-229.5166058975492
 30
0.0
 11
-76.682918872795881
 21
-228.50551952795669
 31
0.0
  0
LINE
  8
DETAIL
  6
CONTINUOUS
 62
     5
 10
-76.682918872795881
 20
-228.50551952795669
 30
0.0
 11
-78.013295674891765
 21
-228.02658387920221
 31
0.0
  0
LINE
  8
DETAIL
  6
CONTINUOUS
 62
     5
 10
-78.013295674891765
 20
-228.02658387920221
 30
0.0
 11
-79.5033176932385
 21
-227.8137235908666
 31
0.0
  0
LINE
  8
DETAIL
  6
CONTINUOUS
 62
     5
 10
-79.5033176932385
 20
-227.8137235908666
 30
0.0
 11
-80.993339711585918
 21
-228.18622909545371
 31
0.0
  0
LINE
  8
DETAIL
  6
CONTINUOUS
 62
     5
 10
-80.993339711585918
 20
-228.18622909545371
 30
0.0
 11
-82.483361729933222
 21
-228.98445517671101
 31
0.0
  0
LINE
  8
DETAIL
  6
CONTINUOUS
 62
     5
 10
-82.483361729933222
 20
-228.98445517671101
 30
0.0
 11
-83.281587811190548
 21
-230.3148319788065
 31
0.0
  0
LINE
  8
DETAIL
  6
CONTINUOUS
 62
     5
 10
-83.281587811190548
 20
-230.3148319788065
 30
0.0
 11
-83.813738532028992
 21
-231.80485399715391
 31
0.0
  0
LINE
  8
DETAIL
  6
CONTINUOUS
 62
     5
 10
-83.813738532028992
 20
-231.80485399715391
 30
0.0
 11
-83.813738532028992
 21
-233.1884458713337
 31
0.0
  0
LINE
  8
DETAIL
  6
CONTINUOUS
 62
     5
 10
-83.813738532028992
 20
-233.1884458713337
 30
0.0
 11
-83.281587811190548
 21
-234.78489803384829
 31
0.0
  0
LINE
  8
DETAIL
  6
CONTINUOUS
 62
     5
 10
-83.281587811190548
 20
-234.78489803384829
 30
0.0
 11
-82.483361729933222
 21
-236.0088446917762
 31
0.0
  0
LINE
  8
DETAIL
  6
CONTINUOUS
 62
     5
 10
-82.483361729933222
 20
-236.0088446917762
 30
0.0
 11
-80.993339711585918
 21
-236.8070707730335
 31
0.0
  0
LINE
  8
DETAIL
  6
CONTINUOUS
 62
     5
 10
-80.993339711585918
 20
-236.8070707730335
 30
0.0
 11
-79.5033176932385
 21
-237.28600642178799
 31
0.0
  0
LINE
  8
DETAIL
  6
CONTINUOUS
 62
     5
 10
-79.5033176932385
 20
-237.28600642178799
 30
0.0
 11
-78.013295674891765
 21
-237.01993106136911
 31
0.0
  0
LINE
  8
DETAIL
  6
CONTINUOUS
 62
     5
 10
-78.013295674891765
 20
-237.01993106136911
 30
0.0
 11
-76.682918872795881
 21
-236.48778034053069
 31
0.0
  0
LINE
  8
DETAIL
  6
CONTINUOUS
 62
     5
 10
-76.682918872795881
 20
-236.48778034053069
 30
0.0
 11
-75.512187286952098
 21
-235.31704875468651
 31
0.0
  0
LINE
  8
DETAIL
  6
CONTINUOUS
 62
     5
 10
-75.512187286952098
 20
-235.31704875468651
 30
0.0
 11
-74.71396120569409
 21
-233.986671952591
 31
0.0
  0
LINE
  8
DETAIL
  6
CONTINUOUS
 62
     5
 10
-74.71396120569409
 20
-233.986671952591
 30
0.0
 11
-74.501100917359167
 21
-232.49664993424361
 31
0.0
  0
LINE
  8
DETAIL
  6
CONTINUOUS
 62
     5
 10
-77.694005242388698
 20
-231.00662791589639
 30
0.0
 11
-80.780479423250313
 21
-233.986671952591
 31
0.0
  0
LINE
  8
DETAIL
  6
CONTINUOUS
 62
     5
 10
-80.780479423250313
 20
-231.00662791589639
 30
0.0
 11
-77.694005242388698
 21
-233.986671952591
 31
0.0
  0
LINE
  8
DETAIL
  6
CONTINUOUS
 62
     5
 10
-162.1995397115071
 20
-185.0288056354693
 30
0.0
 11
-162.73169043234549
 21
-183.00663289628369
 31
0.0
  0
LINE
  8
DETAIL
  6
CONTINUOUS
 62
     5
 10
-162.73169043234549
 20
-183.00663289628369
 30
0.0
 11
-163.52991651360301
 21
-181.19732044543389
 31
0.0
  0
LINE
  8
DETAIL
  6
CONTINUOUS
 62
     5
 10
-163.52991651360301
 20
-181.19732044543389
 30
0.0
 11
-165.01993853195029
 21
-180.02658885958931
 31
0.0
  0
LINE
  8
DETAIL
  6
CONTINUOUS
 62
     5
 10
-165.01993853195029
 20
-180.02658885958931
 30
0.0
 11
-166.7228208386326
 21
-179.28157785041569
 31
0.0
  0
LINE
  8
DETAIL
  6
CONTINUOUS
 62
     5
 10
-166.7228208386326
 20
-179.28157785041569
 30
0.0
 11
-168.79820864990191
 21
-179.01550248999661
 31
0.0
  0
LINE
  8
DETAIL
  6
CONTINUOUS
 62
     5
 10
-168.79820864990191
 20
-179.01550248999661
 30
0.0
 11
-170.5010909565847
 21
-179.49443813875089
 31
0.0
  0
LINE
  8
DETAIL
  6
CONTINUOUS
 62
     5
 10
-170.5010909565847
 20
-179.49443813875089
 30
0.0
 11
-172.20397326326699
 21
-180.82481494084661
 31
0.0
  0
LINE
  8
DETAIL
  6
CONTINUOUS
 62
     5
 10
-172.20397326326699
 20
-180.82481494084661
 30
0.0
 11
-173.53435006536219
 21
-182.20840681502639
 31
0.0
  0
LINE
  8
DETAIL
  6
CONTINUOUS
 62
     5
 10
-173.53435006536219
 20
-182.20840681502639
 30
0.0
 11
-174.0132857141173
 21
-184.01771926587639
 31
0.0
  0
LINE
  8
DETAIL
  6
CONTINUOUS
 62
     5
 10
-174.0132857141173
 20
-184.01771926587639
 30
0.0
 11
-174.0132857141173
 21
-185.9866769329781
 31
0.0
  0
LINE
  8
DETAIL
  6
CONTINUOUS
 62
     5
 10
-174.0132857141173
 20
-185.9866769329781
 30
0.0
 11
-173.53435006536219
 21
-187.7959893838281
 31
0.0
  0
LINE
  8
DETAIL
  6
CONTINUOUS
 62
     5
 10
-173.53435006536219
 20
-187.7959893838281
 30
0.0
 11
-172.20397326326699
 21
-189.28601140217529
 31
0.0
  0
LINE
  8
DETAIL
  6
CONTINUOUS
 62
     5
 10
-172.20397326326699
 20
-189.28601140217529
 30
0.0
 11
-170.5010909565847
 21
-190.29709777176799
 31
0.0
  0
LINE
  8
DETAIL
  6
CONTINUOUS
 62
     5
 10
-170.5010909565847
 20
-190.29709777176799
 30
0.0
 11
-168.79820864990191
 21
-190.82924849260669
 31
0.0
  0
LINE
  8
DETAIL
  6
CONTINUOUS
 62
     5
 10
-168.79820864990191
 20
-190.82924849260669
 30
0.0
 11
-166.7228208386326
 21
-190.82924849260669
 31
0.0
  0
LINE
  8
DETAIL
  6
CONTINUOUS
 62
     5
 10
-166.7228208386326
 20
-190.82924849260669
 30
0.0
 11
-165.01993853195029
 21
-190.03102241134891
 31
0.0
  0
LINE
  8
DETAIL
  6
CONTINUOUS
 62
     5
 10
-165.01993853195029
 20
-190.03102241134891
 30
0.0
 11
-163.52991651360301
 21
-188.48778532091799
 31
0.0
  0
LINE
  8
DETAIL
  6
CONTINUOUS
 62
     5
 10
-163.52991651360301
 20
-188.48778532091799
 30
0.0
 11
-162.73169043234549
 21
-186.9977633025708
 31
0.0
  0
LINE
  8
DETAIL
  6
CONTINUOUS
 62
     5
 10
-162.73169043234549
 20
-186.9977633025708
 30
0.0
 11
-162.1995397115071
 21
-185.0288056354693
 31
0.0
  0
LINE
  8
DETAIL
  6
CONTINUOUS
 62
     5
 10
-166.50996055029711
 20
-183.32592332878681
 30
0.0
 11
-170.02215530782971
 21
-186.7849030142356
 31
0.0
  0
LINE
  8
DETAIL
  6
CONTINUOUS
 62
     5
 10
-170.02215530782971
 20
-183.32592332878681
 30
0.0
 11
-166.50996055029711
 21
-186.7849030142356
 31
0.0
  0
LINE
  8
DETAIL
  6
CONTINUOUS
 62
     5
 10
-74.501100917359167
 20
-74.02216526860434
 30
0.0
 11
-74.71396120569409
 21
-72.478928178173192
 31
0.0
  0
LINE
  8
DETAIL
  6
CONTINUOUS
 62
     5
 10
-74.71396120569409
 20
-72.478928178173192
 30
0.0
 11
-75.512187286952098
 21
-71.201766448161379
 31
0.0
  0
LINE
  8
DETAIL
  6
CONTINUOUS
 62
     5
 10
-75.512187286952098
 20
-71.201766448161379
 30
0.0
 11
-76.682918872795881
 21
-70.297110222736364
 31
0.0
  0
LINE
  8
DETAIL
  6
CONTINUOUS
 62
     5
 10
-76.682918872795881
 20
-70.297110222736364
 30
0.0
 11
-78.013295674891765
 21
-69.498884141479039
 31
0.0
  0
LINE
  8
DETAIL
  6
CONTINUOUS
 62
     5
 10
-78.013295674891765
 20
-69.498884141479039
 30
0.0
 11
-79.5033176932385
 21
-69.498884141479039
 31
0.0
  0
LINE
  8
DETAIL
  6
CONTINUOUS
 62
     5
 10
-79.5033176932385
 20
-69.498884141479039
 30
0.0
 11
-80.993339711585918
 21
-69.711744429814416
 31
0.0
  0
LINE
  8
DETAIL
  6
CONTINUOUS
 62
     5
 10
-80.993339711585918
 20
-69.711744429814416
 30
0.0
 11
-82.483361729933222
 21
-70.509970511071742
 31
0.0
  0
LINE
  8
DETAIL
  6
CONTINUOUS
 62
     5
 10
-82.483361729933222
 20
-70.509970511071742
 30
0.0
 11
-83.281587811190548
 21
-71.787132241083555
 31
0.0
  0
LINE
  8
DETAIL
  6
CONTINUOUS
 62
     5
 10
-83.281587811190548
 20
-71.787132241083555
 30
0.0
 11
-83.813738532028992
 21
-73.277154259430517
 31
0.0
  0
LINE
  8
DETAIL
  6
CONTINUOUS
 62
     5
 10
-83.813738532028992
 20
-73.277154259430517
 30
0.0
 11
-83.813738532028992
 21
-74.713961205693977
 31
0.0
  0
LINE
  8
DETAIL
  6
CONTINUOUS
 62
     5
 10
-83.813738532028992
 20
-74.713961205693977
 30
0.0
 11
-83.281587811190548
 21
-76.203983224041394
 31
0.0
  0
LINE
  8
DETAIL
  6
CONTINUOUS
 62
     5
 10
-83.281587811190548
 20
-76.203983224041394
 30
0.0
 11
-82.483361729933222
 21
-77.481144954053207
 31
0.0
  0
LINE
  8
DETAIL
  6
CONTINUOUS
 62
     5
 10
-82.483361729933222
 20
-77.481144954053207
 30
0.0
 11
-80.993339711585918
 21
-78.492231323645683
 31
0.0
  0
LINE
  8
DETAIL
  6
CONTINUOUS
 62
     5
 10
-80.993339711585918
 20
-78.492231323645683
 30
0.0
 11
-79.5033176932385
 21
-78.705091611981288
 31
0.0
  0
LINE
  8
DETAIL
  6
CONTINUOUS
 62
     5
 10
-79.5033176932385
 20
-78.705091611981288
 30
0.0
 11
-78.013295674891765
 21
-78.705091611981288
 31
0.0
  0
LINE
  8
DETAIL
  6
CONTINUOUS
 62
     5
 10
-78.013295674891765
 20
-78.705091611981288
 30
0.0
 11
-76.682918872795881
 21
-78.013295674891197
 31
0.0
  0
LINE
  8
DETAIL
  6
CONTINUOUS
 62
     5
 10
-76.682918872795881
 20
-78.013295674891197
 30
0.0
 11
-75.512187286952098
 21
-77.00220930529872
 31
0.0
  0
LINE
  8
DETAIL
  6
CONTINUOUS
 62
     5
 10
-75.512187286952098
 20
-77.00220930529872
 30
0.0
 11
-74.71396120569409
 21
-75.512187286951303
 31
0.0
  0
LINE
  8
DETAIL
  6
CONTINUOUS
 62
     5
 10
-74.71396120569409
 20
-75.512187286951303
 30
0.0
 11
-74.501100917359167
 21
-74.02216526860434
 31
0.0
  0
LINE
  8
DETAIL
  6
CONTINUOUS
 62
     5
 10
-77.694005242388698
 20
-72.478928178173192
 30
0.0
 11
-80.780479423250313
 21
-75.512187286951303
 31
0.0
  0
LINE
  8
DETAIL
  6
CONTINUOUS
 62
     5
 10
-80.780479423250313
 20
-72.478928178173192
 30
0.0
 11
-77.694005242388698
 21
-75.512187286951303
 31
0.0
  0
LINE
  8
DETAIL
  6
CONTINUOUS
 62
     5
 10
83.707308387860962
 20
-74.02216526860434
 30
0.0
 11
83.494448099526039
 21
-72.478928178173192
 31
0.0
  0
LINE
  8
DETAIL
  6
CONTINUOUS
 62
     5
 10
83.494448099526039
 20
-72.478928178173192
 30
0.0
 11
82.802652162436061
 21
-71.201766448161379
 31
0.0
  0
LINE
  8
DETAIL
  6
CONTINUOUS
 62
     5
 10
82.802652162436061
 20
-71.201766448161379
 30
0.0
 11
81.685135648675669
 21
-70.297110222736364
 31
0.0
  0
LINE
  8
DETAIL
  6
CONTINUOUS
 62
     5
 10
81.685135648675669
 20
-70.297110222736364
 30
0.0
 11
80.301543774496395
 21
-69.498884141479039
 31
0.0
  0
LINE
  8
DETAIL
  6
CONTINUOUS
 62
     5
 10
80.301543774496395
 20
-69.498884141479039
 30
0.0
 11
78.705091611981629
 21
-69.498884141479039
 31
0.0
  0
LINE
  8
DETAIL
  6
CONTINUOUS
 62
     5
 10
78.705091611981629
 20
-69.498884141479039
 30
0.0
 11
77.321499737801787
 21
-69.711744429814416
 31
0.0
  0
LINE
  8
DETAIL
  6
CONTINUOUS
 62
     5
 10
77.321499737801787
 20
-69.711744429814416
 30
0.0
 11
75.991122935705903
 21
-70.509970511071742
 31
0.0
  0
LINE
  8
DETAIL
  6
CONTINUOUS
 62
     5
 10
75.991122935705903
 20
-70.509970511071742
 30
0.0
 11
75.03325163819693
 21
-71.787132241083555
 31
0.0
  0
LINE
  8
DETAIL
  6
CONTINUOUS
 62
     5
 10
75.03325163819693
 20
-71.787132241083555
 30
0.0
 11
74.501100917359054
 21
-73.277154259430517
 31
0.0
  0
LINE
  8
DETAIL
  6
CONTINUOUS
 62
     5
 10
74.501100917359054
 20
-73.277154259430517
 30
0.0
 11
74.501100917359054
 21
-74.713961205693977
 31
0.0
  0
LINE
  8
DETAIL
  6
CONTINUOUS
 62
     5
 10
74.501100917359054
 20
-74.713961205693977
 30
0.0
 11
75.03325163819693
 21
-76.203983224041394
 31
0.0
  0
LINE
  8
DETAIL
  6
CONTINUOUS
 62
     5
 10
75.03325163819693
 20
-76.203983224041394
 30
0.0
 11
75.991122935705903
 21
-77.481144954053207
 31
0.0
  0
LINE
  8
DETAIL
  6
CONTINUOUS
 62
     5
 10
75.991122935705903
 20
-77.481144954053207
 30
0.0
 11
77.321499737801787
 21
-78.492231323645683
 31
0.0
  0
LINE
  8
DETAIL
  6
CONTINUOUS
 62
     5
 10
77.321499737801787
 20
-78.492231323645683
 30
0.0
 11
78.705091611981629
 21
-78.705091611981288
 31
0.0
  0
LINE
  8
DETAIL
  6
CONTINUOUS
 62
     5
 10
78.705091611981629
 20
-78.705091611981288
 30
0.0
 11
80.301543774496395
 21
-78.705091611981288
 31
0.0
  0
LINE
  8
DETAIL
  6
CONTINUOUS
 62
     5
 10
80.301543774496395
 20
-78.705091611981288
 30
0.0
 11
81.685135648675669
 21
-78.013295674891197
 31
0.0
  0
LINE
  8
DETAIL
  6
CONTINUOUS
 62
     5
 10
81.685135648675669
 20
-78.013295674891197
 30
0.0
 11
82.802652162436061
 21
-77.00220930529872
 31
0.0
  0
LINE
  8
DETAIL
  6
CONTINUOUS
 62
     5
 10
82.802652162436061
 20
-77.00220930529872
 30
0.0
 11
83.494448099526039
 21
-75.512187286951303
 31
0.0
  0
LINE
  8
DETAIL
  6
CONTINUOUS
 62
     5
 10
83.494448099526039
 20
-75.512187286951303
 30
0.0
 11
83.707308387860962
 21
-74.02216526860434
 31
0.0
  0
LINE
  8
DETAIL
  6
CONTINUOUS
 62
     5
 10
80.833694495334271
 20
-72.478928178173192
 30
0.0
 11
77.80043538655616
 21
-75.512187286951303
 31
0.0
  0
LINE
  8
DETAIL
  6
CONTINUOUS
 62
     5
 10
77.80043538655616
 20
-72.478928178173192
 30
0.0
 11
80.833694495334271
 21
-75.512187286951303
 31
0.0
  0
LINE
  8
DETAIL
  6
CONTINUOUS
 62
     5
 10
174.01328571411719
 20
-185.0288056354693
 30
0.0
 11
173.69399528161429
 21
-183.00663289628369
 31
0.0
  0
LINE
  8
DETAIL
  6
CONTINUOUS
 62
     5
 10
173.69399528161429
 20
-183.00663289628369
 30
0.0
 11
172.84255412827281
 21
-181.19732044543389
 31
0.0
  0
LINE
  8
DETAIL
  6
CONTINUOUS
 62
     5
 10
172.84255412827281
 20
-181.19732044543389
 30
0.0
 11
171.51217732617701
 21
-180.02658885958931
 31
0.0
  0
LINE
  8
DETAIL
  6
CONTINUOUS
 62
     5
 10
171.51217732617701
 20
-180.02658885958931
 30
0.0
 11
169.54321965907579
 21
-179.28157785041569
 31
0.0
  0
LINE
  8
DETAIL
  6
CONTINUOUS
 62
     5
 10
169.54321965907579
 20
-179.28157785041569
 30
0.0
 11
167.84033735239291
 21
-179.01550248999661
 31
0.0
  0
LINE
  8
DETAIL
  6
CONTINUOUS
 62
     5
 10
167.84033735239291
 20
-179.01550248999661
 30
0.0
 11
165.81816461320761
 21
-179.49443813875089
 31
0.0
  0
LINE
  8
DETAIL
  6
CONTINUOUS
 62
     5
 10
165.81816461320761
 20
-179.49443813875089
 30
0.0
 11
164.22171245069299
 21
-180.82481494084661
 31
0.0
  0
LINE
  8
DETAIL
  6
CONTINUOUS
 62
     5
 10
164.22171245069299
 20
-180.82481494084661
 30
0.0
 11
162.9977657927644
 21
-182.20840681502639
 31
0.0
  0
LINE
  8
DETAIL
  6
CONTINUOUS
 62
     5
 10
162.9977657927644
 20
-182.20840681502639
 30
0.0
 11
162.3059698556751
 21
-184.01771926587639
 31
0.0
  0
LINE
  8
DETAIL
  6
CONTINUOUS
 62
     5
 10
162.3059698556751
 20
-184.01771926587639
 30
0.0
 11
162.3059698556751
 21
-185.9866769329781
 31
0.0
  0
LINE
  8
DETAIL
  6
CONTINUOUS
 62
     5
 10
162.3059698556751
 20
-185.9866769329781
 30
0.0
 11
162.9977657927644
 21
-187.7959893838281
 31
0.0
  0
LINE
  8
DETAIL
  6
CONTINUOUS
 62
     5
 10
162.9977657927644
 20
-187.7959893838281
 30
0.0
 11
164.22171245069299
 21
-189.28601140217529
 31
0.0
  0
LINE
  8
DETAIL
  6
CONTINUOUS
 62
     5
 10
164.22171245069299
 20
-189.28601140217529
 30
0.0
 11
165.81816461320761
 21
-190.29709777176799
 31
0.0
  0
LINE
  8
DETAIL
  6
CONTINUOUS
 62
     5
 10
165.81816461320761
 20
-190.29709777176799
 30
0.0
 11
167.84033735239291
 21
-190.82924849260669
 31
0.0
  0
LINE
  8
DETAIL
  6
CONTINUOUS
 62
     5
 10
167.84033735239291
 20
-190.82924849260669
 30
0.0
 11
169.54321965907579
 21
-190.82924849260669
 31
0.0
  0
LINE
  8
DETAIL
  6
CONTINUOUS
 62
     5
 10
169.54321965907579
 20
-190.82924849260669
 30
0.0
 11
171.51217732617701
 21
-190.03102241134891
 31
0.0
  0
LINE
  8
DETAIL
  6
CONTINUOUS
 62
     5
 10
171.51217732617701
 20
-190.03102241134891
 30
0.0
 11
172.84255412827281
 21
-188.48778532091799
 31
0.0
  0
LINE
  8
DETAIL
  6
CONTINUOUS
 62
     5
 10
172.84255412827281
 20
-188.48778532091799
 30
0.0
 11
173.69399528161429
 21
-186.9977633025708
 31
0.0
  0
LINE
  8
DETAIL
  6
CONTINUOUS
 62
     5
 10
173.69399528161429
 20
-186.9977633025708
 30
0.0
 11
174.01328571411719
 21
-185.0288056354693
 31
0.0
  0
LINE
  8
DETAIL
  6
CONTINUOUS
 62
     5
 10
166.509960550297
 20
-183.32592332878681
 30
0.0
 11
170.02215530782959
 21
-186.7849030142356
 31
0.0
  0
LINE
  8
DETAIL
  6
CONTINUOUS
 62
     5
 10
170.02215530782959
 20
-183.32592332878681
 30
0.0
 11
166.509960550297
 21
-186.7849030142356
 31
0.0
  0
LINE
  8
OUTLINE
  6
CONTINUOUS
 62
     3
 10
182.5276972475302
 20
-1.170731585843896
 30
0.0
 11
184.0177192658771
 21
-2.7671837483587751
 31
0.0
  0
LINE
  8
OUTLINE
  6
CONTINUOUS
 62
     3
 10
-175.50330773246401
 20
-1.170731585843896
 30
0.0
 11
-182.5276972475292
 21
-1.170731585843896
 31
0.0
  0
LINE
  8
OUTLINE
  6
CONTINUOUS
 62
     3
 10
182.5276972475302
 20
-1.170731585843896
 30
0.0
 11
175.50330773246401
 21
-1.170731585843896
 31
0.0
  0
LINE
  8
OUTLINE
  6
CONTINUOUS
 62
     3
 10
175.50330773246401
 20
-1.170731585843896
 30
0.0
 11
175.50330773246401
 21
0.0
 31
0.0
  0
LINE
  8
OUTLINE
  6
CONTINUOUS
 62
     3
 10
-175.50330773246401
 20
0.0
 30
0.0
 11
-175.50330773246401
 21
-1.170731585843896
 31
0.0
  0
LINE
  8
OUTLINE
  6
CONTINUOUS
 62
     3
 10
-185.5077412842239
 20
-305.42058912159081
 30
0.0
 11
185.50774128422381
 21
-305.42058912159081
 31
0.0
  0
LINE
  8
OUTLINE
  6
CONTINUOUS
 62
     3
 10
175.50330773246401
 20
0.0
 30
0.0
 11
-175.50330773246401
 21
0.0
 31
0.0
  0
LINE
  8
OUTLINE
  6
CONTINUOUS
 62
     3
 10
185.50774128422381
 20
-305.42058912159081
 30
0.0
 11
185.50774128422381
 21
-303.39841638240529
 31
0.0
  0
LINE
  8
OUTLINE
  6
CONTINUOUS
 62
     3
 10
-184.23057955421211
 20
-2.7671837483587751
 30
0.0
 11
-182.5276972475292
 21
-1.170731585843896
 31
0.0
  0
LINE
  8
OUTLINE
  6
CONTINUOUS
 62
     3
 10
-185.5077412842239
 20
-303.39841638240529
 30
0.0
 11
-185.5077412842239
 21
-305.42058912159081
 31
0.0
  0
LINE
  8
OUTLINE
  6
CONTINUOUS
 62
     3
 10
-186.73168794215169
 20
-146.8203838792808
 30
0.0
 11
-186.73168794215169
 21
-2.7671837483587751
 31
0.0
  0
LINE
  8
OUTLINE
  6
CONTINUOUS
 62
     3
 10
-186.73168794215169
 20
-2.7671837483587751
 30
0.0
 11
-182.7405575358641
 21
-2.7671837483587751
 31
0.0
  0
LINE
  8
OUTLINE
  6
CONTINUOUS
 62
     3
 10
-186.73168794215169
 20
-303.39841638240529
 30
0.0
 11
-186.73168794215169
 21
-191.99998007845051
 31
0.0
  0
LINE
  8
OUTLINE
  6
CONTINUOUS
 62
     3
 10
-186.73168794215169
 20
-303.39841638240529
 30
0.0
 11
-182.7405575358641
 21
-303.39841638240529
 31
0.0
  0
LINE
  8
OUTLINE
  6
CONTINUOUS
 62
     3
 10
186.73168794215169
 20
-191.99998007845051
 30
0.0
 11
186.73168794215169
 21
-303.39841638240529
 31
0.0
  0
LINE
  8
OUTLINE
  6
CONTINUOUS
 62
     3
 10
186.73168794215169
 20
-303.39841638240529
 30
0.0
 11
182.79377260794811
 21
-303.39841638240529
 31
0.0
  0
LINE
  8
OUTLINE
  6
CONTINUOUS
 62
     3
 10
186.73168794215169
 20
-2.7671837483587751
 30
0.0
 11
186.73168794215169
 21
-191.99998007845051
 31
0.0
  0
LINE
  8
OUTLINE
  6
CONTINUOUS
 62
     3
 10
182.79377260794811
 20
-2.7671837483587751
 30
0.0
 11
186.73168794215169
 21
-2.7671837483587751
 31
0.0
  0
LINE
  8
OUTLINE
  6
CONTINUOUS
 62
     3
 10
-187.5299140234097
 20
-142.77603840090981
 30
0.0
 11
-187.5299140234097
 21
-3.512194757532598
 31
0.0
  0
LINE
  8
OUTLINE
  6
CONTINUOUS
 62
     3
 10
-187.5299140234097
 20
-3.512194757532598
 30
0.0
 11
-186.73168794215169
 21
-3.512194757532598
 31
0.0
  0
LINE
  8
OUTLINE
  6
CONTINUOUS
 62
     3
 10
-187.5299140234097
 20
-302.70662044531548
 30
0.0
 11
-187.5299140234097
 21
-142.77603840090981
 31
0.0
  0
LINE
  8
OUTLINE
  6
CONTINUOUS
 62
     3
 10
-187.5299140234097
 20
-302.70662044531548
 30
0.0
 11
-186.73168794215169
 21
-302.70662044531548
 31
0.0
  0
TEXT
  8
ETC
  6
CONTINUOUS
 62
    61
 10
132.03792483138571
 20
772.07420865876293
 30
0.0
 40
64.0
  1
BFS-80TKA2_2
 41
0.9
  0
TEXT
  8
ETC
  6
CONTINUOUS
 62
    61
 10
127.8519308313853
 20
654.11889864393163
 30
0.0
 40
64.0
  1
産業扇
 41
0.9
  0
TEXT
  8
ETC
  6
CONTINUOUS
 62
    61
 10
178.55332907994111
 20
545.97012575770657
 30
0.0
 40
40.0
  1
BFS-80TKA2
 41
0.9
  0
LINE
  8
SERVICESPACE
  6
DASHDOT
 62
     2
 10
-187.5299140234097
 20
-3.5986392257107132
 30
0.0
 11
-186.75733909960971
 21
-3.5986392257107132
 31
0.0
  0
LINE
  8
DETAIL
  6
CONTINUOUS
 62
     5
 10
-187.7506497159238
 20
-144.70393066545171
 30
0.0
 11
-186.75733909960971
 21
-144.70393066545171
 31
0.0
  0
LINE
  8
DETAIL
  6
CONTINUOUS
 62
     5
 10
-187.7506497159238
 20
-146.80091974433731
 30
0.0
 11
-187.7506497159238
 21
-142.82767727908049
 31
0.0
  0
LINE
  8
SIZE
  6
CONTINUOUS
 62
    30
 10
-253.5298860851733
 20
-267.2908437614542
 30
0.0
 11
-253.5298860851733
 21
-440.21346746893568
 31
0.0
  0
LINE
  8
SIZE
  6
CONTINUOUS
 62
    30
 10
-187.5299140234097
 20
-322.70662044531548
 30
0.0
 11
-187.5299140234097
 21
-440.21346746893568
 31
0.0
  0
LINE
  8
SIZE
  6
CONTINUOUS
 62
    30
 10
-175.5299140234097
 20
-420.21346746893568
 30
0.0
 11
-163.5299140234097
 21
-420.21346746893568
 31
0.0
  0
LINE
  8
SIZE
  6
CONTINUOUS
 62
    30
 10
-265.5298860851733
 20
-420.21346746893568
 30
0.0
 11
-418.04417179945892
 21
-420.21346746893568
 31
0.0
  0
LINE
  8
SIZE
  6
CONTINUOUS
 62
    30
 10
-187.5299140234097
 20
-420.21346746893568
 30
0.0
 11
-253.5298860851733
 21
-420.21346746893568
 31
0.0
  0
CIRCLE
  8
SIZE
  6
CONTINUOUS
 62
    30
 10
-187.5299140234097
 20
-420.21346746893568
 30
0.0
 40
6.0
  0
LINE
  8
SIZE
  6
CONTINUOUS
 62
    30
 10
-187.5299140234097
 20
-420.21346746893568
 30
0.0
 11
-175.5299140234097
 21
-420.21346746893568
 31
0.0
  0
CIRCLE
  8
SIZE
  6
CONTINUOUS
 62
    30
 10
-253.5298860851733
 20
-420.21346746893568
 30
0.0
 40
6.0
  0
LINE
  8
SIZE
  6
CONTINUOUS
 62
    30
 10
-253.5298860851733
 20
-420.21346746893568
 30
0.0
 11
-265.5298860851733
 21
-420.21346746893568
 31
0.0
  0
TEXT
  8
SIZE
  6
CONTINUOUS
 62
    30
 10
-393.04417179945909
 20
-395.21346746893568
 30
0.0
 40
64.0
  1
66
 41
0.9
 72
     1
 11
-347.78702894231628
 21
-395.21346746893568
 31
0.0
  0
POINT
  8
DEFPOINTS
  6
CONTINUOUS
 62
    30
 10
-187.5299140234097
 20
-302.70662044531548
 30
0.0
  0
POINT
  8
DEFPOINTS
  6
CONTINUOUS
 62
    30
 10
-187.5299140234097
 20
-420.21346746893568
 30
0.0
  0
ENDSEC
  0
EOF
