  0
SECTION
  2
HEADER
  9
$ACADVER
  1
AC1009
  9
$DWGCODEPAGE
  3
dos932
  9
$INSBASE
 10
0.0
 20
0.0
 30
0.0
  9
$EXTMIN
 10
-1184.760262
 20
-698.08623799999998
 30
0.0
  9
$EXTMAX
 10
1615.4075780033461
 20
338.47715071972459
 30
0.0
  9
$LIMMIN
 10
-2970.0
 20
-2100.0
  9
$LIMMAX
 10
2970.0
 20
2100.0
  9
$ORTHOMODE
 70
     1
  9
$REGENMODE
 70
     1
  9
$FILLMODE
 70
     1
  9
$QTEXTMODE
 70
     0
  9
$MIRRTEXT
 70
     0
  9
$LTSCALE
 40
20.0
  9
$ATTMODE
 70
     1
  9
$TEXTSIZE
 40
64.0
  9
$TRACEWID
 40
0.05
  9
$TEXTSTYLE
  7
STANDARD
  9
$CLAYER
  8
SIZE
  9
$CELTYPE
  6
CONTINUOUS
  9
$CECOLOR
 62
     7
  9
$DIMSCALE
 40
1.0
  9
$DIMASZ
 40
12.0
  9
$DIMEXO
 40
20.0
  9
$DIMDLI
 40
200.0
  9
$DIMRND
 40
0.0
  9
$DIMDLE
 40
0.0
  9
$DIMEXE
 40
20.0
  9
$DIMTP
 40
0.0
  9
$DIMTM
 40
0.0
  9
$DIMTXT
 40
64.0
  9
$DIMCEN
 40
0.09
  9
$DIMTSZ
 40
0.0
  9
$DIMTOL
 70
     0
  9
$DIMLIM
 70
     0
  9
$DIMTIH
 70
     0
  9
$DIMTOH
 70
     0
  9
$DIMSE1
 70
     0
  9
$DIMSE2
 70
     0
  9
$DIMTAD
 70
     1
  9
$DIMZIN
 70
     8
  9
$DIMBLK
  1

  9
$DIMASO
 70
     1
  9
$DIMSHO
 70
     0
  9
$DIMPOST
  1

  9
$DIMAPOST
  1

  9
$DIMALT
 70
     0
  9
$DIMALTD
 70
     2
  9
$DIMALTF
 40
25.399999999999999
  9
$DIMLFAC
 40
1.0
  9
$DIMTOFL
 70
     1
  9
$DIMTVP
 40
0.0
  9
$DIMTIX
 70
     1
  9
$DIMSOXD
 70
     0
  9
$DIMSAH
 70
     0
  9
$DIMBLK1
  1

  9
$DIMBLK2
  1

  9
$DIMSTYLE
  2
STANDARD
  9
$DIMCLRD
 70
     7
  9
$DIMCLRE
 70
     7
  9
$DIMCLRT
 70
     7
  9
$DIMTFAC
 40
1.0
  9
$DIMGAP
 40
25.0
  9
$LUNITS
 70
     2
  9
$LUPREC
 70
     4
  9
$SKETCHINC
 40
0.1
  9
$FILLETRAD
 40
3.0
  9
$AUNITS
 70
     1
  9
$AUPREC
 70
     3
  9
$MENU
  1
ACAD
  9
$ELEVATION
 40
0.0
  9
$PELEVATION
 40
0.0
  9
$THICKNESS
 40
50.0
  9
$LIMCHECK
 70
     0
  9
$CHAMFERA
 40
0.0
  9
$CHAMFERB
 40
0.0
  9
$SKPOLY
 70
     0
  9
$TDCREATE
 40
2453019.62301037
  9
$TDUPDATE
 40
2458659.385846644
  9
$TDINDWG
 40
1.8388817245
  9
$TDUSRTIMER
 40
1.8388817245
  9
$USRTIMER
 70
     1
  9
$ANGBASE
 50
0.0
  9
$ANGDIR
 70
     0
  9
$PDMODE
 70
     3
  9
$PDSIZE
 40
-2.0
  9
$PLINEWID
 40
0.0
  9
$SPLFRAME
 70
     0
  9
$SPLINETYPE
 70
     6
  9
$SPLINESEGS
 70
     8
  9
$SURFTAB1
 70
     6
  9
$SURFTAB2
 70
     6
  9
$SURFTYPE
 70
     6
  9
$SURFU
 70
     6
  9
$SURFV
 70
     6
  9
$UCSNAME
  2

  9
$UCSORG
 10
0.0
 20
0.0
 30
0.0
  9
$UCSXDIR
 10
1.0
 20
0.0
 30
0.0
  9
$UCSYDIR
 10
0.0
 20
1.0
 30
0.0
  9
$PUCSNAME
  2

  9
$PUCSORG
 10
0.0
 20
0.0
 30
0.0
  9
$PUCSXDIR
 10
1.0
 20
0.0
 30
0.0
  9
$PUCSYDIR
 10
0.0
 20
1.0
 30
0.0
  9
$USERI1
 70
     0
  9
$USERI2
 70
     0
  9
$USERI3
 70
     0
  9
$USERI4
 70
     0
  9
$USERI5
 70
     0
  9
$USERR1
 40
20.0
  9
$USERR2
 40
0.0
  9
$USERR3
 40
0.0
  9
$USERR4
 40
0.0
  9
$USERR5
 40
0.0
  9
$WORLDVIEW
 70
     1
  9
$SHADEDGE
 70
     3
  9
$SHADEDIF
 70
    70
  9
$TILEMODE
 70
     1
  9
$MAXACTVP
 70
    48
  9
$PINSBASE
 10
0.0
 20
0.0
 30
0.0
  9
$PLIMCHECK
 70
     0
  9
$PEXTMIN
 10
-100000000000000000000.0
 20
-100000000000000000000.0
 30
-100000000000000000000.0
  9
$PEXTMAX
 10
100000000000000000000.0
 20
100000000000000000000.0
 30
100000000000000000000.0
  9
$PLIMMIN
 10
0.0
 20
0.0
  9
$PLIMMAX
 10
12.0
 20
9.0
  9
$UNITMODE
 70
     0
  9
$VISRETAIN
 70
     0
  9
$PLINEGEN
 70
     0
  9
$PSLTSCALE
 70
     0
  9
$TREEDEPTH
 70
  3020
  9
$ATTDIA
 70
     0
  9
$ATTREQ
 70
     1
  9
$BLIPMODE
 70
     1
  9
$COORDS
 70
     1
  9
$DRAGMODE
 70
     2
  9
$OSMODE
 70
     0
  9
$HANDLING
 70
     0
  9
$HANDSEED
  5
10424
  0
ENDSEC
  0
SECTION
  2
TABLES
  0
TABLE
  2
LTYPE
 70
     3
  0
LTYPE
  2
CONTINUOUS
 70
     0
  3
実線
 72
    65
 73
     0
 40
0.0
  0
LTYPE
  2
DASHDOT
 70
     0
  3
____ _ ____ _ ____ _ ____ _ ____ _ ____ _ ____
 72
    65
 73
     4
 40
5.5
 49
4.0
 49
-0.6
 49
0.3
 49
-0.6
  0
LTYPE
  2
DASHED
 70
     0
  3
-- -- -- -- -- -- -- -- -- -- -- -- -- -- --
 72
    65
 73
     2
 40
0.75
 49
0.5
 49
-0.25
  0
ENDTAB
  0
TABLE
  2
LAYER
 70
    12
  0
LAYER
  2
0
 70
     0
 62
     7
  6
CONTINUOUS
  0
LAYER
  2
BASIS
 70
     0
 62
     6
  6
DASHDOT
  0
LAYER
  2
OUTLINE
 70
     0
 62
     3
  6
CONTINUOUS
  0
LAYER
  2
DETAIL
 70
     0
 62
     5
  6
CONTINUOUS
  0
LAYER
  2
SIZE
 70
     0
 62
    30
  6
CONTINUOUS
  0
LAYER
  2
ARRANGE
 70
     0
 62
     1
  6
CONTINUOUS
  0
LAYER
  2
DEFPOINTS
 70
     0
 62
     7
  6
CONTINUOUS
  0
LAYER
  2
ETC
 70
     0
 62
    61
  6
CONTINUOUS
  0
LAYER
  2
FIX
 70
     0
 62
    11
  6
CONTINUOUS
  0
LAYER
  2
NOTE
 70
     0
 62
     4
  6
CONTINUOUS
  0
LAYER
  2
SERVICESPACE
 70
    64
 62
     2
  6
DASHDOT
  0
LAYER
  2
SYMBOLLINE
 70
    64
 62
    15
  6
CONTINUOUS
  0
ENDTAB
  0
TABLE
  2
STYLE
 70
     1
  0
STYLE
  2
STANDARD
 70
     0
 40
64.0
 41
0.9
 50
0.0
 71
     0
 42
64.0
  3
SIMPLEX.shx
  4
BIGFONT.shx
  0
ENDTAB
  0
TABLE
  2
APPID
 70
    18
  0
APPID
  2
ACAD
 70
     0
  0
APPID
  2
AUTOCAD_POSTSCRIPT_FIGURE
 70
     0
  0
APPID
  2
ACAD_EXEMPT_FROM_CAD_STANDARDS
 70
     0
  0
APPID
  2
ACAD_PSEXT
 70
     0
  0
APPID
  2
ACAUTHENVIRON
 70
     0
  0
APPID
  2
GENIUS_GENOENT_13
 70
     0
  0
APPID
  2
GENIUS_GENCFG_13
 70
     0
  0
APPID
  2
GENIUS_GENCFG0_13
 70
     0
  0
APPID
  2
GENIUS_GENCFG1_13
 70
     0
  0
APPID
  2
GENIUS_GENCFG2_13
 70
     0
  0
APPID
  2
GENIUS_GENCFG3_13
 70
     0
  0
APPID
  2
GENIUS_GENCFG4_13
 70
     0
  0
APPID
  2
GENIUS_GEVCFG0_13
 70
     0
  0
APPID
  2
CONTENTBLOCKICON
 70
     0
  0
APPID
  2
CONTENTBLOCKDESCRIPTION
 70
     0
  0
APPID
  2
ACAD_NAV_VCDISPLAY
 70
     0
  0
APPID
  2
ACAD_MLEADERVER
 70
     0
  0
APPID
  2
ACAD_DSTYLE_DIMRADIAL_EXTENSION
 70
     0
  0
ENDTAB
  0
TABLE
  2
DIMSTYLE
 70
     1
  0
DIMSTYLE
  2
STANDARD
 70
     0
  3

  4

  5
_ORIGIN
  6

  7

 40
1.0
 41
12.0
 42
20.0
 43
200.0
 44
20.0
 45
0.0
 46
0.0
 47
0.0
 48
0.0
140
64.0
141
0.09
142
0.0
143
25.399999999999999
144
1.0
145
0.0
146
1.0
147
25.0
 71
     0
 72
     0
 73
     0
 74
     0
 75
     0
 76
     0
 77
     1
 78
     8
170
     0
171
     2
172
     1
173
     0
174
     1
175
     0
176
     7
177
     7
178
     7
  0
ENDTAB
  0
TABLE
  2
VIEW
 70
     1
  0
VIEW
  2
ALL
 70
     0
 40
4282.6198079999986
 10
0.0
 20
41.309904000000003
 41
5940.0
 11
0.0
 21
0.0
 31
1.0
 12
0.0
 22
0.0
 32
0.0
 42
50.0
 43
0.0
 44
0.0
 50
0.0
 71
     0
  0
ENDTAB
  0
TABLE
  2
UCS
 70
     0
  0
ENDTAB
  0
TABLE
  2
VPORT
 70
     1
  0
VPORT
  2
*ACTIVE
 70
     0
 10
0.0
 20
0.0
 11
1.0
 21
1.0
 12
682.04389566486952
 22
-887.81128011715009
 13
0.0
 23
0.0
 14
1.0
 24
1.0
 15
0.0
 25
0.0
 16
0.0
 26
0.0
 36
1.0
 17
0.0
 27
0.0
 37
0.0
 40
2971.0059762284359
 41
2.0223642172523961
 42
50.0
 43
0.0
 44
0.0
 50
0.0
 51
0.0
 71
     0
 72
  1000
 73
     1
 74
     3
 75
     0
 76
     0
 77
     0
 78
     0
  0
ENDTAB
  0
ENDSEC
  0
SECTION
  2
BLOCKS
  0
BLOCK
  8
0
  2
_ORIGIN
 70
     0
 10
0.0
 20
0.0
 30
0.0
  3
_ORIGIN
  1
_ORIGIN
  0
CIRCLE
  8
0
  6
CONTINUOUS
 62
     7
 10
0.0
 20
0.0
 30
0.0
 40
0.5
  0
LINE
  8
0
  6
CONTINUOUS
 62
     7
 10
0.0
 20
0.0
 30
0.0
 11
-1.0
 21
0.0
 31
0.0
  0
ENDBLK
  8
0
  0
ENDSEC
  0
SECTION
  2
ENTITIES
  0
TEXT
  8
ETC
  6
CONTINUOUS
 62
    61
 10
1031.6932922890601
 20
253.75280081768619
 30
0.0
 40
60.0
  1
BFS-90SUG2_5
 41
0.9
  0
TEXT
  8
ETC
  6
CONTINUOUS
 62
    61
 10
1025.56596478906
 20
159.63411831768599
 30
0.0
 40
60.0
  1
産業扇
 41
0.9
  0
TEXT
  8
ETC
  6
CONTINUOUS
 62
    61
 10
1080.317066423981
 20
89.060675918222387
 30
0.0
 40
40.0
  1
BFS-90SUG2
 41
0.9
  0
TEXT
  8
ETC
  6
CONTINUOUS
 62
    61
 10
1080.317066423981
 20
29.06067591822239
 30
0.0
 40
40.0
  1
BFS-90TUG2
 41
0.9
  0
TEXT
  8
ETC
  6
CONTINUOUS
 62
    61
 10
1080.317066423981
 20
-30.93932408177761
 30
0.0
 40
40.0
  1
BFS-100SUG2
 41
0.9
  0
TEXT
  8
ETC
  6
CONTINUOUS
 62
    61
 10
1080.317066423981
 20
-90.939324081777613
 30
0.0
 40
40.0
  1
BFS-100TUG2
 41
0.9
  0
CIRCLE
  8
ARRANGE
  6
CONTINUOUS
 62
     1
 10
0.0
 20
0.0
 30
0.0
 40
44.210526000000002
  0
POINT
  8
ARRANGE
  6
CONTINUOUS
 62
     1
 10
0.0
 20
0.0
 30
0.0
  0
LINE
  8
SIZE
  6
CONTINUOUS
 62
    30
 10
319.0
 20
-325.0
 30
0.0
 11
319.0
 21
-698.08623799999998
 31
0.0
  0
LINE
  8
SIZE
  6
CONTINUOUS
 62
    30
 10
-319.0
 20
-325.0
 30
0.0
 11
-319.0
 21
-698.08623799999998
 31
0.0
  0
LINE
  8
SIZE
  6
CONTINUOUS
 62
    30
 10
317.0
 20
-668.08623799999998
 30
0.0
 11
-317.0
 21
-668.08623799999998
 31
0.0
  0
CIRCLE
  8
SIZE
  6
CONTINUOUS
 62
    30
 10
319.0
 20
-668.08623799999998
 30
0.0
 40
6.0
  0
CIRCLE
  8
SIZE
  6
CONTINUOUS
 62
    30
 10
-319.0
 20
-668.08623799999998
 30
0.0
 40
6.0
  0
TEXT
  8
SIZE
  6
CONTINUOUS
 62
    30
 10
-74.05714285714285
 20
-648.08623799999998
 30
0.0
 40
64.0
  1
638
 41
0.9
 72
     1
 11
0.0
 21
-648.08623799999998
 31
0.0
  0
LINE
  8
SIZE
  6
CONTINUOUS
 62
    30
 10
-339.0
 20
0.0
 30
0.0
 11
-1130.760262
 21
0.0
 31
0.0
  0
LINE
  8
SIZE
  6
CONTINUOUS
 62
    30
 10
-339.0
 20
-305.0
 30
0.0
 11
-1130.760262
 21
-305.0
 31
0.0
  0
LINE
  8
SIZE
  6
CONTINUOUS
 62
    30
 10
-1100.760262
 20
-2.0
 30
0.0
 11
-1100.760262
 21
-303.0
 31
0.0
  0
CIRCLE
  8
SIZE
  6
CONTINUOUS
 62
    30
 10
-1100.760262
 20
0.0
 30
0.0
 40
6.0
  0
CIRCLE
  8
SIZE
  6
CONTINUOUS
 62
    30
 10
-1100.760262
 20
-305.0
 30
0.0
 40
6.0
  0
TEXT
  8
SIZE
  6
CONTINUOUS
 62
    30
 10
-1120.760262
 20
-226.55714285714279
 30
0.0
 40
64.0
  1
305
 50
90.0
 41
0.9
 72
     1
 11
-1120.760262
 21
-152.5
 31
0.0
  0
LINE
  8
SIZE
  6
CONTINUOUS
 62
    30
 10
-423.99991300000011
 20
-56.477891
 30
0.0
 11
-752.13869100000011
 21
-56.477891
 31
0.0
  0
LINE
  8
SIZE
  6
CONTINUOUS
 62
    30
 10
-423.99996699999969
 20
-248.477891
 30
0.0
 11
-752.13869100000011
 21
-248.477891
 31
0.0
  0
LINE
  8
SIZE
  6
CONTINUOUS
 62
    30
 10
-722.13869100000011
 20
-54.477891
 30
0.0
 11
-722.13869100000011
 21
-52.477891
 31
0.0
  0
LINE
  8
SIZE
  6
CONTINUOUS
 62
    30
 10
-722.13869100000011
 20
-250.477891
 30
0.0
 11
-722.13869100000011
 21
-252.477891
 31
0.0
  0
LINE
  8
SIZE
  6
CONTINUOUS
 62
    30
 10
-722.13869100000011
 20
-56.477891
 30
0.0
 11
-722.13869100000011
 21
-548.14407358384688
 31
0.0
  0
CIRCLE
  8
SIZE
  6
CONTINUOUS
 62
    30
 10
-722.13869100000011
 20
-56.477891
 30
0.0
 40
6.0
  0
CIRCLE
  8
SIZE
  6
CONTINUOUS
 62
    30
 10
-722.13869100000011
 20
-248.477891
 30
0.0
 40
6.0
  0
TEXT
  8
SIZE
  6
CONTINUOUS
 62
    30
 10
-742.13869100000011
 20
-542.01701711604028
 30
0.0
 40
64.0
  1
φ192
 50
90.0
 41
0.9
 72
     1
 11
-742.13869100000011
 21
-433.12558854461167
 31
0.0
  0
LINE
  8
SIZE
  6
CONTINUOUS
 62
    30
 10
-339.0
 20
-48.5
 30
0.0
 11
-932.14147600000001
 21
-48.5
 31
0.0
  0
LINE
  8
SIZE
  6
CONTINUOUS
 62
    30
 10
-339.0
 20
-256.5
 30
0.0
 11
-932.14147600000001
 21
-256.5
 31
0.0
  0
LINE
  8
SIZE
  6
CONTINUOUS
 62
    30
 10
-902.14147600000001
 20
-46.5
 30
0.0
 11
-902.14147600000001
 21
-44.5
 31
0.0
  0
LINE
  8
SIZE
  6
CONTINUOUS
 62
    30
 10
-902.14147600000001
 20
-258.5
 30
0.0
 11
-902.14147600000001
 21
-260.5
 31
0.0
  0
LINE
  8
SIZE
  6
CONTINUOUS
 62
    30
 10
-902.14147600000001
 20
-48.5
 30
0.0
 11
-902.14147600000001
 21
-564.24665959981121
 31
0.0
  0
CIRCLE
  8
SIZE
  6
CONTINUOUS
 62
    30
 10
-902.14147600000001
 20
-48.5
 30
0.0
 40
6.0
  0
CIRCLE
  8
SIZE
  6
CONTINUOUS
 62
    30
 10
-902.14147600000001
 20
-256.5
 30
0.0
 40
6.0
  0
TEXT
  8
SIZE
  6
CONTINUOUS
 62
    30
 10
-922.14147600000001
 20
-559.00458108663338
 30
0.0
 40
64.0
  1
φ208
 50
90.0
 41
0.9
 72
     1
 11
-922.14147600000001
 21
-444.62743822949051
 31
0.0
  0
LINE
  8
SIZE
  6
CONTINUOUS
 62
    30
 10
-319.0
 20
-301.48719499999999
 30
0.0
 11
-319.0
 21
-698.08623799999998
 31
0.0
  0
LINE
  8
SIZE
  6
CONTINUOUS
 62
    30
 10
-403.99996699999969
 20
-268.477891
 30
0.0
 11
-403.99996699999969
 21
-698.08623799999998
 31
0.0
  0
LINE
  8
SIZE
  6
CONTINUOUS
 62
    30
 10
-321.0
 20
-668.08623799999998
 30
0.0
 11
-401.99996699999969
 21
-668.08623799999998
 31
0.0
  0
LINE
  8
SIZE
  6
CONTINUOUS
 62
    30
 10
-692.7480700000001
 20
-668.08623799999998
 30
0.0
 11
-403.99996699999969
 21
-668.08623799999998
 31
0.0
  0
TEXT
  8
SIZE
  6
CONTINUOUS
 62
    30
 10
-672.7480694285714
 20
-648.08623799999998
 30
0.0
 40
64.0
  1
85
 41
0.9
 72
     1
 11
-626.11949800000002
 21
-648.08623799999998
 31
0.0
  0
CIRCLE
  8
SIZE
  6
CONTINUOUS
 62
    30
 10
-319.0
 20
-668.08623799999998
 30
0.0
 40
6.0
  0
CIRCLE
  8
SIZE
  6
CONTINUOUS
 62
    30
 10
-403.99996699999969
 20
-668.08623799999998
 30
0.0
 40
6.0
  0
LINE
  8
DETAIL
  6
CONTINUOUS
 62
     5
 10
-124.0
 20
0.0
 30
0.0
 11
-124.0
 21
-305.0
 31
0.0
  0
LINE
  8
DETAIL
  6
CONTINUOUS
 62
     5
 10
267.0
 20
0.0
 30
0.0
 11
267.0
 21
-305.0
 31
0.0
  0
LINE
  8
SIZE
  6
CONTINUOUS
 62
    30
 10
267.0
 20
-282.84565900000013
 30
0.0
 11
267.0
 21
-526.86227099999996
 31
0.0
  0
LINE
  8
SIZE
  6
CONTINUOUS
 62
    30
 10
319.0
 20
-324.38023600000002
 30
0.0
 11
319.0
 21
-526.86227099999996
 31
0.0
  0
LINE
  8
SIZE
  6
CONTINUOUS
 62
    30
 10
269.0
 20
-496.86227100000002
 30
0.0
 11
317.0
 21
-496.86227100000002
 31
0.0
  0
LINE
  8
SIZE
  6
CONTINUOUS
 62
    30
 10
602.91466899999978
 20
-496.86227100000002
 30
0.0
 11
319.0
 21
-496.86227100000002
 31
0.0
  0
TEXT
  8
SIZE
  6
CONTINUOUS
 62
    30
 10
489.65752557142872
 20
-476.86227100000002
 30
0.0
 40
64.0
  1
52
 41
0.9
 72
     1
 11
536.28609700000015
 21
-476.86227100000002
 31
0.0
  0
CIRCLE
  8
SIZE
  6
CONTINUOUS
 62
    30
 10
267.0
 20
-496.86227100000002
 30
0.0
 40
6.0
  0
CIRCLE
  8
SIZE
  6
CONTINUOUS
 62
    30
 10
319.0
 20
-496.86227100000002
 30
0.0
 40
6.0
  0
LINE
  8
SIZE
  6
CONTINUOUS
 62
    30
 10
319.0
 20
-324.38023600000002
 30
0.0
 11
319.0
 21
-698.08623799999998
 31
0.0
  0
LINE
  8
SIZE
  6
CONTINUOUS
 62
    30
 10
403.99996699999969
 20
-267.36531600000001
 30
0.0
 11
403.99996699999969
 21
-698.08623799999998
 31
0.0
  0
LINE
  8
SIZE
  6
CONTINUOUS
 62
    30
 10
321.0
 20
-668.08623799999998
 30
0.0
 11
401.99996699999969
 21
-668.08623799999998
 31
0.0
  0
LINE
  8
SIZE
  6
CONTINUOUS
 62
    30
 10
596.95810400000028
 20
-668.08623799999998
 30
0.0
 11
403.99996699999969
 21
-668.08623799999998
 31
0.0
  0
TEXT
  8
SIZE
  6
CONTINUOUS
 62
    30
 10
483.70096157142859
 20
-648.08623799999998
 30
0.0
 40
64.0
  1
85
 41
0.9
 72
     1
 11
530.32953300000008
 21
-648.08623799999998
 31
0.0
  0
CIRCLE
  8
SIZE
  6
CONTINUOUS
 62
    30
 10
319.0
 20
-668.08623799999998
 30
0.0
 40
6.0
  0
CIRCLE
  8
SIZE
  6
CONTINUOUS
 62
    30
 10
403.99996699999969
 20
-668.08623799999998
 30
0.0
 40
6.0
  0
LINE
  8
SIZE
  6
CONTINUOUS
 62
    30
 10
267.0
 20
-325.0
 30
0.0
 11
267.0
 21
-526.86227099999996
 31
0.0
  0
LINE
  8
SIZE
  6
CONTINUOUS
 62
    30
 10
-124.0
 20
-320.32686000000001
 30
0.0
 11
-124.0
 21
-526.86227099999996
 31
0.0
  0
LINE
  8
SIZE
  6
CONTINUOUS
 62
    30
 10
265.0
 20
-496.86227100000002
 30
0.0
 11
-122.0
 21
-496.86227100000002
 31
0.0
  0
CIRCLE
  8
SIZE
  6
CONTINUOUS
 62
    30
 10
267.0
 20
-496.86227100000002
 30
0.0
 40
6.0
  0
CIRCLE
  8
SIZE
  6
CONTINUOUS
 62
    30
 10
-124.0
 20
-496.86227100000002
 30
0.0
 40
6.0
  0
TEXT
  8
SIZE
  6
CONTINUOUS
 62
    30
 10
9.7857142857142918
 20
-476.86227100000002
 30
0.0
 40
64.0
  1
391
 41
0.9
 72
     1
 11
71.5
 21
-476.86227100000002
 31
0.0
  0
LINE
  8
DETAIL
  6
CONTINUOUS
 62
     5
 10
-119.0
 20
0.0
 30
0.0
 11
-119.0
 21
-305.0
 31
0.0
  0
LINE
  8
DETAIL
  6
CONTINUOUS
 62
     5
 10
-119.0
 20
-305.0
 30
0.0
 11
267.0
 21
-305.0
 31
0.0
  0
LINE
  8
DETAIL
  6
CONTINUOUS
 62
     5
 10
-119.0
 20
0.0
 30
0.0
 11
267.0
 21
0.0
 31
0.0
  0
LINE
  8
DETAIL
  6
CONTINUOUS
 62
     5
 10
-124.0
 20
0.0
 30
0.0
 11
267.0
 21
0.0
 31
0.0
  0
LINE
  8
DETAIL
  6
CONTINUOUS
 62
     5
 10
-124.0
 20
-305.0
 30
0.0
 11
267.0
 21
-305.0
 31
0.0
  0
LINE
  8
BASIS
  6
DASHDOT
 62
     6
 10
-679.89704200000006
 20
-152.5
 30
0.0
 11
479.59029900000002
 21
-152.5
 31
0.0
  0
CIRCLE
  8
DETAIL
  6
CONTINUOUS
 62
     5
 10
260.55776100000003
 20
-295.35374200000001
 30
0.0
 40
5.0
  0
LINE
  8
DETAIL
  6
CONTINUOUS
 62
     5
 10
259.1525059999999
 20
-293.94848300000001
 30
0.0
 11
261.96301600000021
 21
-296.75900200000001
 31
0.0
  0
LINE
  8
DETAIL
  6
CONTINUOUS
 62
     5
 10
261.96302100000003
 20
-293.948487
 30
0.0
 11
259.15250099999997
 21
-296.75899800000002
 31
0.0
  0
ARC
  8
DETAIL
  6
CONTINUOUS
 62
     5
 10
248.7993740000002
 20
-165.140387
 30
0.0
 40
8.8783539999999999
 50
0.0
 51
44.999999999997698
  0
ARC
  8
DETAIL
  6
CONTINUOUS
 62
     5
 10
140.57223900000011
 20
-163.21632700000001
 30
0.0
 40
2.6635059999999999
 50
107.4810359999823
 51
180.0
  0
LINE
  8
DETAIL
  6
CONTINUOUS
 62
     5
 10
140.9717650000002
 20
-148.145321
 30
0.0
 11
140.9717650000002
 21
-201.24485999999999
 31
0.0
  0
LINE
  8
DETAIL
  6
CONTINUOUS
 62
     5
 10
137.9087319999999
 20
-199.61757800000001
 30
0.0
 11
137.9087319999999
 21
-157.88931500000001
 31
0.0
  0
LINE
  8
DETAIL
  6
CONTINUOUS
 62
     5
 10
140.57223900000011
 20
-199.61757800000001
 30
0.0
 11
140.57223900000011
 21
-157.88931500000001
 31
0.0
  0
LINE
  8
DETAIL
  6
CONTINUOUS
 62
     5
 10
267.0
 20
-141.93047300000001
 30
0.0
 11
267.0
 21
-224.45477399999999
 31
0.0
  0
LINE
  8
DETAIL
  6
CONTINUOUS
 62
     5
 10
131.4719260000002
 20
-133.02992300000011
 30
0.0
 11
131.4719260000002
 21
-230.69181800000001
 31
0.0
  0
LINE
  8
DETAIL
  6
CONTINUOUS
 62
     5
 10
166.84518399999979
 20
-227.11828
 30
0.0
 11
248.7993740000002
 21
-227.11828
 31
0.0
  0
LINE
  8
DETAIL
  6
CONTINUOUS
 62
     5
 10
161.76459299999991
 20
-235.996634
 30
0.0
 11
255.4581399999997
 21
-235.996634
 31
0.0
  0
LINE
  8
DETAIL
  6
CONTINUOUS
 62
     5
 10
262.87156499999992
 20
-243.56543099999999
 30
0.0
 11
135.91110299999991
 21
-243.56543099999999
 31
0.0
  0
LINE
  8
DETAIL
  6
DASHED
 62
     5
 10
131.3065610000003
 20
-165.76396
 30
0.0
 11
131.4719260000002
 21
-165.70087100000001
 31
0.0
  0
LINE
  8
DETAIL
  6
CONTINUOUS
 62
     5
 10
140.9717650000002
 20
-163.660245
 30
0.0
 11
140.57223900000011
 21
-163.660245
 31
0.0
  0
LINE
  8
DETAIL
  6
CONTINUOUS
 62
     5
 10
140.57223900000011
 20
-197.39798999999999
 30
0.0
 11
140.9717650000002
 21
-197.39798999999999
 31
0.0
  0
ARC
  8
DETAIL
  6
CONTINUOUS
 62
     5
 10
149.85011899999969
 20
-201.24485999999999
 30
0.0
 40
8.8783539999999999
 50
180.0
 51
224.9999999999977
  0
ARC
  8
DETAIL
  6
CONTINUOUS
 62
     5
 10
155.50867099999999
 20
-219.45930200000001
 30
0.0
 40
1.775671
 50
184.85717699999771
 51
224.9999999999977
  0
ARC
  8
DETAIL
  6
CONTINUOUS
 62
     5
 10
149.51857800000019
 20
-213.46920900000001
 30
0.0
 40
1.775671
 50
224.9999999999977
 51
265.14282299998263
  0
ARC
  8
DETAIL
  6
CONTINUOUS
 62
     5
 10
148.96228299999979
 20
-220.01559700000001
 30
0.0
 40
4.7943110000000004
 50
4.8571769999976881
 51
85.14282299998257
  0
LINE
  8
DETAIL
  6
CONTINUOUS
 62
     5
 10
131.64949299999989
 20
-200.505414
 30
0.0
 11
131.64949299999989
 21
-220.90343200000001
 31
0.0
  0
ARC
  8
DETAIL
  6
CONTINUOUS
 62
     5
 10
134.31299899999979
 20
-200.505414
 30
0.0
 40
2.6635059999999999
 50
90.0
 51
180.0
  0
LINE
  8
DETAIL
  6
CONTINUOUS
 62
     5
 10
134.31299899999979
 20
-197.84190799999999
 30
0.0
 11
137.9087319999999
 21
-197.84190799999999
 31
0.0
  0
LINE
  8
DETAIL
  6
CONTINUOUS
 62
     5
 10
140.9717650000002
 20
-193.84664799999999
 30
0.0
 11
140.57223900000011
 21
-193.84664799999999
 31
0.0
  0
LINE
  8
DETAIL
  6
CONTINUOUS
 62
     5
 10
140.57223900000011
 20
-196.831062
 30
0.0
 11
137.9087319999999
 21
-196.831062
 31
0.0
  0
LINE
  8
DETAIL
  6
CONTINUOUS
 62
     5
 10
140.57223900000011
 20
-199.61757800000001
 30
0.0
 11
137.9087319999999
 21
-199.61757800000001
 31
0.0
  0
ARC
  8
DETAIL
  6
CONTINUOUS
 62
     5
 10
140.57223900000011
 20
-194.29056600000001
 30
0.0
 40
2.6635059999999999
 50
180.0
 51
252.51896400001769
  0
ARC
  8
DETAIL
  6
DASHED
 62
     5
 10
166.91245599999999
 20
-243.2355279999999
 30
0.0
 40
0.887835
 50
292.20000000000391
 51
338.18682200000831
  0
ARC
  8
DETAIL
  6
CONTINUOUS
 62
     5
 10
161.76459299999991
 20
-229.78178600000001
 30
0.0
 40
6.2148479999999999
 50
209.99999999999449
 51
270.0
  0
ARC
  8
DETAIL
  6
CONTINUOUS
 62
     5
 10
166.84518399999979
 20
-218.239926
 30
0.0
 40
8.8783539999999999
 50
224.9999999999977
 51
270.0
  0
LINE
  8
DETAIL
  6
CONTINUOUS
 62
     5
 10
151.00016099999991
 20
-229.78178600000001
 30
0.0
 11
140.52784700000029
 21
-229.78178600000001
 31
0.0
  0
LINE
  8
DETAIL
  6
CONTINUOUS
 62
     5
 10
131.4719260000002
 20
-236.906665
 30
0.0
 11
131.4719260000002
 21
-239.12625399999999
 31
0.0
  0
ARC
  8
DETAIL
  6
CONTINUOUS
 62
     5
 10
131.91584400000011
 20
-231.57965300000001
 30
0.0
 40
0.887835
 50
270.0
 51
90.0
  0
LINE
  8
DETAIL
  6
CONTINUOUS
 62
     5
 10
131.4719260000002
 20
-230.69181800000001
 30
0.0
 11
131.91584400000011
 21
-230.69181800000001
 31
0.0
  0
LINE
  8
DETAIL
  6
CONTINUOUS
 62
     5
 10
131.91584400000011
 20
-235.13099500000001
 30
0.0
 11
131.91584400000011
 21
-232.467488
 31
0.0
  0
ARC
  8
DETAIL
  6
CONTINUOUS
 62
     5
 10
131.91584400000011
 20
-236.01883000000001
 30
0.0
 40
0.887835
 50
270.0
 51
90.0
  0
LINE
  8
DETAIL
  6
CONTINUOUS
 62
     5
 10
131.4719260000002
 20
-236.906665
 30
0.0
 11
131.91584400000011
 21
-236.906665
 31
0.0
  0
ARC
  8
DETAIL
  6
CONTINUOUS
 62
     5
 10
135.91110299999991
 20
-239.12625399999999
 30
0.0
 40
4.4391769999999999
 50
180.0
 51
270.0
  0
ARC
  8
DETAIL
  6
CONTINUOUS
 62
     5
 10
151.00016099999991
 20
-235.996634
 30
0.0
 40
6.2148479999999999
 50
29.999999999994461
 51
90.0
  0
ARC
  8
DETAIL
  6
CONTINUOUS
 62
     5
 10
140.52784700000029
 20
-220.90343200000001
 30
0.0
 40
8.8783539999999999
 50
180.0
 51
270.0
  0
LINE
  8
DETAIL
  6
CONTINUOUS
 62
     5
 10
160.56724000000031
 20
-224.51786999999999
 30
0.0
 11
143.5721739999999
 21
-207.52280500000001
 31
0.0
  0
LINE
  8
DETAIL
  6
DASHED
 62
     5
 10
267.0
 20
-214.44443000000001
 30
0.0
 11
267.0
 21
-206.45391100000001
 31
0.0
  0
LINE
  8
DETAIL
  6
CONTINUOUS
 62
     5
 10
257.67772800000012
 20
-165.140387
 30
0.0
 11
257.67772800000012
 21
-218.239926
 31
0.0
  0
LINE
  8
DETAIL
  6
CONTINUOUS
 62
     5
 10
267.31074200000012
 20
-236.906665
 30
0.0
 11
267.31074200000012
 21
-239.12625399999999
 31
0.0
  0
ARC
  8
DETAIL
  6
CONTINUOUS
 62
     5
 10
266.86682500000012
 20
-231.57965300000001
 30
0.0
 40
0.887835
 50
90.0
 51
270.0
  0
LINE
  8
DETAIL
  6
CONTINUOUS
 62
     5
 10
266.86682500000012
 20
-235.13099500000001
 30
0.0
 11
266.86682500000012
 21
-232.467488
 31
0.0
  0
ARC
  8
DETAIL
  6
CONTINUOUS
 62
     5
 10
266.86682500000012
 20
-236.01883000000001
 30
0.0
 40
0.887835
 50
90.0
 51
270.0
  0
LINE
  8
DETAIL
  6
CONTINUOUS
 62
     5
 10
267.31074200000012
 20
-230.69181800000001
 30
0.0
 11
266.86682500000012
 21
-230.69181800000001
 31
0.0
  0
LINE
  8
DETAIL
  6
CONTINUOUS
 62
     5
 10
267.31074200000012
 20
-236.906665
 30
0.0
 11
266.86682500000012
 21
-236.906665
 31
0.0
  0
LINE
  8
DETAIL
  6
CONTINUOUS
 62
     5
 10
267.31074200000012
 20
-227.584394
 30
0.0
 11
267.31074200000012
 21
-230.69181800000001
 31
0.0
  0
ARC
  8
DETAIL
  6
CONTINUOUS
 62
     5
 10
255.4581399999997
 20
-224.45477399999999
 30
0.0
 40
11.54186
 50
270.0
 51
0.0
  0
ARC
  8
DETAIL
  6
CONTINUOUS
 62
     5
 10
262.87156499999992
 20
-239.12625399999999
 30
0.0
 40
4.4391769999999999
 50
270.0
 51
0.0
  0
ARC
  8
DETAIL
  6
CONTINUOUS
 62
     5
 10
248.7993740000002
 20
-218.239926
 30
0.0
 40
8.8783539999999999
 50
270.0
 51
0.0
  0
LINE
  8
DETAIL
  6
CONTINUOUS
 62
     5
 10
149.40620099999981
 20
-130.38861299999999
 30
0.0
 11
180.00519799999981
 21
-130.38861299999999
 31
0.0
  0
LINE
  8
DETAIL
  6
CONTINUOUS
 62
     5
 10
149.85011899999969
 20
-139.26696699999999
 30
0.0
 11
231.8043090000001
 21
-139.26696699999999
 31
0.0
  0
LINE
  8
DETAIL
  6
CONTINUOUS
 62
     5
 10
135.91110299999991
 20
-116.604968
 30
0.0
 11
262.87156499999992
 21
-116.604968
 31
0.0
  0
LINE
  8
DETAIL
  6
CONTINUOUS
 62
     5
 10
131.4719260000002
 20
-126.81507499999999
 30
0.0
 11
131.91584400000011
 21
-126.81507499999999
 31
0.0
  0
LINE
  8
DETAIL
  6
CONTINUOUS
 62
     5
 10
131.4719260000002
 20
-121.044145
 30
0.0
 11
131.4719260000002
 21
-126.81507499999999
 31
0.0
  0
ARC
  8
DETAIL
  6
CONTINUOUS
 62
     5
 10
135.91110299999991
 20
-121.044145
 30
0.0
 40
4.4391769999999999
 50
90.0
 51
180.0
  0
LINE
  8
DETAIL
  6
CONTINUOUS
 62
     5
 10
144.5231060000001
 20
-131.27644799999999
 30
0.0
 11
143.6352710000001
 21
-130.38861299999999
 31
0.0
  0
LINE
  8
DETAIL
  6
CONTINUOUS
 62
     5
 10
144.5231060000001
 20
-131.27644799999999
 30
0.0
 11
148.5183649999999
 21
-131.27644799999999
 31
0.0
  0
LINE
  8
DETAIL
  6
CONTINUOUS
 62
     5
 10
149.40620099999981
 20
-130.38861299999999
 30
0.0
 11
148.5183649999999
 21
-131.27644799999999
 31
0.0
  0
ARC
  8
DETAIL
  6
CONTINUOUS
 62
     5
 10
149.85011899999969
 20
-148.145321
 30
0.0
 40
8.8783539999999999
 50
90.0
 51
180.0
  0
LINE
  8
DETAIL
  6
CONTINUOUS
 62
     5
 10
131.64949299999989
 20
-141.93047300000001
 30
0.0
 11
131.64949299999989
 21
-157.00147899999999
 31
0.0
  0
LINE
  8
DETAIL
  6
CONTINUOUS
 62
     5
 10
143.19135300000019
 20
-130.38861299999999
 30
0.0
 11
143.6352710000001
 21
-130.38861299999999
 31
0.0
  0
LINE
  8
DETAIL
  6
CONTINUOUS
 62
     5
 10
137.9087319999999
 20
-157.88931500000001
 30
0.0
 11
140.57223900000011
 21
-157.88931500000001
 31
0.0
  0
ARC
  8
DETAIL
  6
CONTINUOUS
 62
     5
 10
131.91584400000011
 20
-132.14208800000009
 30
0.0
 40
0.887835
 50
270.0
 51
90.0
  0
LINE
  8
DETAIL
  6
CONTINUOUS
 62
     5
 10
131.91584400000011
 20
-128.590746
 30
0.0
 11
131.91584400000011
 21
-131.25425200000001
 31
0.0
  0
LINE
  8
DETAIL
  6
CONTINUOUS
 62
     5
 10
131.4719260000002
 20
-133.02992300000011
 30
0.0
 11
131.91584400000011
 21
-133.02992300000011
 31
0.0
  0
ARC
  8
DETAIL
  6
CONTINUOUS
 62
     5
 10
143.19135300000019
 20
-141.93047300000001
 30
0.0
 40
11.54186
 50
90.0
 51
180.0
  0
ARC
  8
DETAIL
  6
CONTINUOUS
 62
     5
 10
131.91584400000011
 20
-127.702911
 30
0.0
 40
0.887835
 50
270.0
 51
90.0
  0
LINE
  8
DETAIL
  6
CONTINUOUS
 62
     5
 10
140.57223900000011
 20
-160.10890300000011
 30
0.0
 11
140.9717650000002
 21
-160.10890300000011
 31
0.0
  0
LINE
  8
DETAIL
  6
CONTINUOUS
 62
     5
 10
134.31299899999979
 20
-159.664985
 30
0.0
 11
137.9087319999999
 21
-159.664985
 31
0.0
  0
LINE
  8
DETAIL
  6
CONTINUOUS
 62
     5
 10
140.57223900000011
 20
-160.67583099999999
 30
0.0
 11
137.9087319999999
 21
-160.67583099999999
 31
0.0
  0
ARC
  8
DETAIL
  6
CONTINUOUS
 62
     5
 10
134.31299899999979
 20
-157.00147899999999
 30
0.0
 40
2.6635059999999999
 50
180.0
 51
270.0
  0
LINE
  8
DETAIL
  6
CONTINUOUS
 62
     5
 10
267.31074200000012
 20
-126.81507499999999
 30
0.0
 11
266.86682500000012
 21
-126.81507499999999
 31
0.0
  0
LINE
  8
DETAIL
  6
CONTINUOUS
 62
     5
 10
267.31074200000012
 20
-121.044145
 30
0.0
 11
267.31074200000012
 21
-126.81507499999999
 31
0.0
  0
ARC
  8
DETAIL
  6
CONTINUOUS
 62
     5
 10
262.87156499999992
 20
-121.044145
 30
0.0
 40
4.4391769999999999
 50
0.0
 51
90.0
  0
ARC
  8
DETAIL
  6
CONTINUOUS
 62
     5
 10
249.68721000000011
 20
-146.347454
 30
0.0
 40
2.219589
 50
90.0
 51
270.0
  0
LINE
  8
DETAIL
  6
CONTINUOUS
 62
     5
 10
249.68721000000011
 20
-148.56704300000001
 30
0.0
 11
253.59691599999999
 21
-148.56704300000001
 31
0.0
  0
LINE
  8
DETAIL
  6
CONTINUOUS
 62
     5
 10
249.68721000000011
 20
-144.12786600000001
 30
0.0
 11
253.59691599999999
 21
-144.12786600000001
 31
0.0
  0
LINE
  8
DETAIL
  6
CONTINUOUS
 62
     5
 10
267.31074200000012
 20
-133.02992300000011
 30
0.0
 11
267.31074200000012
 21
-157.71174700000009
 31
0.0
  0
ARC
  8
DETAIL
  6
CONTINUOUS
 62
     5
 10
266.86682500000012
 20
-132.14208800000009
 30
0.0
 40
0.887835
 50
90.0
 51
270.0
  0
LINE
  8
DETAIL
  6
CONTINUOUS
 62
     5
 10
267.31074200000012
 20
-133.02992300000011
 30
0.0
 11
266.86682500000012
 21
-133.02992300000011
 31
0.0
  0
LINE
  8
DETAIL
  6
CONTINUOUS
 62
     5
 10
266.86682500000012
 20
-128.590746
 30
0.0
 11
266.86682500000012
 21
-131.25425200000001
 31
0.0
  0
ARC
  8
DETAIL
  6
CONTINUOUS
 62
     5
 10
255.4581399999997
 20
-141.93047300000001
 30
0.0
 40
11.54186
 50
0.0
 51
90.0
  0
ARC
  8
DETAIL
  6
CONTINUOUS
 62
     5
 10
266.86682500000012
 20
-127.702911
 30
0.0
 40
0.887835
 50
90.0
 51
270.0
  0
LINE
  8
DETAIL
  6
CONTINUOUS
 62
     5
 10
206.9379349999999
 20
-128.146829
 30
0.0
 11
200.72308700000031
 21
-128.146829
 31
0.0
  0
LINE
  8
DETAIL
  6
CONTINUOUS
 62
     5
 10
203.83051100000009
 20
-128.146829
 30
0.0
 11
203.83051100000009
 21
-125.039405
 31
0.0
  0
ARC
  8
DETAIL
  6
CONTINUOUS
 62
     5
 10
231.8043090000001
 20
-148.145321
 30
0.0
 40
8.8783539999999999
 50
44.999999999997698
 51
90.0
  0
LINE
  8
DETAIL
  6
CONTINUOUS
 62
     5
 10
187.5387310000001
 20
-135.71562499999999
 30
0.0
 11
204.40760399999999
 21
-135.71562499999999
 31
0.0
  0
ARC
  8
DETAIL
  6
CONTINUOUS
 62
     5
 10
204.40760399999999
 20
-130.38861299999999
 30
0.0
 40
5.3270119999999999
 50
270.0
 51
340.52877900000249
  0
LINE
  8
DETAIL
  6
CONTINUOUS
 62
     5
 10
204.71834699999999
 20
-130.81033500000001
 30
0.0
 11
202.94267600000009
 21
-130.81033500000001
 31
0.0
  0
LINE
  8
DETAIL
  6
CONTINUOUS
 62
     5
 10
201.61092300000021
 20
-129.47858199999999
 30
0.0
 11
206.0500999999999
 21
-129.47858199999999
 31
0.0
  0
ARC
  8
DETAIL
  6
CONTINUOUS
 62
     5
 10
211.9411369999998
 20
-133.05211899999989
 30
0.0
 40
2.6635059999999999
 50
90.0
 51
160.52877900000249
  0
CIRCLE
  8
DETAIL
  6
CONTINUOUS
 62
     5
 10
203.83051100000009
 20
-128.146829
 30
0.0
 40
4.4391769999999999
  0
CIRCLE
  8
DETAIL
  6
CONTINUOUS
 62
     5
 10
191.40081499999999
 20
-128.146829
 30
0.0
 40
5.0
  0
LINE
  8
DETAIL
  6
CONTINUOUS
 62
     5
 10
190.08244999999991
 20
-126.828458
 30
0.0
 11
192.71918099999991
 21
-129.46519900000001
 31
0.0
  0
LINE
  8
DETAIL
  6
CONTINUOUS
 62
     5
 10
192.71918600000029
 20
-126.8284629999999
 30
0.0
 11
190.08244500000001
 21
-129.465194
 31
0.0
  0
LINE
  8
DETAIL
  6
CONTINUOUS
 62
     5
 10
255.07731899999999
 20
-158.86244199999999
 30
0.0
 11
238.08225300000001
 21
-141.867377
 31
0.0
  0
LINE
  8
DETAIL
  6
CONTINUOUS
 62
     5
 10
211.9411369999998
 20
-130.38861299999999
 30
0.0
 11
255.4581399999997
 21
-130.38861299999999
 31
0.0
  0
ARC
  8
DETAIL
  6
CONTINUOUS
 62
     5
 10
180.00519799999981
 20
-133.05211899999989
 30
0.0
 40
2.6635059999999999
 50
19.471220999997449
 51
90.0
  0
ARC
  8
DETAIL
  6
CONTINUOUS
 62
     5
 10
187.5387310000001
 20
-130.38861299999999
 30
0.0
 40
5.3270119999999999
 50
199.47122099999751
 51
270.0
  0
CIRCLE
  8
DETAIL
  6
CONTINUOUS
 62
     5
 10
260.95262400000001
 20
-12.048441000000031
 30
0.0
 40
5.0
  0
LINE
  8
DETAIL
  6
CONTINUOUS
 62
     5
 10
259.54736899999989
 20
-10.643182000000021
 30
0.0
 11
262.35787900000008
 21
-13.45370100000002
 31
0.0
  0
LINE
  8
DETAIL
  6
CONTINUOUS
 62
     5
 10
262.35788400000001
 20
-10.643186000000011
 30
0.0
 11
259.5473649999999
 21
-13.45369600000004
 31
0.0
  0
CIRCLE
  8
DETAIL
  6
CONTINUOUS
 62
     5
 10
-109.68302200000019
 20
-295.35374200000001
 30
0.0
 40
5.0
  0
LINE
  8
DETAIL
  6
CONTINUOUS
 62
     5
 10
-111.08827699999981
 20
-293.94848300000001
 30
0.0
 11
-108.277767
 21
-296.75900200000001
 31
0.0
  0
LINE
  8
DETAIL
  6
CONTINUOUS
 62
     5
 10
-108.2777619999997
 20
-293.948487
 30
0.0
 11
-111.08828199999969
 21
-296.75899800000002
 31
0.0
  0
CIRCLE
  8
DETAIL
  6
CONTINUOUS
 62
     5
 10
-109.68302200000019
 20
-152.5
 30
0.0
 40
5.0
  0
LINE
  8
DETAIL
  6
CONTINUOUS
 62
     5
 10
-111.08827699999981
 20
-151.09474
 30
0.0
 11
-108.277767
 21
-153.90526
 31
0.0
  0
LINE
  8
DETAIL
  6
CONTINUOUS
 62
     5
 10
-108.2777619999997
 20
-151.09474499999999
 30
0.0
 11
-111.08828199999969
 21
-153.90525500000001
 31
0.0
  0
CIRCLE
  8
DETAIL
  6
CONTINUOUS
 62
     5
 10
-109.68302200000019
 20
-13.56865700000003
 30
0.0
 40
5.0
  0
LINE
  8
DETAIL
  6
CONTINUOUS
 62
     5
 10
-111.08827699999981
 20
-12.163398000000029
 30
0.0
 11
-108.277767
 21
-14.97391700000003
 31
0.0
  0
LINE
  8
DETAIL
  6
CONTINUOUS
 62
     5
 10
-108.2777619999997
 20
-12.163402000000019
 30
0.0
 11
-111.08828199999969
 21
-14.973912000000039
 31
0.0
  0
CIRCLE
  8
DETAIL
  6
CONTINUOUS
 62
     5
 10
148.0744480000003
 20
-220.03779299999999
 30
0.0
 40
5.0
  0
LINE
  8
DETAIL
  6
CONTINUOUS
 62
     5
 10
146.66919299999969
 20
-218.632533
 30
0.0
 11
149.479703
 21
-221.44305199999999
 31
0.0
  0
LINE
  8
DETAIL
  6
CONTINUOUS
 62
     5
 10
149.47970699999999
 20
-218.63253800000001
 30
0.0
 11
146.66918799999979
 21
-221.443048
 31
0.0
  0
CIRCLE
  8
DETAIL
  6
CONTINUOUS
 62
     5
 10
149.22863400000011
 20
-123.7076520000001
 30
0.0
 40
5.0
  0
LINE
  8
DETAIL
  6
CONTINUOUS
 62
     5
 10
147.8233789999999
 20
-122.3023920000001
 30
0.0
 11
150.6338889999997
 21
-125.1129110000001
 31
0.0
  0
LINE
  8
DETAIL
  6
CONTINUOUS
 62
     5
 10
150.6338930000002
 20
-122.302396
 30
0.0
 11
147.82337400000009
 21
-125.11290700000001
 31
0.0
  0
CIRCLE
  8
DETAIL
  6
CONTINUOUS
 62
     5
 10
258.07725399999981
 20
-146.347454
 30
0.0
 40
5.0
  0
LINE
  8
DETAIL
  6
CONTINUOUS
 62
     5
 10
256.67199900000008
 20
-144.942195
 30
0.0
 11
259.48250899999988
 21
-147.752714
 31
0.0
  0
LINE
  8
DETAIL
  6
CONTINUOUS
 62
     5
 10
259.48251400000032
 20
-144.94219899999999
 30
0.0
 11
256.67199500000021
 21
-147.75270900000001
 31
0.0
  0
LINE
  8
DETAIL
  6
CONTINUOUS
 62
     5
 10
267.31074200000012
 20
-227.584394
 30
0.0
 11
267.31074200000012
 21
-157.71174700000009
 31
0.0
  0
LINE
  8
DETAIL
  6
CONTINUOUS
 62
     5
 10
-319.0
 20
-305.0
 30
0.0
 11
319.0
 21
-305.0
 31
0.0
  0
LINE
  8
DETAIL
  6
CONTINUOUS
 62
     5
 10
-319.0
 20
0.0
 30
0.0
 11
319.0
 21
0.0
 31
0.0
  0
LINE
  8
DETAIL
  6
CONTINUOUS
 62
     5
 10
-321.16398299999992
 20
-256.29576800000001
 30
0.0
 11
-320.84676399999989
 21
-48.673332999999957
 31
0.0
  0
LINE
  8
DETAIL
  6
CONTINUOUS
 62
     5
 10
-400.2625109999999
 20
-248.829644
 30
0.0
 11
-400.59482800000018
 21
-56.158305000000041
 31
0.0
  0
LINE
  8
DETAIL
  6
CONTINUOUS
 62
     5
 10
-403.99996699999969
 20
-248.477891
 30
0.0
 11
-403.99996699999969
 21
-56.477891
 31
0.0
  0
LINE
  8
DETAIL
  6
CONTINUOUS
 62
     5
 10
-319.0
 20
0.0
 30
0.0
 11
-319.0
 21
-305.0
 31
0.0
  0
LINE
  8
DETAIL
  6
CONTINUOUS
 62
     5
 10
-319.0
 20
0.0
 30
0.0
 11
-319.0
 21
-152.5
 31
0.0
  0
LINE
  8
DETAIL
  6
CONTINUOUS
 62
     5
 10
-319.0
 20
-48.620041000000008
 30
0.0
 11
-319.0
 21
-256.597579
 31
0.0
  0
CIRCLE
  8
DETAIL
  6
CONTINUOUS
 62
     5
 10
-291.39232399999992
 20
-154.93220600000001
 30
0.0
 40
5.0
  0
LINE
  8
DETAIL
  6
CONTINUOUS
 62
     5
 10
-285.12879600000002
 20
-146.45093399999999
 30
0.0
 11
-285.12879600000002
 21
-159.433447
 31
0.0
  0
ARC
  8
DETAIL
  6
CONTINUOUS
 62
     5
 10
-312.94170399999979
 20
-152.07240899999999
 30
0.0
 40
7.599094
 50
97.717030999993725
 51
183.29947299999759
  0
ARC
  8
DETAIL
  6
CONTINUOUS
 62
     5
 10
-313.19108499999987
 20
-152.21068500000001
 30
0.0
 40
5.8161149999999999
 50
97.983100000004754
 51
182.85127899999679
  0
CIRCLE
  8
DETAIL
  6
CONTINUOUS
 62
     5
 10
-310.7414319999998
 20
-154.62627599999999
 30
0.0
 40
5.0
  0
CIRCLE
  8
DETAIL
  6
CONTINUOUS
 62
     5
 10
-310.7414319999998
 20
-154.62627599999999
 30
0.0
 40
5.0
  0
LINE
  8
DETAIL
  6
CONTINUOUS
 62
     5
 10
-403.99996699999969
 20
-248.477891
 30
0.0
 11
-319.0
 21
-256.5
 31
0.0
  0
LINE
  8
DETAIL
  6
CONTINUOUS
 62
     5
 10
-319.0
 20
-305.0
 30
0.0
 11
-319.0
 21
-152.5
 31
0.0
  0
LINE
  8
DETAIL
  6
CONTINUOUS
 62
     5
 10
-288.09555399999999
 20
-163.04092800000001
 30
0.0
 11
-317.26015899999987
 21
-163.00489400000001
 31
0.0
  0
LINE
  8
DETAIL
  6
CONTINUOUS
 62
     5
 10
-319.0
 20
-179.351136
 30
0.0
 11
-320.52820100000008
 21
-179.351136
 31
0.0
  0
LINE
  8
DETAIL
  6
CONTINUOUS
 62
     5
 10
-319.0
 20
-152.5
 30
0.0
 11
-319.0
 21
-179.351136
 31
0.0
  0
ARC
  8
DETAIL
  6
CONTINUOUS
 62
     5
 10
-313.96103099999982
 20
-158.92072800000011
 30
0.0
 40
5.2502050000000002
 50
196.3080049999991
 51
231.0692399999937
  0
LINE
  8
DETAIL
  6
CONTINUOUS
 62
     5
 10
-319.0
 20
-173.257205
 30
0.0
 11
-320.52820100000008
 21
-173.257205
 31
0.0
  0
LINE
  8
DETAIL
  6
CONTINUOUS
 62
     5
 10
-322.02707199999992
 20
-170.59350599999999
 30
0.0
 11
-320.51995699999998
 21
-171.29334299999999
 31
0.0
  0
LINE
  8
DETAIL
  6
CONTINUOUS
 62
     5
 10
-320.52820100000008
 20
-165.93045499999991
 30
0.0
 11
-322.02707199999992
 21
-166.28084899999999
 31
0.0
  0
LINE
  8
DETAIL
  6
CONTINUOUS
 62
     5
 10
-322.02707199999992
 20
-166.28084899999999
 30
0.0
 11
-322.02707199999992
 21
-170.59350599999999
 31
0.0
  0
LINE
  8
DETAIL
  6
CONTINUOUS
 62
     5
 10
-320.52820100000008
 20
-179.351136
 30
0.0
 11
-320.52820100000008
 21
-152.50977399999999
 31
0.0
  0
ARC
  8
DETAIL
  6
CONTINUOUS
 62
     5
 10
-288.5286500000002
 20
-159.66109800000001
 30
0.0
 40
3.407467
 50
277.30215799998467
 51
3.83075500000075
  0
LINE
  8
DETAIL
  6
CONTINUOUS
 62
     5
 10
-319.0
 20
-48.5
 30
0.0
 11
-403.99991300000011
 21
-56.477891
 31
0.0
  0
LINE
  8
DETAIL
  6
CONTINUOUS
 62
     5
 10
-285.12879600000002
 20
-146.45093399999999
 30
0.0
 11
-313.9988330000001
 21
-146.45093399999999
 31
0.0
  0
LINE
  8
DETAIL
  6
CONTINUOUS
 62
     5
 10
-313.96211600000021
 20
-144.54213799999999
 30
0.0
 11
-285.26381099999981
 21
-144.54213799999999
 31
0.0
  0
LINE
  8
DETAIL
  6
CONTINUOUS
 62
     5
 10
-281.56152480472929
 20
-151.54213799999999
 30
0.0
 11
-279.71766180472918
 21
-151.54213799999999
 31
0.0
  0
ARC
  8
DETAIL
  6
CONTINUOUS
 62
     5
 10
-286.27024999999998
 20
-151.03667300000009
 30
0.0
 40
6.5720550000000006
 50
355.58895699999738
 51
81.191116999984587
  0
ARC
  8
DETAIL
  6
CONTINUOUS
 62
     5
 10
-286.69635000000022
 20
-151.359162
 30
0.0
 40
5.152469
 50
357.96487599999818
 51
72.287943000013456
  0
LINE
  8
DETAIL
  6
CONTINUOUS
 62
     5
 10
403.99996699999969
 20
-56.506660000000011
 30
0.0
 11
403.99996699999969
 21
-248.50666000000001
 31
0.0
  0
LINE
  8
DETAIL
  6
CONTINUOUS
 62
     5
 10
400.2625109999999
 20
-56.15490699999998
 30
0.0
 11
400.59482800000018
 21
-248.826246
 31
0.0
  0
LINE
  8
DETAIL
  6
CONTINUOUS
 62
     5
 10
321.16398299999992
 20
-48.688781999999946
 30
0.0
 11
320.84676399999989
 21
-256.31121800000011
 31
0.0
  0
LINE
  8
DETAIL
  6
CONTINUOUS
 62
     5
 10
321.15919500000018
 20
-48.743903000000053
 30
0.0
 11
320.84662800000018
 21
-256.25609700000001
 31
0.0
  0
LINE
  8
DETAIL
  6
CONTINUOUS
 62
     5
 10
319.0
 20
0.0
 30
0.0
 11
319.0
 21
-152.5
 31
0.0
  0
LINE
  8
DETAIL
  6
CONTINUOUS
 62
     5
 10
319.0
 20
0.0
 30
0.0
 11
319.0
 21
-305.0
 31
0.0
  0
LINE
  8
DETAIL
  6
CONTINUOUS
 62
     5
 10
319.0
 20
0.0
 30
0.0
 11
319.0
 21
-305.0
 31
0.0
  0
LINE
  8
DETAIL
  6
CONTINUOUS
 62
     5
 10
319.0
 20
-48.511230999999952
 30
0.0
 11
319.0
 21
-256.48876899999999
 31
0.0
  0
ARC
  8
DETAIL
  6
CONTINUOUS
 62
     5
 10
313.19108499999987
 20
-152.21068500000001
 30
0.0
 40
5.8161149999999999
 50
357.14872100000321
 51
82.016899999995232
  0
ARC
  8
DETAIL
  6
CONTINUOUS
 62
     5
 10
312.94170399999979
 20
-152.07240899999999
 30
0.0
 40
7.599094
 50
356.70052700000241
 51
82.28296900000629
  0
LINE
  8
DETAIL
  6
CONTINUOUS
 62
     5
 10
285.12879600000002
 20
-145.83116899999999
 30
0.0
 11
285.12879600000002
 21
-158.813682
 31
0.0
  0
CIRCLE
  8
DETAIL
  6
CONTINUOUS
 62
     5
 10
291.39232399999992
 20
-154.93220600000001
 30
0.0
 40
5.0
  0
CIRCLE
  8
DETAIL
  6
CONTINUOUS
 62
     5
 10
291.39232399999992
 20
-154.93220600000001
 30
0.0
 40
5.0
  0
CIRCLE
  8
DETAIL
  6
CONTINUOUS
 62
     5
 10
310.7414319999998
 20
-154.62627599999999
 30
0.0
 40
5.0
  0
CIRCLE
  8
DETAIL
  6
CONTINUOUS
 62
     5
 10
310.7414319999998
 20
-154.62627599999999
 30
0.0
 40
5.0
  0
LINE
  8
DETAIL
  6
CONTINUOUS
 62
     5
 10
319.0
 20
-23.07240899999999
 30
0.0
 11
319.0
 21
-281.21068500000001
 31
0.0
  0
LINE
  8
DETAIL
  6
CONTINUOUS
 62
     5
 10
319.0
 20
-256.48455100000001
 30
0.0
 11
403.99991300000011
 21
-248.50666000000001
 31
0.0
  0
LINE
  8
DETAIL
  6
CONTINUOUS
 62
     5
 10
319.0
 20
-305.0
 30
0.0
 11
319.0
 21
-152.5
 31
0.0
  0
LINE
  8
DETAIL
  6
CONTINUOUS
 62
     5
 10
288.09555399999999
 20
-163.04092800000001
 30
0.0
 11
317.26015899999987
 21
-163.00489400000001
 31
0.0
  0
ARC
  8
DETAIL
  6
CONTINUOUS
 62
     5
 10
288.5286500000002
 20
-159.04133300000001
 30
0.0
 40
3.407467
 50
176.16924499999931
 51
262.69784200001533
  0
LINE
  8
DETAIL
  6
CONTINUOUS
 62
     5
 10
320.52820100000008
 20
-165.93045499999991
 30
0.0
 11
322.02707199999992
 21
-166.28084899999999
 31
0.0
  0
LINE
  8
DETAIL
  6
CONTINUOUS
 62
     5
 10
322.02707199999992
 20
-166.28084899999999
 30
0.0
 11
322.02707199999992
 21
-170.59350599999999
 31
0.0
  0
ARC
  8
DETAIL
  6
CONTINUOUS
 62
     5
 10
313.96103099999982
 20
-158.92072800000011
 30
0.0
 40
5.2502050000000002
 50
308.93076000000627
 51
343.69199500000082
  0
LINE
  8
DETAIL
  6
CONTINUOUS
 62
     5
 10
320.52820100000008
 20
-179.351136
 30
0.0
 11
320.52820100000008
 21
-152.50977399999999
 31
0.0
  0
LINE
  8
DETAIL
  6
CONTINUOUS
 62
     5
 10
319.0
 20
-152.5
 30
0.0
 11
319.0
 21
-179.351136
 31
0.0
  0
LINE
  8
DETAIL
  6
CONTINUOUS
 62
     5
 10
319.0
 20
-179.351136
 30
0.0
 11
320.52820100000008
 21
-179.351136
 31
0.0
  0
LINE
  8
DETAIL
  6
CONTINUOUS
 62
     5
 10
319.0
 20
-173.257205
 30
0.0
 11
320.52820100000008
 21
-173.257205
 31
0.0
  0
LINE
  8
DETAIL
  6
CONTINUOUS
 62
     5
 10
322.02707199999992
 20
-170.59350599999999
 30
0.0
 11
320.51995699999998
 21
-171.29334299999999
 31
0.0
  0
LINE
  8
DETAIL
  6
CONTINUOUS
 62
     5
 10
403.99996699999969
 20
-56.506660000000011
 30
0.0
 11
319.0
 21
-48.48455100000001
 31
0.0
  0
LINE
  8
DETAIL
  6
CONTINUOUS
 62
     5
 10
313.96211600000021
 20
-144.54213799999999
 30
0.0
 11
285.26381099999981
 21
-144.54213799999999
 31
0.0
  0
LINE
  8
DETAIL
  6
CONTINUOUS
 62
     5
 10
285.12879600000002
 20
-146.45093399999999
 30
0.0
 11
313.9988330000001
 21
-146.45093399999999
 31
0.0
  0
LINE
  8
DETAIL
  6
CONTINUOUS
 62
     5
 10
281.54713100000072
 20
-151.54213731771509
 30
0.0
 11
279.70326800000072
 21
-151.54213731771509
 31
0.0
  0
ARC
  8
DETAIL
  6
CONTINUOUS
 62
     5
 10
286.27025000000049
 20
-151.03667331771521
 30
0.0
 40
6.5720550000000006
 50
98.808883000015442
 51
184.41104300000259
  0
ARC
  8
DETAIL
  6
CONTINUOUS
 62
     5
 10
286.69635000000062
 20
-151.35916231771509
 30
0.0
 40
5.152469
 50
107.7120569999866
 51
182.03512400000179
  0
LINE
  8
OUTLINE
  6
CONTINUOUS
 62
     3
 10
-319.0
 20
0.0
 30
0.0
 11
319.0
 21
0.0
 31
0.0
  0
LINE
  8
OUTLINE
  6
CONTINUOUS
 62
     3
 10
-319.0
 20
-305.0
 30
0.0
 11
319.0
 21
-305.0
 31
0.0
  0
LINE
  8
OUTLINE
  6
CONTINUOUS
 62
     3
 10
-124.0
 20
-305.0
 30
0.0
 11
267.0
 21
-305.0
 31
0.0
  0
LINE
  8
OUTLINE
  6
CONTINUOUS
 62
     3
 10
-124.0
 20
0.0
 30
0.0
 11
267.0
 21
0.0
 31
0.0
  0
LINE
  8
OUTLINE
  6
CONTINUOUS
 62
     3
 10
-119.0
 20
0.0
 30
0.0
 11
267.0
 21
0.0
 31
0.0
  0
LINE
  8
OUTLINE
  6
CONTINUOUS
 62
     3
 10
-119.0
 20
-305.0
 30
0.0
 11
267.0
 21
-305.0
 31
0.0
  0
LINE
  8
OUTLINE
  6
CONTINUOUS
 62
     3
 10
-319.0
 20
-48.620041000000008
 30
0.0
 11
-319.0
 21
-256.597579
 31
0.0
  0
LINE
  8
OUTLINE
  6
CONTINUOUS
 62
     3
 10
-319.0
 20
0.0
 30
0.0
 11
-319.0
 21
-152.5
 31
0.0
  0
LINE
  8
OUTLINE
  6
CONTINUOUS
 62
     3
 10
-319.0
 20
0.0
 30
0.0
 11
-319.0
 21
-305.0
 31
0.0
  0
LINE
  8
OUTLINE
  6
CONTINUOUS
 62
     3
 10
-319.0
 20
-305.0
 30
0.0
 11
-319.0
 21
-152.5
 31
0.0
  0
LINE
  8
OUTLINE
  6
CONTINUOUS
 62
     3
 10
-319.0
 20
-152.5
 30
0.0
 11
-319.0
 21
-179.351136
 31
0.0
  0
LINE
  8
OUTLINE
  6
CONTINUOUS
 62
     3
 10
319.0
 20
-23.07240899999999
 30
0.0
 11
319.0
 21
-281.21068500000001
 31
0.0
  0
LINE
  8
OUTLINE
  6
CONTINUOUS
 62
     3
 10
319.0
 20
-48.511230999999952
 30
0.0
 11
319.0
 21
-256.48876899999999
 31
0.0
  0
LINE
  8
OUTLINE
  6
CONTINUOUS
 62
     3
 10
319.0
 20
0.0
 30
0.0
 11
319.0
 21
-305.0
 31
0.0
  0
LINE
  8
OUTLINE
  6
CONTINUOUS
 62
     3
 10
319.0
 20
0.0
 30
0.0
 11
319.0
 21
-305.0
 31
0.0
  0
LINE
  8
OUTLINE
  6
CONTINUOUS
 62
     3
 10
319.0
 20
0.0
 30
0.0
 11
319.0
 21
-152.5
 31
0.0
  0
LINE
  8
OUTLINE
  6
CONTINUOUS
 62
     3
 10
319.0
 20
-305.0
 30
0.0
 11
319.0
 21
-152.5
 31
0.0
  0
LINE
  8
OUTLINE
  6
CONTINUOUS
 62
     3
 10
319.0
 20
-152.5
 30
0.0
 11
319.0
 21
-179.351136
 31
0.0
  0
LINE
  8
SIZE
  6
CONTINUOUS
 62
    30
 10
301.54713100000077
 20
-151.5421373177152
 30
0.0
 11
540.08372840800541
 21
-151.54213731771509
 31
0.0
  0
LINE
  8
SIZE
  6
CONTINUOUS
 62
    30
 10
333.96211600000032
 20
-144.54213800000011
 30
0.0
 11
540.08372840800541
 21
-144.54213799999999
 31
0.0
  0
LINE
  8
SIZE
  6
CONTINUOUS
 62
    30
 10
520.08372840800541
 20
-163.54213731771509
 30
0.0
 11
520.08372840800541
 21
-175.54213731771509
 31
0.0
  0
LINE
  8
SIZE
  6
CONTINUOUS
 62
    30
 10
520.08372840800541
 20
-132.54213799999999
 30
0.0
 11
520.08372840800541
 21
-32.142138000000003
 31
0.0
  0
LINE
  8
SIZE
  6
CONTINUOUS
 62
    30
 10
520.08372840800541
 20
-151.54213731771509
 30
0.0
 11
520.08372840800541
 21
-144.54213799999999
 31
0.0
  0
CIRCLE
  8
SIZE
  6
CONTINUOUS
 62
    30
 10
520.08372840800541
 20
-151.54213731771509
 30
0.0
 40
6.0
  0
LINE
  8
SIZE
  6
CONTINUOUS
 62
    30
 10
520.08372840800541
 20
-151.54213731771509
 30
0.0
 11
520.08372840800541
 21
-163.54213731771509
 31
0.0
  0
CIRCLE
  8
SIZE
  6
CONTINUOUS
 62
    30
 10
520.08372840800541
 20
-144.54213799999999
 30
0.0
 40
6.0
  0
LINE
  8
SIZE
  6
CONTINUOUS
 62
    30
 10
520.08372840800541
 20
-144.54213799999999
 30
0.0
 11
520.08372840800541
 21
-132.54213799999999
 31
0.0
  0
TEXT
  8
SIZE
  6
CONTINUOUS
 62
    30
 10
495.0837284080053
 20
-103.12613800000013
 30
0.0
 40
64.0
  1
7
 50
90.0
 41
0.9
 51
0.0
  7
STANDARD
 71
     0
 72
     1
 11
495.0837284080053
 21
-76.342138000000134
 31
0.0
210
0.0
220
0.0
230
1.0
  0
POINT
  8
DEFPOINTS
  6
CONTINUOUS
 62
    30
 10
281.54713100000077
 20
-151.5421373177152
 30
0.0
  0
POINT
  8
DEFPOINTS
  6
CONTINUOUS
 62
    30
 10
313.96211600000032
 20
-144.54213800000011
 30
0.0
  0
POINT
  8
DEFPOINTS
  6
CONTINUOUS
 62
    30
 10
520.08372840800541
 20
-144.54213799999999
 30
0.0
  0
LINE
  8
BASIS
  6
DASHDOT
 62
     6
 10
0.0
 20
-330.566549155541
 30
0.0
 11
0.0
 21
99.144835999999941
 31
0.0
  0
LINE
  8
NOTE
  6
CONTINUOUS
 62
     4
 10
-301.5
 20
-144.5407799999999
 30
0.0
 11
-469.51781728948572
 21
50.804956465059377
 31
0.0
  0
LINE
  8
NOTE
  6
CONTINUOUS
 62
     4
 10
-469.51781728948572
 20
50.804956465059377
 30
0.0
 11
-601.91315528948599
 21
50.80496446505947
 31
0.0
  0
TEXT
  8
NOTE
  6
CONTINUOUS
 62
     4
 10
-595.81851628948607
 20
69.832508465059391
 30
0.0
 40
70.73684200000001
  1
AH
 41
0.9
  0
LINE
  8
NOTE
  6
CONTINUOUS
 62
     4
 10
-318.18376600000011
 20
-103.59908899999991
 30
0.0
 11
-301.5
 21
-144.5407799999999
 31
0.0
  0
LINE
  8
NOTE
  6
CONTINUOUS
 62
     4
 10
-301.5
 20
-144.5407799999999
 30
0.0
 11
-336.41941099999991
 21
-117.426119
 31
0.0
  0
LINE
  8
NOTE
  6
CONTINUOUS
 62
     4
 10
-301.5
 20
-124.54078
 30
0.0
 11
-301.5
 21
-164.54078000000001
 31
0.0
  0
CIRCLE
  8
FIX
  6
CONTINUOUS
 62
    11
 10
-301.5
 20
-144.54078000000001
 30
0.0
 40
5.5
  0
LINE
  8
NOTE
  6
CONTINUOUS
 62
     4
 10
301.5
 20
-124.54078
 30
0.0
 11
301.5
 21
-164.54078000000001
 31
0.0
  0
CIRCLE
  8
FIX
  6
CONTINUOUS
 62
    11
 10
301.5
 20
-144.54078000000001
 30
0.0
 40
5.5
  0
LINE
  8
SIZE
  6
CONTINUOUS
 62
    30
 10
-301.5
 20
-104.54078
 30
0.0
 11
-301.5
 21
156.1456202871004
 31
0.0
  0
LINE
  8
SIZE
  6
CONTINUOUS
 62
    30
 10
301.5
 20
-104.54078
 30
0.0
 11
301.5
 21
156.1456202871004
 31
0.0
  0
LINE
  8
SIZE
  6
CONTINUOUS
 62
    30
 10
-289.5
 20
136.1456202871004
 30
0.0
 11
289.5
 21
136.1456202871004
 31
0.0
  0
CIRCLE
  8
SIZE
  6
CONTINUOUS
 62
    30
 10
-301.5
 20
136.1456202871004
 30
0.0
 40
6.0
  0
LINE
  8
SIZE
  6
CONTINUOUS
 62
    30
 10
-301.5
 20
136.1456202871004
 30
0.0
 11
-289.5
 21
136.1456202871004
 31
0.0
  0
CIRCLE
  8
SIZE
  6
CONTINUOUS
 62
    30
 10
301.5
 20
136.1456202871004
 30
0.0
 40
6.0
  0
LINE
  8
SIZE
  6
CONTINUOUS
 62
    30
 10
301.5
 20
136.1456202871004
 30
0.0
 11
289.5
 21
136.1456202871004
 31
0.0
  0
TEXT
  8
SIZE
  6
CONTINUOUS
 62
    30
 10
-80.927999999999997
 20
161.1456202871004
 30
0.0
 40
64.0
  1
603
 50
0.0
 41
0.9
 51
0.0
  7
STANDARD
 71
     0
 72
     1
 11
0.0
 21
161.1456202871004
 31
0.0
210
0.0
220
0.0
230
1.0
  0
POINT
  8
DEFPOINTS
  6
CONTINUOUS
 62
    30
 10
-301.5
 20
-124.54078
 30
0.0
  0
POINT
  8
DEFPOINTS
  6
CONTINUOUS
 62
    30
 10
301.5
 20
-124.54078
 30
0.0
  0
POINT
  8
DEFPOINTS
  6
CONTINUOUS
 62
    30
 10
301.5
 20
136.1456202871004
 30
0.0
  0
LINE
  8
SIZE
  6
CONTINUOUS
 62
    30
 10
-322.02707199999992
 20
-146.28084899999999
 30
0.0
 11
-322.02707199999992
 21
269.4771507197247
 31
0.0
  0
LINE
  8
SIZE
  6
CONTINUOUS
 62
    30
 10
322.02707199999992
 20
-146.28084899999999
 30
0.0
 11
322.02707199999992
 21
269.4771507197247
 31
0.0
  0
LINE
  8
SIZE
  6
CONTINUOUS
 62
    30
 10
-310.02707199999992
 20
249.4771507197247
 30
0.0
 11
310.02707199999992
 21
249.4771507197247
 31
0.0
  0
CIRCLE
  8
SIZE
  6
CONTINUOUS
 62
    30
 10
-322.02707199999992
 20
249.4771507197247
 30
0.0
 40
6.0
  0
LINE
  8
SIZE
  6
CONTINUOUS
 62
    30
 10
-322.02707199999992
 20
249.4771507197247
 30
0.0
 11
-310.02707199999992
 21
249.4771507197247
 31
0.0
  0
CIRCLE
  8
SIZE
  6
CONTINUOUS
 62
    30
 10
322.02707199999992
 20
249.4771507197247
 30
0.0
 40
6.0
  0
LINE
  8
SIZE
  6
CONTINUOUS
 62
    30
 10
322.02707199999992
 20
249.4771507197247
 30
0.0
 11
310.02707199999992
 21
249.4771507197247
 31
0.0
  0
TEXT
  8
SIZE
  6
CONTINUOUS
 62
    30
 10
-81.504000000000005
 20
274.4771507197247
 30
0.0
 40
64.0
  1
644
 50
0.0
 41
0.9
 51
0.0
  7
STANDARD
 71
     0
 72
     1
 11
0.0
 21
274.4771507197247
 31
0.0
210
0.0
220
0.0
230
1.0
  0
POINT
  8
DEFPOINTS
  6
CONTINUOUS
 62
    30
 10
-322.02707199999992
 20
-166.28084899999999
 30
0.0
  0
POINT
  8
DEFPOINTS
  6
CONTINUOUS
 62
    30
 10
322.02707199999992
 20
-166.28084899999999
 30
0.0
  0
POINT
  8
DEFPOINTS
  6
CONTINUOUS
 62
    30
 10
322.02707199999992
 20
249.4771507197247
 30
0.0
  0
LINE
  8
NOTE
  6
CONTINUOUS
 62
     4
 10
192.71918600000029
 20
-126.8284629999999
 30
0.0
 11
493.4092790000002
 21
158.3974640000001
 31
0.0
  0
LINE
  8
NOTE
  6
CONTINUOUS
 62
     4
 10
968.97701463938597
 20
158.3974640000001
 30
0.0
 11
493.4092790000002
 21
158.3974640000001
 31
0.0
  0
TEXT
  8
NOTE
  6
CONTINUOUS
 62
     4
 10
508.12435805177512
 20
172.55410900000021
 30
0.0
 40
64.0
  1
M4ア－スねじ
 41
0.9
  0
LINE
  8
NOTE
  6
CONTINUOUS
 62
     4
 10
228.07857236112659
 20
-108.1278277773727
 30
0.0
 11
192.71918600000029
 21
-126.8284629999999
 31
0.0
  0
LINE
  8
NOTE
  6
CONTINUOUS
 62
     4
 10
192.71918600000029
 20
-126.8284629999999
 30
0.0
 11
213.99099503800281
 21
-92.953543803622438
 31
0.0
  0
LINE
  8
NOTE
  6
CONTINUOUS
 62
     4
 10
231.8043090000001
 20
-139.26696699999999
 30
0.0
 11
430.3546080000001
 21
40.186615188666003
 31
0.0
  0
LINE
  8
NOTE
  6
CONTINUOUS
 62
     4
 10
430.3546080000001
 20
40.186615188666003
 30
0.0
 11
846.86759763450573
 21
40.186615188666003
 31
0.0
  0
TEXT
  8
NOTE
  6
CONTINUOUS
 62
     4
 10
509.94163931515868
 20
50.571512114131217
 30
0.0
 40
64.0
  1
端子カバ－
 41
0.9
  0
LINE
  8
NOTE
  6
CONTINUOUS
 62
     4
 10
253.27214211374331
 20
-105.5159357282427
 30
0.0
 11
231.8043090000001
 21
-139.26696699999999
 31
0.0
  0
LINE
  8
NOTE
  6
CONTINUOUS
 62
     4
 10
231.8043090000001
 20
-139.26696699999999
 30
0.0
 11
267.27151425872472
 21
-120.7716329713016
 31
0.0
  0
ENDSEC
  0
EOF
