  0
SECTION
  2
HEADER
  9
$ACADVER
  1
AC1009
  9
$DWGCODEPAGE
  3
dos932
  9
$INSBASE
 10
0.0
 20
0.0
 30
0.0
  9
$EXTMIN
 10
-920.8740072218643
 20
-813.26292817627836
 30
-0.0015258207003583
  9
$EXTMAX
 10
1137.496959939012
 20
697.58606771657469
 30
0.0000000349246037
  9
$LIMMIN
 10
-2970.0
 20
-2100.0
  9
$LIMMAX
 10
2970.0
 20
2100.0
  9
$ORTHOMODE
 70
     1
  9
$REGENMODE
 70
     1
  9
$FILLMODE
 70
     1
  9
$QTEXTMODE
 70
     0
  9
$MIRRTEXT
 70
     0
  9
$LTSCALE
 40
20.0
  9
$ATTMODE
 70
     1
  9
$TEXTSIZE
 40
64.0
  9
$TRACEWID
 40
0.05
  9
$TEXTSTYLE
  7
STANDARD
  9
$CLAYER
  8
SIZE
  9
$CELTYPE
  6
CONTINUOUS
  9
$CECOLOR
 62
     7
  9
$DIMSCALE
 40
1.0
  9
$DIMASZ
 40
12.0
  9
$DIMEXO
 40
20.0
  9
$DIMDLI
 40
200.0
  9
$DIMRND
 40
0.0
  9
$DIMDLE
 40
0.0
  9
$DIMEXE
 40
20.0
  9
$DIMTP
 40
0.0
  9
$DIMTM
 40
0.0
  9
$DIMTXT
 40
64.0
  9
$DIMCEN
 40
0.09
  9
$DIMTSZ
 40
0.0
  9
$DIMTOL
 70
     0
  9
$DIMLIM
 70
     0
  9
$DIMTIH
 70
     0
  9
$DIMTOH
 70
     0
  9
$DIMSE1
 70
     0
  9
$DIMSE2
 70
     0
  9
$DIMTAD
 70
     1
  9
$DIMZIN
 70
     8
  9
$DIMBLK
  1

  9
$DIMASO
 70
     1
  9
$DIMSHO
 70
     0
  9
$DIMPOST
  1

  9
$DIMAPOST
  1

  9
$DIMALT
 70
     0
  9
$DIMALTD
 70
     2
  9
$DIMALTF
 40
25.399999999999999
  9
$DIMLFAC
 40
1.0
  9
$DIMTOFL
 70
     1
  9
$DIMTVP
 40
0.0
  9
$DIMTIX
 70
     1
  9
$DIMSOXD
 70
     0
  9
$DIMSAH
 70
     0
  9
$DIMBLK1
  1

  9
$DIMBLK2
  1

  9
$DIMSTYLE
  2
STANDARD
  9
$DIMCLRD
 70
     7
  9
$DIMCLRE
 70
     7
  9
$DIMCLRT
 70
     7
  9
$DIMTFAC
 40
1.0
  9
$DIMGAP
 40
25.0
  9
$LUNITS
 70
     2
  9
$LUPREC
 70
     4
  9
$SKETCHINC
 40
0.1
  9
$FILLETRAD
 40
3.0
  9
$AUNITS
 70
     1
  9
$AUPREC
 70
     3
  9
$MENU
  1
ACAD
  9
$ELEVATION
 40
0.0
  9
$PELEVATION
 40
0.0
  9
$THICKNESS
 40
0.0
  9
$LIMCHECK
 70
     0
  9
$CHAMFERA
 40
0.0
  9
$CHAMFERB
 40
0.0
  9
$SKPOLY
 70
     0
  9
$TDCREATE
 40
2453019.62301037
  9
$TDUPDATE
 40
2459025.611367569
  9
$TDINDWG
 40
1.7142173727
  9
$TDUSRTIMER
 40
1.7142173727
  9
$USRTIMER
 70
     1
  9
$ANGBASE
 50
0.0
  9
$ANGDIR
 70
     0
  9
$PDMODE
 70
     3
  9
$PDSIZE
 40
-2.0
  9
$PLINEWID
 40
0.0
  9
$SPLFRAME
 70
     0
  9
$SPLINETYPE
 70
     6
  9
$SPLINESEGS
 70
     8
  9
$SURFTAB1
 70
     6
  9
$SURFTAB2
 70
     6
  9
$SURFTYPE
 70
     6
  9
$SURFU
 70
     6
  9
$SURFV
 70
     6
  9
$UCSNAME
  2

  9
$UCSORG
 10
0.0
 20
0.0
 30
0.0
  9
$UCSXDIR
 10
1.0
 20
0.0
 30
0.0
  9
$UCSYDIR
 10
0.0
 20
1.0
 30
0.0
  9
$PUCSNAME
  2

  9
$PUCSORG
 10
0.0
 20
0.0
 30
0.0
  9
$PUCSXDIR
 10
1.0
 20
0.0
 30
0.0
  9
$PUCSYDIR
 10
0.0
 20
1.0
 30
0.0
  9
$USERI1
 70
     0
  9
$USERI2
 70
     0
  9
$USERI3
 70
     0
  9
$USERI4
 70
     0
  9
$USERI5
 70
     0
  9
$USERR1
 40
20.0
  9
$USERR2
 40
0.0
  9
$USERR3
 40
0.0
  9
$USERR4
 40
0.0
  9
$USERR5
 40
0.0
  9
$WORLDVIEW
 70
     1
  9
$SHADEDGE
 70
     3
  9
$SHADEDIF
 70
    70
  9
$TILEMODE
 70
     1
  9
$MAXACTVP
 70
    48
  9
$PINSBASE
 10
0.0
 20
0.0
 30
0.0
  9
$PLIMCHECK
 70
     0
  9
$PEXTMIN
 10
-100000000000000000000.0
 20
-100000000000000000000.0
 30
-100000000000000000000.0
  9
$PEXTMAX
 10
100000000000000000000.0
 20
100000000000000000000.0
 30
100000000000000000000.0
  9
$PLIMMIN
 10
0.0
 20
0.0
  9
$PLIMMAX
 10
12.0
 20
9.0
  9
$UNITMODE
 70
     0
  9
$VISRETAIN
 70
     0
  9
$PLINEGEN
 70
     0
  9
$PSLTSCALE
 70
     0
  9
$TREEDEPTH
 70
  3020
  9
$ATTDIA
 70
     0
  9
$ATTREQ
 70
     1
  9
$BLIPMODE
 70
     1
  9
$COORDS
 70
     1
  9
$DRAGMODE
 70
     2
  9
$OSMODE
 70
     0
  9
$HANDLING
 70
     0
  9
$HANDSEED
  5
EDCE
  0
ENDSEC
  0
SECTION
  2
TABLES
  0
TABLE
  2
LTYPE
 70
     2
  0
LTYPE
  2
CONTINUOUS
 70
     0
  3
実線
 72
    65
 73
     0
 40
0.0
  0
LTYPE
  2
DASHDOT
 70
     0
  3
____ _ ____ _ ____ _ ____ _ ____ _ ____ _ ____
 72
    65
 73
     4
 40
5.5
 49
4.0
 49
-0.6
 49
0.3
 49
-0.6
  0
ENDTAB
  0
TABLE
  2
LAYER
 70
    12
  0
LAYER
  2
0
 70
     0
 62
     7
  6
CONTINUOUS
  0
LAYER
  2
BASIS
 70
     0
 62
     6
  6
DASHDOT
  0
LAYER
  2
OUTLINE
 70
     0
 62
     3
  6
CONTINUOUS
  0
LAYER
  2
DETAIL
 70
     0
 62
     5
  6
CONTINUOUS
  0
LAYER
  2
SIZE
 70
     0
 62
    30
  6
CONTINUOUS
  0
LAYER
  2
ARRANGE
 70
     0
 62
     1
  6
CONTINUOUS
  0
LAYER
  2
ETC
 70
     0
 62
    61
  6
CONTINUOUS
  0
LAYER
  2
FIX
 70
     0
 62
    11
  6
CONTINUOUS
  0
LAYER
  2
NOTE
 70
     0
 62
     4
  6
CONTINUOUS
  0
LAYER
  2
DEFPOINTS
 70
    64
 62
     7
  6
CONTINUOUS
  0
LAYER
  2
SERVICESPACE
 70
    64
 62
     2
  6
DASHDOT
  0
LAYER
  2
SYMBOLLINE
 70
    64
 62
    15
  6
CONTINUOUS
  0
ENDTAB
  0
TABLE
  2
STYLE
 70
     1
  0
STYLE
  2
STANDARD
 70
     0
 40
64.0
 41
0.9
 50
0.0
 71
     0
 42
64.0
  3
SIMPLEX.shx
  4
BIGFONT.shx
  0
ENDTAB
  0
TABLE
  2
APPID
 70
    19
  0
APPID
  2
ACAD
 70
     0
  0
APPID
  2
AUTOCAD_POSTSCRIPT_FIGURE
 70
     0
  0
APPID
  2
ACAD_EXEMPT_FROM_CAD_STANDARDS
 70
     0
  0
APPID
  2
ACAD_PSEXT
 70
     0
  0
APPID
  2
ACAUTHENVIRON
 70
     0
  0
APPID
  2
GENIUS_GENOENT_13
 70
     0
  0
APPID
  2
GENIUS_GENCFG_13
 70
     0
  0
APPID
  2
GENIUS_GENCFG0_13
 70
     0
  0
APPID
  2
GENIUS_GENCFG1_13
 70
     0
  0
APPID
  2
GENIUS_GENCFG2_13
 70
     0
  0
APPID
  2
GENIUS_GENCFG3_13
 70
     0
  0
APPID
  2
GENIUS_GENCFG4_13
 70
     0
  0
APPID
  2
GENIUS_GEVCFG0_13
 70
     0
  0
APPID
  2
CONTENTBLOCKICON
 70
     0
  0
APPID
  2
CONTENTBLOCKDESCRIPTION
 70
     0
  0
APPID
  2
ACAD_NAV_VCDISPLAY
 70
     0
  0
APPID
  2
ACAD_MLEADERVER
 70
     0
  0
APPID
  2
ACDBDYNAMICBLOCKTRUENAME
 70
     0
  0
APPID
  2
ACDBDYNAMICBLOCKGUID
 70
     0
  0
ENDTAB
  0
TABLE
  2
DIMSTYLE
 70
     1
  0
DIMSTYLE
  2
STANDARD
 70
     0
  3

  4

  5
_ORIGIN
  6

  7

 40
1.0
 41
12.0
 42
20.0
 43
200.0
 44
20.0
 45
0.0
 46
0.0
 47
0.0
 48
0.0
140
64.0
141
0.09
142
0.0
143
25.399999999999999
144
1.0
145
0.0
146
1.0
147
25.0
 71
     0
 72
     0
 73
     0
 74
     0
 75
     0
 76
     0
 77
     1
 78
     8
170
     0
171
     2
172
     1
173
     0
174
     1
175
     0
176
     7
177
     7
178
     7
  0
ENDTAB
  0
TABLE
  2
VIEW
 70
     1
  0
VIEW
  2
ALL
 70
     0
 40
4282.6198079999986
 10
0.0
 20
41.309904000000003
 41
5940.0
 11
0.0
 21
0.0
 31
1.0
 12
0.0
 22
0.0
 32
0.0
 42
50.0
 43
0.0
 44
0.0
 50
0.0
 71
     0
  0
ENDTAB
  0
TABLE
  2
UCS
 70
     0
  0
ENDTAB
  0
TABLE
  2
VPORT
 70
     1
  0
VPORT
  2
*ACTIVE
 70
     0
 10
0.0
 20
0.0
 11
1.0
 21
1.0
 12
108.3114763585737
 22
-57.838430229851838
 13
0.0
 23
0.0
 14
1.0
 24
1.0
 15
0.0
 25
0.0
 16
0.0
 26
0.0
 36
1.0
 17
0.0
 27
0.0
 37
0.0
 40
1520.8656743186621
 41
1.747787610619469
 42
50.0
 43
0.0
 44
0.0
 50
0.0
 51
0.0
 71
     0
 72
  1000
 73
     1
 74
     3
 75
     0
 76
     0
 77
     0
 78
     0
  0
ENDTAB
  0
ENDSEC
  0
SECTION
  2
BLOCKS
  0
BLOCK
  8
0
  2
_ORIGIN
 70
     0
 10
0.0
 20
0.0
 30
0.0
  3
_ORIGIN
  1
_ORIGIN
  0
CIRCLE
  8
0
  6
CONTINUOUS
 62
     7
 10
0.0
 20
0.0
 30
0.0
 40
0.5
  0
LINE
  8
0
  6
CONTINUOUS
 62
     7
 10
0.0
 20
0.0
 30
0.0
 11
-1.0
 21
0.0
 31
0.0
  0
ENDBLK
  8
0
  0
ENDSEC
  0
SECTION
  2
ENTITIES
  0
TEXT
  8
ETC
  6
CONTINUOUS
 62
    61
 10
654.60840945473456
 20
633.38709878569716
 30
0.0
 40
64.0
  1
BG-38TR5_1
 41
0.9
  0
TEXT
  8
ETC
  6
CONTINUOUS
 62
    61
 10
661.40697830279623
 20
501.97903184276669
 30
0.0
 40
64.0
  1
産業扇
 41
0.9
  0
CIRCLE
  8
ARRANGE
  6
CONTINUOUS
 62
     1
 10
0.0
 20
0.0
 30
0.0
 40
40.0
  0
POINT
  8
ARRANGE
  6
CONTINUOUS
 62
     1
 10
0.0
 20
0.0
 30
0.0
  0
TEXT
  8
ETC
  6
CONTINUOUS
 62
    61
 10
701.12381370329012
 20
407.28301588464069
 30
0.0
 40
40.0
  1
BG-38TR5
 41
0.9
  0
CIRCLE
  8
FIX
  6
CONTINUOUS
 62
    11
 10
-223.5
 20
284.99999999999977
 30
0.0
 40
7.0
  0
CIRCLE
  8
FIX
  6
CONTINUOUS
 62
    11
 10
-223.5
 20
334.99999999999977
 30
0.0
 40
7.0
  0
CIRCLE
  8
FIX
  6
CONTINUOUS
 62
    11
 10
222.5
 20
-295.00000000000023
 30
0.0
 40
7.0
  0
CIRCLE
  8
FIX
  6
CONTINUOUS
 62
    11
 10
222.5
 20
-345.99998497962599
 30
0.0
 40
7.0
  0
CIRCLE
  8
FIX
  6
CONTINUOUS
 62
    11
 10
-223.5
 20
-295.00000000000023
 30
0.0
 40
7.0
  0
CIRCLE
  8
FIX
  6
CONTINUOUS
 62
    11
 10
-223.5
 20
-344.99999999999977
 30
0.0
 40
7.0
  0
LINE
  8
SIZE
  6
CONTINUOUS
 62
    30
 10
-427.88620329210721
 20
0.0
 30
0.0
 11
-583.74752530162277
 21
0.0
 31
0.0
  0
LINE
  8
SIZE
  6
CONTINUOUS
 62
    30
 10
-283.5
 20
-344.99999999999977
 30
0.0
 11
-583.74752530162277
 21
-344.99999999999977
 31
0.0
  0
LINE
  8
SIZE
  6
CONTINUOUS
 62
    30
 10
-563.74752530162277
 20
-12.0
 30
0.0
 11
-563.74752530162277
 21
-332.99999999999972
 31
0.0
  0
CIRCLE
  8
SIZE
  6
CONTINUOUS
 62
    30
 10
-563.74752530162277
 20
0.0
 30
0.0
 40
6.0
  0
LINE
  8
SIZE
  6
CONTINUOUS
 62
    30
 10
-563.74752530162277
 20
0.0
 30
0.0
 11
-563.74752530162277
 21
-12.0
 31
0.0
  0
CIRCLE
  8
SIZE
  6
CONTINUOUS
 62
    30
 10
-563.74752530162277
 20
-344.99999999999977
 30
0.0
 40
6.0
  0
LINE
  8
SIZE
  6
CONTINUOUS
 62
    30
 10
-563.74752530162277
 20
-344.99999999999977
 30
0.0
 11
-563.74752530162277
 21
-332.99999999999972
 31
0.0
  0
TEXT
  8
SIZE
  6
CONTINUOUS
 62
    30
 10
-588.74752530162277
 20
-213.05714686257579
 30
0.0
 40
64.0
  1
345
 50
90.0
 41
0.9
 72
     1
 11
-588.74752530162277
 21
-139.000004005433
 31
0.0
  0
LINE
  8
SIZE
  6
CONTINUOUS
 62
    30
 10
282.5
 20
334.99999999999977
 30
0.0
 11
628.32313834901379
 21
334.99999999999977
 31
0.0
  0
LINE
  8
SIZE
  6
CONTINUOUS
 62
    30
 10
282.5
 20
-344.99999999999977
 30
0.0
 11
628.32313834901379
 21
-344.99999999999977
 31
0.0
  0
LINE
  8
SIZE
  6
CONTINUOUS
 62
    30
 10
608.32313834901379
 20
322.99999999999977
 30
0.0
 11
608.32313834901379
 21
-332.99999999999972
 31
0.0
  0
CIRCLE
  8
SIZE
  6
CONTINUOUS
 62
    30
 10
608.32313834901379
 20
334.99999999999977
 30
0.0
 40
6.0
  0
LINE
  8
SIZE
  6
CONTINUOUS
 62
    30
 10
608.32313834901379
 20
334.99999999999977
 30
0.0
 11
608.32313834901379
 21
322.99999999999977
 31
0.0
  0
CIRCLE
  8
SIZE
  6
CONTINUOUS
 62
    30
 10
608.32313834901379
 20
-344.99999999999977
 30
0.0
 40
6.0
  0
LINE
  8
SIZE
  6
CONTINUOUS
 62
    30
 10
608.32313834901379
 20
-344.99999999999977
 30
0.0
 11
608.32313834901379
 21
-332.99999999999972
 31
0.0
  0
TEXT
  8
SIZE
  6
CONTINUOUS
 62
    30
 10
583.32313834901379
 20
-113.53714357239861
 30
0.0
 40
64.0
  1
□680
 50
90.0
 41
0.9
 72
     1
 11
583.32313834901379
 21
-3.0000007152557369
 31
0.0
  0
LINE
  8
SIZE
  6
CONTINUOUS
 62
    30
 10
268.29044069290188
 20
284.99999999999977
 30
0.0
 11
506.44799393347148
 21
284.99999999999977
 31
0.0
  0
LINE
  8
SIZE
  6
CONTINUOUS
 62
    30
 10
268.29044069290188
 20
-295.00000000000023
 30
0.0
 11
506.44799393347148
 21
-295.00000000000023
 31
0.0
  0
LINE
  8
SIZE
  6
CONTINUOUS
 62
    30
 10
486.44799393347148
 20
272.99999999999977
 30
0.0
 11
486.44799393347148
 21
-283.00000000000023
 31
0.0
  0
CIRCLE
  8
SIZE
  6
CONTINUOUS
 62
    30
 10
486.44799393347148
 20
284.99999999999977
 30
0.0
 40
6.0
  0
LINE
  8
SIZE
  6
CONTINUOUS
 62
    30
 10
486.44799393347148
 20
284.99999999999977
 30
0.0
 11
486.44799393347148
 21
272.99999999999977
 31
0.0
  0
CIRCLE
  8
SIZE
  6
CONTINUOUS
 62
    30
 10
486.44799393347148
 20
-295.00000000000023
 30
0.0
 40
6.0
  0
LINE
  8
SIZE
  6
CONTINUOUS
 62
    30
 10
486.44799393347148
 20
-295.00000000000023
 30
0.0
 11
486.44799393347148
 21
-283.00000000000023
 31
0.0
  0
TEXT
  8
SIZE
  6
CONTINUOUS
 62
    30
 10
461.44799393347148
 20
-79.057142857143063
 30
0.0
 40
64.0
  1
580
 50
90.0
 41
0.9
 72
     1
 11
461.44799393347148
 21
-5.0000000000002274
 31
0.0
  0
LINE
  8
SIZE
  6
CONTINUOUS
 62
    30
 10
-345.09999999999991
 20
61.5
 30
0.0
 11
-345.09999999999991
 21
501.30265606812827
 31
0.0
  0
LINE
  8
SIZE
  6
CONTINUOUS
 62
    30
 10
262.5
 20
354.99999999999977
 30
0.0
 11
262.5
 21
501.30265606812827
 31
0.0
  0
LINE
  8
SIZE
  6
CONTINUOUS
 62
    30
 10
-333.09999999999991
 20
481.30265606812827
 30
0.0
 11
250.5
 21
481.30265606812827
 31
0.0
  0
CIRCLE
  8
SIZE
  6
CONTINUOUS
 62
    30
 10
-345.09999999999991
 20
481.30265606812827
 30
0.0
 40
6.0
  0
LINE
  8
SIZE
  6
CONTINUOUS
 62
    30
 10
-345.09999999999991
 20
481.30265606812827
 30
0.0
 11
-333.09999999999991
 21
481.30265606812827
 31
0.0
  0
CIRCLE
  8
SIZE
  6
CONTINUOUS
 62
    30
 10
262.5
 20
481.30265606812827
 30
0.0
 40
6.0
  0
LINE
  8
SIZE
  6
CONTINUOUS
 62
    30
 10
262.5
 20
481.30265606812827
 30
0.0
 11
250.5
 21
481.30265606812827
 31
0.0
  0
TEXT
  8
SIZE
  6
CONTINUOUS
 62
    30
 10
-144.05237537064039
 20
506.30265606812827
 30
0.0
 40
64.0
  1
607.6
 41
0.9
 72
     1
 11
-30.223803942069029
 21
506.30265606812827
 31
0.0
  0
LINE
  8
SIZE
  6
CONTINUOUS
 62
    30
 10
-263.5
 20
-364.99999999999977
 30
0.0
 11
-263.5
 21
-812.96667222659062
 31
0.0
  0
LINE
  8
SIZE
  6
CONTINUOUS
 62
    30
 10
262.5
 20
-365.99998497962599
 30
0.0
 11
262.5
 21
-812.96667222659062
 31
0.0
  0
LINE
  8
SIZE
  6
CONTINUOUS
 62
    30
 10
-251.5
 20
-792.96667222659062
 30
0.0
 11
250.5
 21
-792.96667222659062
 31
0.0
  0
CIRCLE
  8
SIZE
  6
CONTINUOUS
 62
    30
 10
-263.5
 20
-792.96667222659062
 30
0.0
 40
6.0
  0
LINE
  8
SIZE
  6
CONTINUOUS
 62
    30
 10
-263.5
 20
-792.96667222659062
 30
0.0
 11
-251.5
 21
-792.96667222659062
 31
0.0
  0
CIRCLE
  8
SIZE
  6
CONTINUOUS
 62
    30
 10
262.5
 20
-792.96667222659062
 30
0.0
 40
6.0
  0
LINE
  8
SIZE
  6
CONTINUOUS
 62
    30
 10
262.5
 20
-792.96667222659062
 30
0.0
 11
250.5
 21
-792.96667222659062
 31
0.0
  0
TEXT
  8
SIZE
  6
CONTINUOUS
 62
    30
 10
-73.60927625670999
 20
-767.96667222659062
 30
0.0
 40
64.0
  1
526
 41
0.9
 72
     1
 11
-0.9235619709957064
 21
-767.96667222659062
 31
0.0
  0
LINE
  8
SIZE
  6
CONTINUOUS
 62
    30
 10
256.49950790393541
 20
-394.99998140334651
 30
0.0
 11
628.32313834901379
 21
-394.99998140334662
 31
0.0
  0
LINE
  8
SIZE
  6
CONTINUOUS
 62
    30
 10
282.5
 20
-344.99999999999977
 30
0.0
 11
628.32313834901379
 21
-344.99999999999977
 31
0.0
  0
LINE
  8
SIZE
  6
CONTINUOUS
 62
    30
 10
608.32313834901379
 20
-332.99999999999972
 30
0.0
 11
608.32313834901379
 21
-320.99999999999972
 31
0.0
  0
LINE
  8
SIZE
  6
CONTINUOUS
 62
    30
 10
608.32313834901379
 20
-406.99998140334662
 30
0.0
 11
608.32313834901379
 21
-562.25712426048949
 31
0.0
  0
LINE
  8
SIZE
  6
CONTINUOUS
 62
    30
 10
608.32313834901379
 20
-344.99999999999977
 30
0.0
 11
608.32313834901379
 21
-394.99998140334662
 31
0.0
  0
CIRCLE
  8
SIZE
  6
CONTINUOUS
 62
    30
 10
608.32313834901379
 20
-344.99999999999977
 30
0.0
 40
6.0
  0
LINE
  8
SIZE
  6
CONTINUOUS
 62
    30
 10
608.32313834901379
 20
-344.99999999999977
 30
0.0
 11
608.32313834901379
 21
-332.99999999999972
 31
0.0
  0
CIRCLE
  8
SIZE
  6
CONTINUOUS
 62
    30
 10
608.32313834901379
 20
-394.99998140334662
 30
0.0
 40
6.0
  0
LINE
  8
SIZE
  6
CONTINUOUS
 62
    30
 10
608.32313834901379
 20
-394.99998140334662
 30
0.0
 11
608.32313834901379
 21
-406.99998140334662
 31
0.0
  0
TEXT
  8
SIZE
  6
CONTINUOUS
 62
    30
 10
583.32313834901379
 20
-537.25712426048949
 30
0.0
 40
64.0
  1
50
 50
90.0
 41
0.9
 72
     1
 11
583.32313834901379
 21
-490.62855283191811
 31
0.0
  0
LINE
  8
SIZE
  6
CONTINUOUS
 62
    30
 10
-263.5
 20
-364.99999999999977
 30
0.0
 11
-263.5
 21
-579.95229120321437
 31
0.0
  0
LINE
  8
SIZE
  6
CONTINUOUS
 62
    30
 10
-223.5
 20
-384.36413215993048
 30
0.0
 11
-223.5
 21
-579.95229120321437
 31
0.0
  0
LINE
  8
SIZE
  6
CONTINUOUS
 62
    30
 10
-211.5
 20
-559.95229120321437
 30
0.0
 11
-199.5
 21
-559.95229120321437
 31
0.0
  0
LINE
  8
SIZE
  6
CONTINUOUS
 62
    30
 10
-275.5
 20
-559.95229120321437
 30
0.0
 11
-502.38571428571407
 21
-559.95229120321437
 31
0.0
  0
LINE
  8
SIZE
  6
CONTINUOUS
 62
    30
 10
-223.5
 20
-559.95229120321437
 30
0.0
 11
-263.5
 21
-559.95229120321437
 31
0.0
  0
CIRCLE
  8
SIZE
  6
CONTINUOUS
 62
    30
 10
-223.5
 20
-559.95229120321437
 30
0.0
 40
6.0
  0
LINE
  8
SIZE
  6
CONTINUOUS
 62
    30
 10
-223.5
 20
-559.95229120321437
 30
0.0
 11
-211.5
 21
-559.95229120321437
 31
0.0
  0
CIRCLE
  8
SIZE
  6
CONTINUOUS
 62
    30
 10
-263.5
 20
-559.95229120321437
 30
0.0
 40
6.0
  0
LINE
  8
SIZE
  6
CONTINUOUS
 62
    30
 10
-263.5
 20
-559.95229120321437
 30
0.0
 11
-275.5
 21
-559.95229120321437
 31
0.0
  0
TEXT
  8
SIZE
  6
CONTINUOUS
 62
    30
 10
-477.38571428571419
 20
-534.95229120321437
 30
0.0
 40
64.0
  1
40
 41
0.9
 72
     1
 11
-430.75714285714281
 21
-534.95229120321437
 31
0.0
  0
LINE
  8
SIZE
  6
CONTINUOUS
 62
    30
 10
-223.5
 20
-384.36413215993048
 30
0.0
 11
-223.5
 21
-579.95229120321437
 31
0.0
  0
LINE
  8
SIZE
  6
CONTINUOUS
 62
    30
 10
222.5
 20
-384.36413215993048
 30
0.0
 11
222.5
 21
-579.95229120321437
 31
0.0
  0
LINE
  8
SIZE
  6
CONTINUOUS
 62
    30
 10
-211.5
 20
-559.95229120321437
 30
0.0
 11
210.5
 21
-559.95229120321437
 31
0.0
  0
CIRCLE
  8
SIZE
  6
CONTINUOUS
 62
    30
 10
-223.5
 20
-559.95229120321437
 30
0.0
 40
6.0
  0
LINE
  8
SIZE
  6
CONTINUOUS
 62
    30
 10
-223.5
 20
-559.95229120321437
 30
0.0
 11
-211.5
 21
-559.95229120321437
 31
0.0
  0
CIRCLE
  8
SIZE
  6
CONTINUOUS
 62
    30
 10
222.5
 20
-559.95229120321437
 30
0.0
 40
6.0
  0
LINE
  8
SIZE
  6
CONTINUOUS
 62
    30
 10
222.5
 20
-559.95229120321437
 30
0.0
 11
210.5
 21
-559.95229120321437
 31
0.0
  0
TEXT
  8
SIZE
  6
CONTINUOUS
 62
    30
 10
-73.185714285714297
 20
-534.95229120321437
 30
0.0
 40
64.0
  1
446
 41
0.9
 72
     1
 11
-0.5
 21
-534.95229120321437
 31
0.0
  0
LINE
  8
SIZE
  6
CONTINUOUS
 62
    30
 10
262.5
 20
-365.99998497962599
 30
0.0
 11
262.5
 21
-579.95229120321437
 31
0.0
  0
LINE
  8
SIZE
  6
CONTINUOUS
 62
    30
 10
222.5
 20
-384.36413215993048
 30
0.0
 11
222.5
 21
-579.95229120321437
 31
0.0
  0
LINE
  8
SIZE
  6
CONTINUOUS
 62
    30
 10
210.5
 20
-559.95229120321437
 30
0.0
 11
198.5
 21
-559.95229120321437
 31
0.0
  0
LINE
  8
SIZE
  6
CONTINUOUS
 62
    30
 10
274.5
 20
-559.95229120321437
 30
0.0
 11
429.75714285714281
 21
-559.95229120321437
 31
0.0
  0
LINE
  8
SIZE
  6
CONTINUOUS
 62
    30
 10
222.5
 20
-559.95229120321437
 30
0.0
 11
262.5
 21
-559.95229120321437
 31
0.0
  0
CIRCLE
  8
SIZE
  6
CONTINUOUS
 62
    30
 10
222.5
 20
-559.95229120321437
 30
0.0
 40
6.0
  0
LINE
  8
SIZE
  6
CONTINUOUS
 62
    30
 10
222.5
 20
-559.95229120321437
 30
0.0
 11
210.5
 21
-559.95229120321437
 31
0.0
  0
CIRCLE
  8
SIZE
  6
CONTINUOUS
 62
    30
 10
262.5
 20
-559.95229120321437
 30
0.0
 40
6.0
  0
LINE
  8
SIZE
  6
CONTINUOUS
 62
    30
 10
262.5
 20
-559.95229120321437
 30
0.0
 11
274.5
 21
-559.95229120321437
 31
0.0
  0
TEXT
  8
SIZE
  6
CONTINUOUS
 62
    30
 10
311.49999999999989
 20
-534.95229120321437
 30
0.0
 40
64.0
  1
40
 41
0.9
 72
     1
 11
358.12857142857138
 21
-534.95229120321437
 31
0.0
  0
TEXT
  8
NOTE
  6
CONTINUOUS
 62
     4
 10
-903.44160056369856
 20
474.78065375389201
 30
0.0
 40
64.0
  1
14-φ14×22
 41
0.9
  0
LINE
  8
NOTE
  6
CONTINUOUS
 62
     4
 10
-232.25937281730879
 20
293.20203559169232
 30
0.0
 11
-396.49558685694711
 21
446.98830557851721
 31
0.0
  0
LINE
  8
NOTE
  6
CONTINUOUS
 62
     4
 10
-396.49558685694711
 20
446.98830557851721
 30
0.0
 11
-920.50589476593268
 21
446.98830557851738
 31
0.0
  0
LINE
  8
NOTE
  6
CONTINUOUS
 62
     4
 10
-226.78081869025749
 20
290.27455476904493
 30
0.0
 11
-223.5
 21
284.99999999999977
 31
0.0
  0
LINE
  8
NOTE
  6
CONTINUOUS
 62
     4
 10
-223.5
 20
284.99999999999977
 30
0.0
 11
-228.97855412705121
 21
287.92748082264688
 31
0.0
  0
LINE
  8
NOTE
  6
CONTINUOUS
 62
     4
 10
-223.5
 20
284.99999999999977
 30
0.0
 11
-232.25937281730879
 21
293.20203559169232
 31
0.0
  0
LINE
  8
OUTLINE
  6
CONTINUOUS
 62
     3
 10
-263.5
 20
-344.99999999999977
 30
0.0
 11
-263.5
 21
-112.04381298213001
 31
0.0
  0
LINE
  8
OUTLINE
  6
CONTINUOUS
 62
     3
 10
-133.5
 20
316.20069115106088
 30
0.0
 11
-133.5
 21
334.99999999999977
 31
0.0
  0
LINE
  8
OUTLINE
  6
CONTINUOUS
 62
     3
 10
202.5
 20
316.20069115106088
 30
0.0
 11
202.5
 21
334.99999999999977
 31
0.0
  0
LINE
  8
OUTLINE
  6
CONTINUOUS
 62
     3
 10
-263.5
 20
334.99999999999977
 30
0.0
 11
-133.5
 21
334.99999999999977
 31
0.0
  0
LINE
  8
OUTLINE
  6
CONTINUOUS
 62
     3
 10
202.5
 20
334.99999999999977
 30
0.0
 11
262.5
 21
334.99999999999977
 31
0.0
  0
LINE
  8
OUTLINE
  6
CONTINUOUS
 62
     3
 10
-263.5
 20
-344.99999999999977
 30
0.0
 11
-262.49975824350349
 21
-344.99999999999977
 31
0.0
  0
LINE
  8
OUTLINE
  6
CONTINUOUS
 62
     3
 10
202.5
 20
316.20069115106088
 30
0.0
 11
-133.5
 21
316.20069115106088
 31
0.0
  0
LINE
  8
OUTLINE
  6
CONTINUOUS
 62
     3
 10
-263.5
 20
112.04381298213001
 30
0.0
 11
-310.97892432815797
 21
110.126069635721
 31
0.0
  0
LINE
  8
OUTLINE
  6
CONTINUOUS
 62
     3
 10
-311.47892432815797
 20
110.126069635721
 30
0.0
 11
-315.40729034361812
 21
109.967397174308
 31
0.0
  0
ARC
  8
OUTLINE
  6
CONTINUOUS
 62
     3
 10
-315.10011919800399
 20
89.983691943753229
 30
0.0
 40
20.000000000000089
 50
92.313003197783161
 51
180.0
  0
ARC
  8
OUTLINE
  6
CONTINUOUS
 62
     3
 10
-342.09999999999991
 20
41.5
 30
0.0
 40
3.0
 50
90.0
 51
180.0
  0
LINE
  8
OUTLINE
  6
CONTINUOUS
 62
     3
 10
-342.09999999999991
 20
44.5
 30
0.0
 11
-338.10011919800399
 21
44.5
 31
0.0
  0
LINE
  8
OUTLINE
  6
CONTINUOUS
 62
     3
 10
-345.09999999999991
 20
41.5
 30
0.0
 11
-345.09999999999991
 21
0.0
 31
0.0
  0
ARC
  8
OUTLINE
  6
CONTINUOUS
 62
     3
 10
-338.10011919800399
 20
47.5
 30
0.0
 40
3.0
 50
270.0
 51
0.0
  0
LINE
  8
OUTLINE
  6
CONTINUOUS
 62
     3
 10
-341.59999999999991
 20
44.5
 30
0.0
 11
-338.10011919800399
 21
44.5
 31
0.0
  0
LINE
  8
OUTLINE
  6
CONTINUOUS
 62
     3
 10
-335.10011919800399
 20
44.5
 30
0.0
 11
-335.10011919800399
 21
89.983691943753229
 31
0.0
  0
LINE
  8
OUTLINE
  6
CONTINUOUS
 62
     3
 10
-263.5
 20
-112.04381298213001
 30
0.0
 11
-310.97892432815797
 21
-110.12606963572151
 31
0.0
  0
LINE
  8
OUTLINE
  6
CONTINUOUS
 62
     3
 10
-311.47892432815797
 20
-110.12606963572151
 30
0.0
 11
-315.40729034361812
 21
-109.967397174308
 31
0.0
  0
ARC
  8
OUTLINE
  6
CONTINUOUS
 62
     3
 10
-315.10011919800399
 20
-89.983691943753229
 30
0.0
 40
20.0
 50
180.0
 51
267.68699680221681
  0
ARC
  8
OUTLINE
  6
CONTINUOUS
 62
     3
 10
-342.09999999999991
 20
-41.5
 30
0.0
 40
3.0
 50
180.0
 51
270.0
  0
LINE
  8
OUTLINE
  6
CONTINUOUS
 62
     3
 10
-342.09999999999991
 20
-44.5
 30
0.0
 11
-338.10011919800399
 21
-44.5
 31
0.0
  0
LINE
  8
OUTLINE
  6
CONTINUOUS
 62
     3
 10
-345.09999999999991
 20
-41.5
 30
0.0
 11
-345.09999999999991
 21
0.0
 31
0.0
  0
ARC
  8
OUTLINE
  6
CONTINUOUS
 62
     3
 10
-338.10011919800399
 20
-47.5
 30
0.0
 40
3.0
 50
0.0
 51
90.0
  0
LINE
  8
OUTLINE
  6
CONTINUOUS
 62
     3
 10
-341.59999999999991
 20
-44.5
 30
0.0
 11
-338.10011919800399
 21
-44.5
 31
0.0
  0
LINE
  8
OUTLINE
  6
CONTINUOUS
 62
     3
 10
-335.10011919800399
 20
-47.5
 30
0.0
 11
-335.10011919800399
 21
-89.983691943753229
 31
0.0
  0
LINE
  8
OUTLINE
  6
CONTINUOUS
 62
     3
 10
-236.49950790393541
 20
-394.99998140334651
 30
0.0
 11
236.49950790393541
 21
-394.99998140334651
 31
0.0
  0
LINE
  8
OUTLINE
  6
CONTINUOUS
 62
     3
 10
-236.49950790393541
 20
-394.99998140334651
 30
0.0
 11
-236.49950790393541
 21
-345.99998497962599
 31
0.0
  0
LINE
  8
OUTLINE
  6
CONTINUOUS
 62
     3
 10
236.49950790393541
 20
-394.99998140334651
 30
0.0
 11
236.49950790393541
 21
-345.99998497962599
 31
0.0
  0
LINE
  8
OUTLINE
  6
CONTINUOUS
 62
     3
 10
-262.49975824350349
 20
-345.99998497962599
 30
0.0
 11
-262.49975824350349
 21
-344.99999999999977
 31
0.0
  0
LINE
  8
OUTLINE
  6
CONTINUOUS
 62
     3
 10
262.5
 20
-345.99998497962599
 30
0.0
 11
262.5
 21
334.99999999999977
 31
0.0
  0
LINE
  8
OUTLINE
  6
CONTINUOUS
 62
     3
 10
262.5
 20
-345.99998497962599
 30
0.0
 11
236.49950790393541
 21
-345.99998497962599
 31
0.0
  0
LINE
  8
NOTE
  6
CONTINUOUS
 62
     4
 10
-223.5
 20
315.63586784006912
 30
0.0
 11
-223.5
 21
366.57335637308711
 31
0.0
  0
LINE
  8
NOTE
  6
CONTINUOUS
 62
     4
 10
222.5
 20
315.63586784006912
 30
0.0
 11
222.5
 21
366.57335637308711
 31
0.0
  0
LINE
  8
NOTE
  6
CONTINUOUS
 62
     4
 10
-223.5
 20
-364.36413215993048
 30
0.0
 11
-223.5
 21
-313.42664362691238
 31
0.0
  0
LINE
  8
NOTE
  6
CONTINUOUS
 62
     4
 10
222.5
 20
-364.36413215993048
 30
0.0
 11
222.5
 21
-313.42664362691238
 31
0.0
  0
LINE
  8
DETAIL
  6
CONTINUOUS
 62
     5
 10
-263.5
 20
-344.99999999999977
 30
0.0
 11
-263.5
 21
334.99999999999977
 31
0.0
  0
LINE
  8
DETAIL
  6
CONTINUOUS
 62
     5
 10
-133.5
 20
-344.99999999999977
 30
0.0
 11
-133.5
 21
334.99999999999977
 31
0.0
  0
LINE
  8
DETAIL
  6
CONTINUOUS
 62
     5
 10
202.5
 20
-344.99999999999977
 30
0.0
 11
202.5
 21
334.99999999999977
 31
0.0
  0
LINE
  8
DETAIL
  6
CONTINUOUS
 62
     5
 10
-263.5
 20
334.99999999999977
 30
0.0
 11
-133.5
 21
334.99999999999977
 31
0.0
  0
LINE
  8
DETAIL
  6
CONTINUOUS
 62
     5
 10
202.5
 20
334.99999999999977
 30
0.0
 11
262.5
 21
334.99999999999977
 31
0.0
  0
LINE
  8
DETAIL
  6
CONTINUOUS
 62
     5
 10
-263.5
 20
-344.99999999999977
 30
0.0
 11
262.5
 21
-344.99999999999977
 31
0.0
  0
LINE
  8
DETAIL
  6
CONTINUOUS
 62
     5
 10
202.5
 20
316.20069115106088
 30
0.0
 11
-133.5
 21
316.20069115106088
 31
0.0
  0
ARC
  8
DETAIL
  6
CONTINUOUS
 62
     5
 10
-271.09928554534918
 20
0.0
 30
0.0
 40
3.1500000000000909
 50
0.0
 51
180.0
  0
LINE
  8
DETAIL
  6
CONTINUOUS
 62
     5
 10
-263.5
 20
112.04381298213001
 30
0.0
 11
-310.97892432815797
 21
110.126069635721
 31
0.0
  0
LINE
  8
DETAIL
  6
CONTINUOUS
 62
     5
 10
-311.47892432815797
 20
110.126069635721
 30
0.0
 11
-315.40729034361812
 21
109.967397174308
 31
0.0
  0
LINE
  8
DETAIL
  6
CONTINUOUS
 62
     5
 10
-307.20027465820289
 20
98.446319580078125
 30
0.0
 11
-263.5
 21
98.446319580078125
 31
0.0
  0
LINE
  8
DETAIL
  6
CONTINUOUS
 62
     5
 10
-307.20027465820289
 20
96.14631958007817
 30
0.0
 11
-263.5
 21
96.14631958007817
 31
0.0
  0
LINE
  8
DETAIL
  6
CONTINUOUS
 62
     5
 10
-307.20027465820289
 20
86.346319580078216
 30
0.0
 11
-263.5
 21
86.346319580078216
 31
0.0
  0
LINE
  8
DETAIL
  6
CONTINUOUS
 62
     5
 10
-307.20027465820289
 20
84.046319580078034
 30
0.0
 11
-263.5
 21
84.046319580078034
 31
0.0
  0
LINE
  8
DETAIL
  6
CONTINUOUS
 62
     5
 10
-307.20027465820289
 20
70.446319580078125
 30
0.0
 11
-263.5
 21
70.446319580078125
 31
0.0
  0
LINE
  8
DETAIL
  6
CONTINUOUS
 62
     5
 10
-307.20027465820289
 20
73.446319580078125
 30
0.0
 11
-263.5
 21
73.446319580078125
 31
0.0
  0
LINE
  8
DETAIL
  6
CONTINUOUS
 62
     5
 10
-315.5
 20
84.928698730468568
 30
0.0
 11
-315.5
 21
87.388484337071532
 31
0.0
  0
LINE
  8
DETAIL
  6
CONTINUOUS
 62
     5
 10
-307.20027465820289
 20
98.446319580078125
 30
0.0
 11
-315.500244140625
 21
87.388159065246782
 31
0.0
  0
LINE
  8
DETAIL
  6
CONTINUOUS
 62
     5
 10
-307.20027465820289
 20
86.346319580078216
 30
0.0
 11
-315.500244140625
 21
75.92859462737988
 31
0.0
  0
LINE
  8
DETAIL
  6
CONTINUOUS
 62
     5
 10
-307.20027324557901
 20
73.446319580077443
 30
0.0
 11
-315.50023801352239
 21
62.970640831533963
 31
0.0
  0
ARC
  8
DETAIL
  6
CONTINUOUS
 62
     5
 10
-307.20027465820289
 20
97.296319580078034
 30
0.0
 40
1.149999999999864
 50
270.0
 51
90.0
  0
ARC
  8
DETAIL
  6
CONTINUOUS
 62
     5
 10
-307.20027465820289
 20
85.196319580078125
 30
0.0
 40
1.1500000000000909
 50
270.0
 51
90.0
  0
LINE
  8
DETAIL
  6
CONTINUOUS
 62
     5
 10
-315.500244140625
 20
84.928698730468568
 30
0.0
 11
-308.32971605186913
 21
84.928698730468568
 31
0.0
  0
LINE
  8
DETAIL
  6
CONTINUOUS
 62
     5
 10
-315.500244140625
 20
72.828698730468432
 30
0.0
 11
-307.68961922637391
 21
72.828698730468432
 31
0.0
  0
ARC
  8
DETAIL
  6
CONTINUOUS
 62
     5
 10
-307.20027465820289
 20
71.946319580078125
 30
0.0
 40
1.499999999999841
 50
270.0
 51
90.0
  0
ARC
  8
DETAIL
  6
CONTINUOUS
 62
     5
 10
-315.10011919800399
 20
89.983691943753229
 30
0.0
 40
20.000000000000089
 50
92.313003197783161
 51
180.0
  0
LINE
  8
DETAIL
  6
CONTINUOUS
 62
     5
 10
-315.5
 20
72.828698730468432
 30
0.0
 11
-315.5
 21
75.928901061022771
 31
0.0
  0
LINE
  8
DETAIL
  6
CONTINUOUS
 62
     5
 10
-315.500244140625
 20
84.928698730468568
 30
0.0
 11
-307.20027465820289
 21
96.14631958007817
 31
0.0
  0
LINE
  8
DETAIL
  6
CONTINUOUS
 62
     5
 10
-315.500244140625
 20
72.828698730468432
 30
0.0
 11
-307.20027465820289
 21
84.046319580078034
 31
0.0
  0
LINE
  8
DETAIL
  6
CONTINUOUS
 62
     5
 10
-315.500244140625
 20
72.828698730468432
 30
0.0
 11
-308.68961922637391
 21
72.828698730468432
 31
0.0
  0
LINE
  8
DETAIL
  6
CONTINUOUS
 62
     5
 10
-315.500244140625
 20
59.228698730468523
 30
0.0
 11
-263.5
 21
59.228698730468523
 31
0.0
  0
LINE
  8
DETAIL
  6
CONTINUOUS
 62
     5
 10
-315.500244140625
 20
33.2198486328125
 30
0.0
 11
-263.5
 21
33.2198486328125
 31
0.0
  0
LINE
  8
DETAIL
  6
CONTINUOUS
 62
     5
 10
-315.500244140625
 20
19.248159408569339
 30
0.0
 11
-263.5
 21
19.248159408569339
 31
0.0
  0
LINE
  8
DETAIL
  6
CONTINUOUS
 62
     5
 10
-307.20029039596011
 20
55.776351928711392
 30
0.0
 11
-263.5
 21
55.776351928711392
 31
0.0
  0
LINE
  8
DETAIL
  6
CONTINUOUS
 62
     5
 10
-307.20027465820289
 20
40.126373291015618
 30
0.0
 11
-263.5
 21
40.126373291015618
 31
0.0
  0
LINE
  8
DETAIL
  6
CONTINUOUS
 62
     5
 10
-307.20027465820289
 20
23.764165878295671
 30
0.0
 11
-263.5
 21
23.764165878295671
 31
0.0
  0
LINE
  8
DETAIL
  6
CONTINUOUS
 62
     5
 10
-307.20027465820289
 20
26.764165878295671
 30
0.0
 11
-263.5
 21
26.764165878295671
 31
0.0
  0
LINE
  8
DETAIL
  6
CONTINUOUS
 62
     5
 10
-307.20027465820289
 20
43.126373291015618
 30
0.0
 11
-263.5
 21
43.126373291015618
 31
0.0
  0
LINE
  8
DETAIL
  6
CONTINUOUS
 62
     5
 10
-307.2002732455785
 20
58.776367187500227
 30
0.0
 11
-263.5
 21
58.776367187500227
 31
0.0
  0
LINE
  8
DETAIL
  6
CONTINUOUS
 62
     5
 10
-315.5
 20
59.229028692762093
 30
0.0
 11
-315.5
 21
62.97094123680904
 31
0.0
  0
LINE
  8
DETAIL
  6
CONTINUOUS
 62
     5
 10
-315.5
 20
46.623138427734382
 30
0.0
 11
-315.5
 21
50.659751216386887
 31
0.0
  0
LINE
  8
DETAIL
  6
CONTINUOUS
 62
     5
 10
-315.5
 20
33.2198486328125
 30
0.0
 11
-315.5
 21
37.481694926026648
 31
0.0
  0
LINE
  8
DETAIL
  6
CONTINUOUS
 62
     5
 10
-315.500244140625
 20
59.228698730468523
 30
0.0
 11
-307.20027465820289
 21
70.446319580078125
 31
0.0
  0
LINE
  8
DETAIL
  6
CONTINUOUS
 62
     5
 10
-307.20027324557901
 20
58.776367187499552
 30
0.0
 11
-315.50024960878
 21
50.659507114542748
 31
0.0
  0
LINE
  8
DETAIL
  6
CONTINUOUS
 62
     5
 10
-315.50023886765121
 20
37.481532471152597
 30
0.0
 11
-307.20027324557901
 21
43.12637329101517
 31
0.0
  0
LINE
  8
DETAIL
  6
CONTINUOUS
 62
     5
 10
-315.50025083032227
 20
24.064097043850101
 30
0.0
 11
-307.20027324557901
 21
26.76416587829522
 31
0.0
  0
LINE
  8
DETAIL
  6
CONTINUOUS
 62
     5
 10
-315.500244140625
 20
33.2198486328125
 30
0.0
 11
-307.20027465820289
 21
40.126373291015618
 31
0.0
  0
LINE
  8
DETAIL
  6
CONTINUOUS
 62
     5
 10
-315.500244140625
 20
19.248159408569339
 30
0.0
 11
-307.20027465820289
 21
23.764165878295671
 31
0.0
  0
LINE
  8
DETAIL
  6
CONTINUOUS
 62
     5
 10
-315.5
 20
19.248159408569339
 30
0.0
 11
-315.5
 21
24.064178641557191
 31
0.0
  0
ARC
  8
DETAIL
  6
CONTINUOUS
 62
     5
 10
-307.20027465820289
 20
25.264165878295671
 30
0.0
 40
1.499999999999841
 50
270.0
 51
90.0
  0
ARC
  8
DETAIL
  6
CONTINUOUS
 62
     5
 10
-307.20027465820289
 20
41.626373291015618
 30
0.0
 40
1.499999999999841
 50
270.0
 51
90.0
  0
ARC
  8
DETAIL
  6
CONTINUOUS
 62
     5
 10
-307.20027465820289
 20
57.276367187500227
 30
0.0
 40
1.5000000000000679
 50
270.0
 51
90.0
  0
ARC
  8
DETAIL
  6
CONTINUOUS
 62
     5
 10
-342.09999999999991
 20
41.5
 30
0.0
 40
3.0
 50
90.0
 51
180.0
  0
LINE
  8
DETAIL
  6
CONTINUOUS
 62
     5
 10
-342.09999999999991
 20
44.5
 30
0.0
 11
-338.10011919800399
 21
44.5
 31
0.0
  0
LINE
  8
DETAIL
  6
CONTINUOUS
 62
     5
 10
-345.09999999999991
 20
41.5
 30
0.0
 11
-345.09999999999991
 21
0.0
 31
0.0
  0
LINE
  8
DETAIL
  6
CONTINUOUS
 62
     5
 10
-315.500244140625
 20
46.623138427734382
 30
0.0
 11
-307.20027655958938
 21
55.776367187500909
 31
0.0
  0
LINE
  8
DETAIL
  6
CONTINUOUS
 62
     5
 10
-315.500244140625
 20
46.623138427734382
 30
0.0
 11
-263.5
 21
46.623138427734382
 31
0.0
  0
ARC
  8
DETAIL
  6
CONTINUOUS
 62
     5
 10
-338.10011919800399
 20
47.5
 30
0.0
 40
3.0
 50
270.0
 51
0.0
  0
LINE
  8
DETAIL
  6
CONTINUOUS
 62
     5
 10
-341.59999999999991
 20
44.5
 30
0.0
 11
-338.10011919800399
 21
44.5
 31
0.0
  0
LINE
  8
DETAIL
  6
CONTINUOUS
 62
     5
 10
-335.10011919800399
 20
0.0
 30
0.0
 11
-335.10011919800399
 21
89.983691943753229
 31
0.0
  0
ARC
  8
DETAIL
  6
CONTINUOUS
 62
     5
 10
-271.09928554534918
 20
0.0
 30
0.0
 40
3.1499999999999768
 50
180.0
 51
0.0
  0
LINE
  8
DETAIL
  6
CONTINUOUS
 62
     5
 10
-263.5
 20
-112.04381298213001
 30
0.0
 11
-310.97892432815797
 21
-110.12606963572151
 31
0.0
  0
LINE
  8
DETAIL
  6
CONTINUOUS
 62
     5
 10
-311.47892432815797
 20
-110.12606963572151
 30
0.0
 11
-315.40729034361812
 21
-109.967397174308
 31
0.0
  0
LINE
  8
DETAIL
  6
CONTINUOUS
 62
     5
 10
-307.20027465820289
 20
-98.446319580078125
 30
0.0
 11
-263.5
 21
-98.446319580078125
 31
0.0
  0
LINE
  8
DETAIL
  6
CONTINUOUS
 62
     5
 10
-307.20027465820289
 20
-96.14631958007817
 30
0.0
 11
-263.5
 21
-96.14631958007817
 31
0.0
  0
LINE
  8
DETAIL
  6
CONTINUOUS
 62
     5
 10
-307.20027465820289
 20
-86.346319580078216
 30
0.0
 11
-263.5
 21
-86.346319580078216
 31
0.0
  0
LINE
  8
DETAIL
  6
CONTINUOUS
 62
     5
 10
-307.20027465820289
 20
-84.046319580078034
 30
0.0
 11
-263.5
 21
-84.046319580078034
 31
0.0
  0
LINE
  8
DETAIL
  6
CONTINUOUS
 62
     5
 10
-307.20027465820289
 20
-70.446319580078125
 30
0.0
 11
-263.5
 21
-70.446319580078125
 31
0.0
  0
LINE
  8
DETAIL
  6
CONTINUOUS
 62
     5
 10
-307.20027465820289
 20
-73.446319580078125
 30
0.0
 11
-263.5
 21
-73.446319580078125
 31
0.0
  0
LINE
  8
DETAIL
  6
CONTINUOUS
 62
     5
 10
-315.5
 20
-84.928698730468795
 30
0.0
 11
-315.5
 21
-87.388484337071304
 31
0.0
  0
LINE
  8
DETAIL
  6
CONTINUOUS
 62
     5
 10
-307.20027465820289
 20
-98.446319580078125
 30
0.0
 11
-315.500244140625
 21
-87.388159065246782
 31
0.0
  0
LINE
  8
DETAIL
  6
CONTINUOUS
 62
     5
 10
-307.20027465820289
 20
-86.346319580078216
 30
0.0
 11
-315.500244140625
 21
-75.928594627380107
 31
0.0
  0
LINE
  8
DETAIL
  6
CONTINUOUS
 62
     5
 10
-307.20027324557901
 20
-73.446319580077216
 30
0.0
 11
-315.50023801352239
 21
-62.970640831533728
 31
0.0
  0
ARC
  8
DETAIL
  6
CONTINUOUS
 62
     5
 10
-307.20027465820289
 20
-97.296319580078034
 30
0.0
 40
1.1500000000000909
 50
270.0
 51
90.0
  0
ARC
  8
DETAIL
  6
CONTINUOUS
 62
     5
 10
-307.20027465820289
 20
-85.196319580078125
 30
0.0
 40
1.1500000000000909
 50
270.0
 51
90.0
  0
LINE
  8
DETAIL
  6
CONTINUOUS
 62
     5
 10
-315.500244140625
 20
-84.928698730468795
 30
0.0
 11
-308.32971605186913
 21
-84.928698730468795
 31
0.0
  0
LINE
  8
DETAIL
  6
CONTINUOUS
 62
     5
 10
-315.500244140625
 20
-72.828698730468659
 30
0.0
 11
-307.68961922637391
 21
-72.828698730468659
 31
0.0
  0
ARC
  8
DETAIL
  6
CONTINUOUS
 62
     5
 10
-307.20027465820289
 20
-71.946319580078125
 30
0.0
 40
1.4999999999999829
 50
270.0
 51
90.0
  0
ARC
  8
DETAIL
  6
CONTINUOUS
 62
     5
 10
-315.10011919800399
 20
-89.983691943753229
 30
0.0
 40
20.0
 50
180.0
 51
267.68699680221681
  0
LINE
  8
DETAIL
  6
CONTINUOUS
 62
     5
 10
-315.5
 20
-72.828698730468659
 30
0.0
 11
-315.5
 21
-75.928901061022771
 31
0.0
  0
LINE
  8
DETAIL
  6
CONTINUOUS
 62
     5
 10
-315.500244140625
 20
-84.928698730468795
 30
0.0
 11
-307.20027465820289
 21
-96.14631958007817
 31
0.0
  0
LINE
  8
DETAIL
  6
CONTINUOUS
 62
     5
 10
-315.500244140625
 20
-72.828698730468659
 30
0.0
 11
-307.20027465820289
 21
-84.046319580078034
 31
0.0
  0
LINE
  8
DETAIL
  6
CONTINUOUS
 62
     5
 10
-315.500244140625
 20
-72.828698730468659
 30
0.0
 11
-308.68961922637391
 21
-72.828698730468659
 31
0.0
  0
LINE
  8
DETAIL
  6
CONTINUOUS
 62
     5
 10
-315.500244140625
 20
-59.22869873046875
 30
0.0
 11
-263.5
 21
-59.22869873046875
 31
0.0
  0
LINE
  8
DETAIL
  6
CONTINUOUS
 62
     5
 10
-315.500244140625
 20
-33.219848632812727
 30
0.0
 11
-263.5
 21
-33.219848632812727
 31
0.0
  0
LINE
  8
DETAIL
  6
CONTINUOUS
 62
     5
 10
-315.500244140625
 20
-19.24815940856956
 30
0.0
 11
-263.5
 21
-19.24815940856956
 31
0.0
  0
LINE
  8
DETAIL
  6
CONTINUOUS
 62
     5
 10
-307.20029039596011
 20
-55.776351928710938
 30
0.0
 11
-263.5
 21
-55.776351928710938
 31
0.0
  0
LINE
  8
DETAIL
  6
CONTINUOUS
 62
     5
 10
-307.20027465820289
 20
-40.126373291015618
 30
0.0
 11
-263.5
 21
-40.126373291015618
 31
0.0
  0
LINE
  8
DETAIL
  6
CONTINUOUS
 62
     5
 10
-307.20027465820289
 20
-23.76416587829544
 30
0.0
 11
-263.5
 21
-23.76416587829544
 31
0.0
  0
LINE
  8
DETAIL
  6
CONTINUOUS
 62
     5
 10
-307.20027465820289
 20
-26.76416587829544
 30
0.0
 11
-263.5
 21
-26.76416587829544
 31
0.0
  0
LINE
  8
DETAIL
  6
CONTINUOUS
 62
     5
 10
-307.20027465820289
 20
-43.126373291015618
 30
0.0
 11
-263.5
 21
-43.126373291015618
 31
0.0
  0
LINE
  8
DETAIL
  6
CONTINUOUS
 62
     5
 10
-307.2002732455785
 20
-58.7763671875
 30
0.0
 11
-263.5
 21
-58.7763671875
 31
0.0
  0
LINE
  8
DETAIL
  6
CONTINUOUS
 62
     5
 10
-315.5
 20
-59.229028692762313
 30
0.0
 11
-315.5
 21
-62.970941236808812
 31
0.0
  0
LINE
  8
DETAIL
  6
CONTINUOUS
 62
     5
 10
-315.5
 20
-46.623138427734382
 30
0.0
 11
-315.5
 21
-50.659751216386887
 31
0.0
  0
LINE
  8
DETAIL
  6
CONTINUOUS
 62
     5
 10
-315.5
 20
-33.219848632812727
 30
0.0
 11
-315.5
 21
-37.481694926026186
 31
0.0
  0
LINE
  8
DETAIL
  6
CONTINUOUS
 62
     5
 10
-315.500244140625
 20
-59.22869873046875
 30
0.0
 11
-307.20027465820289
 21
-70.446319580078125
 31
0.0
  0
LINE
  8
DETAIL
  6
CONTINUOUS
 62
     5
 10
-307.20027324557901
 20
-58.776367187499552
 30
0.0
 11
-315.50024960878
 21
-50.659507114542748
 31
0.0
  0
LINE
  8
DETAIL
  6
CONTINUOUS
 62
     5
 10
-315.50023886765121
 20
-37.481532471152832
 30
0.0
 11
-307.20027324557901
 21
-43.126373291014943
 31
0.0
  0
LINE
  8
DETAIL
  6
CONTINUOUS
 62
     5
 10
-315.50025083032227
 20
-24.064097043850321
 30
0.0
 11
-307.20027324557901
 21
-26.764165878294989
 31
0.0
  0
LINE
  8
DETAIL
  6
CONTINUOUS
 62
     5
 10
-315.500244140625
 20
-33.219848632812727
 30
0.0
 11
-307.20027465820289
 21
-40.126373291015618
 31
0.0
  0
LINE
  8
DETAIL
  6
CONTINUOUS
 62
     5
 10
-315.500244140625
 20
-19.24815940856956
 30
0.0
 11
-307.20027465820289
 21
-23.76416587829544
 31
0.0
  0
LINE
  8
DETAIL
  6
CONTINUOUS
 62
     5
 10
-315.5
 20
-19.24815940856956
 30
0.0
 11
-315.5
 21
-24.064178641557191
 31
0.0
  0
ARC
  8
DETAIL
  6
CONTINUOUS
 62
     5
 10
-307.20027465820289
 20
-25.26416587829544
 30
0.0
 40
1.4999999999999829
 50
270.0
 51
90.0
  0
ARC
  8
DETAIL
  6
CONTINUOUS
 62
     5
 10
-307.20027465820289
 20
-41.626373291015618
 30
0.0
 40
1.4999999999999829
 50
270.0
 51
90.0
  0
ARC
  8
DETAIL
  6
CONTINUOUS
 62
     5
 10
-307.20027465820289
 20
-57.2763671875
 30
0.0
 40
1.4999999999999829
 50
270.0
 51
90.0
  0
ARC
  8
DETAIL
  6
CONTINUOUS
 62
     5
 10
-342.09999999999991
 20
-41.5
 30
0.0
 40
3.0
 50
180.0
 51
270.0
  0
LINE
  8
DETAIL
  6
CONTINUOUS
 62
     5
 10
-342.09999999999991
 20
-44.5
 30
0.0
 11
-338.10011919800399
 21
-44.5
 31
0.0
  0
LINE
  8
DETAIL
  6
CONTINUOUS
 62
     5
 10
-345.09999999999991
 20
-41.5
 30
0.0
 11
-345.09999999999991
 21
0.0
 31
0.0
  0
LINE
  8
DETAIL
  6
CONTINUOUS
 62
     5
 10
-315.500244140625
 20
-46.623138427734382
 30
0.0
 11
-307.20027655958938
 21
-55.776367187501357
 31
0.0
  0
LINE
  8
DETAIL
  6
CONTINUOUS
 62
     5
 10
-315.500244140625
 20
-46.623138427734382
 30
0.0
 11
-263.5
 21
-46.623138427734382
 31
0.0
  0
ARC
  8
DETAIL
  6
CONTINUOUS
 62
     5
 10
-338.10011919800399
 20
-47.5
 30
0.0
 40
3.0
 50
0.0
 51
90.0
  0
LINE
  8
DETAIL
  6
CONTINUOUS
 62
     5
 10
-341.59999999999991
 20
-44.5
 30
0.0
 11
-338.10011919800399
 21
-44.5
 31
0.0
  0
LINE
  8
DETAIL
  6
CONTINUOUS
 62
     5
 10
-335.10011919800399
 20
0.0
 30
0.0
 11
-335.10011919800399
 21
-89.983691943753229
 31
0.0
  0
LINE
  8
DETAIL
  6
CONTINUOUS
 62
     5
 10
-236.49950790393541
 20
-394.99998140334651
 30
0.0
 11
236.49950790393541
 21
-394.99998140334651
 31
0.0
  0
LINE
  8
DETAIL
  6
CONTINUOUS
 62
     5
 10
-236.49950790393541
 20
-394.99998140334651
 30
0.0
 11
-236.49950790393541
 21
-345.99998497962599
 31
0.0
  0
LINE
  8
DETAIL
  6
CONTINUOUS
 62
     5
 10
236.49950790393541
 20
-394.99998140334651
 30
0.0
 11
236.49950790393541
 21
-345.99998497962599
 31
0.0
  0
LINE
  8
DETAIL
  6
CONTINUOUS
 62
     5
 10
-262.49975824350298
 20
-345.99998497962599
 30
0.0
 11
-262.49975824350298
 21
-344.99999999999977
 31
0.0
  0
LINE
  8
DETAIL
  6
CONTINUOUS
 62
     5
 10
262.5
 20
-345.99998497962599
 30
0.0
 11
262.5
 21
334.99999999999977
 31
0.0
  0
LINE
  8
DETAIL
  6
CONTINUOUS
 62
     5
 10
262.5
 20
-345.99998497962599
 30
0.0
 11
-262.49975824350298
 21
-345.99998497962599
 31
0.0
  0
LINE
  8
BASIS
  6
DASHDOT
 62
     6
 10
380.39598447958451
 20
0.0
 30
0.0
 11
-407.88620329210721
 21
0.0
 31
0.0
  0
LINE
  8
DETAIL
  6
CONTINUOUS
 62
     5
 10
215.5
 20
-303.48528137423892
 30
0.0
 11
215.5
 21
-286.51471862576182
 31
0.0
  0
LINE
  8
DETAIL
  6
CONTINUOUS
 62
     5
 10
229.5
 20
-303.48528137423892
 30
0.0
 11
229.5
 21
-286.51471862576182
 31
0.0
  0
ARC
  8
DETAIL
  6
CONTINUOUS
 62
     5
 10
222.5
 20
-295.00000000000023
 30
0.0
 40
11.00000000000005
 50
230.47880364136611
 51
309.52119635863397
  0
ARC
  8
DETAIL
  6
CONTINUOUS
 62
     5
 10
222.5
 20
-295.00000000000023
 30
0.0
 40
10.999999999999879
 50
50.478803641366078
 51
129.52119635863389
  0
LINE
  8
DETAIL
  6
CONTINUOUS
 62
     5
 10
215.5
 20
276.51471862576091
 30
0.0
 11
215.5
 21
293.48528137423841
 31
0.0
  0
LINE
  8
DETAIL
  6
CONTINUOUS
 62
     5
 10
229.5
 20
276.51471862576091
 30
0.0
 11
229.5
 21
293.48528137423841
 31
0.0
  0
ARC
  8
DETAIL
  6
CONTINUOUS
 62
     5
 10
222.5
 20
284.99999999999977
 30
0.0
 40
11.00000000000005
 50
230.47880364136611
 51
309.52119635863397
  0
ARC
  8
DETAIL
  6
CONTINUOUS
 62
     5
 10
222.5
 20
284.99999999999977
 30
0.0
 40
10.999999999999879
 50
50.478803641366078
 51
129.52119635863389
  0
LINE
  8
DETAIL
  6
CONTINUOUS
 62
     5
 10
-230.5
 20
276.51471862576091
 30
0.0
 11
-230.5
 21
293.48528137423841
 31
0.0
  0
LINE
  8
DETAIL
  6
CONTINUOUS
 62
     5
 10
-216.5
 20
276.51471862576091
 30
0.0
 11
-216.5
 21
293.48528137423841
 31
0.0
  0
ARC
  8
DETAIL
  6
CONTINUOUS
 62
     5
 10
-223.5
 20
284.99999999999977
 30
0.0
 40
11.00000000000005
 50
230.47880364136611
 51
309.52119635863397
  0
ARC
  8
DETAIL
  6
CONTINUOUS
 62
     5
 10
-223.5
 20
284.99999999999977
 30
0.0
 40
10.999999999999879
 50
50.478803641366078
 51
129.52119635863389
  0
LINE
  8
DETAIL
  6
CONTINUOUS
 62
     5
 10
-230.5
 20
-303.48528137423892
 30
0.0
 11
-230.5
 21
-286.51471862576182
 31
0.0
  0
LINE
  8
DETAIL
  6
CONTINUOUS
 62
     5
 10
-216.5
 20
-303.48528137423892
 30
0.0
 11
-216.5
 21
-286.51471862576182
 31
0.0
  0
ARC
  8
DETAIL
  6
CONTINUOUS
 62
     5
 10
-223.5
 20
-295.00000000000023
 30
0.0
 40
11.00000000000005
 50
230.47880364136611
 51
309.52119635863397
  0
ARC
  8
DETAIL
  6
CONTINUOUS
 62
     5
 10
-223.5
 20
-295.00000000000023
 30
0.0
 40
10.999999999999879
 50
50.478803641366078
 51
129.52119635863389
  0
LINE
  8
NOTE
  6
CONTINUOUS
 62
     4
 10
-223.5
 20
-324.68246303308558
 30
0.0
 11
-223.5
 21
-267.8454391667633
 31
0.0
  0
LINE
  8
NOTE
  6
CONTINUOUS
 62
     4
 10
-249.6372492165747
 20
-295.00000000000023
 30
0.0
 11
-197.70955930709809
 21
-295.00000000000023
 31
0.0
  0
LINE
  8
NOTE
  6
CONTINUOUS
 62
     4
 10
191.367372615839
 20
-295.00000000000023
 30
0.0
 11
248.29044069290191
 21
-295.00000000000023
 31
0.0
  0
LINE
  8
NOTE
  6
CONTINUOUS
 62
     4
 10
222.5
 20
-327.1636817907762
 30
0.0
 11
222.5
 21
-264.82676746130119
 31
0.0
  0
LINE
  8
NOTE
  6
CONTINUOUS
 62
     4
 10
-246.43587225787221
 20
284.99999999999977
 30
0.0
 11
-197.70955930709809
 21
284.99999999999977
 31
0.0
  0
LINE
  8
NOTE
  6
CONTINUOUS
 62
     4
 10
187.2209169788116
 20
284.99999999999977
 30
0.0
 11
248.29044069290191
 21
284.99999999999977
 31
0.0
  0
LINE
  8
NOTE
  6
CONTINUOUS
 62
     4
 10
-223.5
 20
255.31753696691479
 30
0.0
 11
-223.5
 21
312.15456083323647
 31
0.0
  0
LINE
  8
NOTE
  6
CONTINUOUS
 62
     4
 10
222.5
 20
255.31753696691479
 30
0.0
 11
222.5
 21
312.15456083323647
 31
0.0
  0
LINE
  8
BASIS
  6
DASHDOT
 62
     6
 10
0.0
 20
377.71738584843371
 30
0.0
 11
0.0
 21
-446.48897778792968
 31
0.0
  0
LINE
  8
OUTLINE
  6
CONTINUOUS
 62
     3
 10
-263.5
 20
112.04381298213001
 30
0.0
 11
-263.5
 21
334.99999999999977
 31
0.0
  0
LINE
  8
OUTLINE
  6
CONTINUOUS
 62
     3
 10
-236.49950790393541
 20
-345.99998497962599
 30
0.0
 11
-262.49975824350349
 21
-345.99998497962599
 31
0.0
  0
CIRCLE
  8
FIX
  6
CONTINUOUS
 62
    11
 10
222.5
 20
334.99999999999977
 30
0.0
 40
7.0
  0
CIRCLE
  8
FIX
  6
CONTINUOUS
 62
    11
 10
222.5
 20
284.99999999999977
 30
0.0
 40
7.0
  0
LINE
  8
SIZE
  6
CONTINUOUS
 62
    30
 10
-236.49950790393541
 20
-414.99998140334651
 30
0.0
 11
-236.49950790393541
 21
-690.47426654437413
 31
0.0
  0
LINE
  8
SIZE
  6
CONTINUOUS
 62
    30
 10
236.49950790393541
 20
-414.99998140334651
 30
0.0
 11
236.49950790393541
 21
-690.47426654437413
 31
0.0
  0
LINE
  8
SIZE
  6
CONTINUOUS
 62
    30
 10
-224.49950790393541
 20
-670.47426654437413
 30
0.0
 11
224.49950790393541
 21
-670.47426654437413
 31
0.0
  0
CIRCLE
  8
SIZE
  6
CONTINUOUS
 62
    30
 10
-236.49950790393541
 20
-670.47426654437413
 30
0.0
 40
6.0
  0
LINE
  8
SIZE
  6
CONTINUOUS
 62
    30
 10
-236.49950790393541
 20
-670.47426654437413
 30
0.0
 11
-224.49950790393541
 21
-670.47426654437413
 31
0.0
  0
CIRCLE
  8
SIZE
  6
CONTINUOUS
 62
    30
 10
236.49950790393541
 20
-670.47426654437413
 30
0.0
 40
6.0
  0
LINE
  8
SIZE
  6
CONTINUOUS
 62
    30
 10
236.49950790393541
 20
-670.47426654437413
 30
0.0
 11
224.49950790393541
 21
-670.47426654437413
 31
0.0
  0
TEXT
  8
SIZE
  6
CONTINUOUS
 62
    30
 10
-110.5371428571429
 20
-645.47426654437413
 30
0.0
 40
64.0
  1
□473
 41
0.9
 72
     1
 11
0.0
 21
-645.47426654437413
 31
0.0
  0
LINE
  8
SIZE
  6
CONTINUOUS
 62
    30
 10
-283.5
 20
127.5
 30
0.0
 11
-447.88620329210721
 21
127.5000000000001
 31
0.0
  0
LINE
  8
SIZE
  6
CONTINUOUS
 62
    30
 10
-283.5
 20
-127.5
 30
0.0
 11
-447.88620329210721
 21
-127.4999999999999
 31
0.0
  0
LINE
  8
SIZE
  6
CONTINUOUS
 62
    30
 10
-427.88620329210721
 20
115.5000000000001
 30
0.0
 11
-427.88620329210721
 21
-115.4999999999999
 31
0.0
  0
CIRCLE
  8
SIZE
  6
CONTINUOUS
 62
    30
 10
-427.88620329210721
 20
127.5000000000001
 30
0.0
 40
6.0
  0
LINE
  8
SIZE
  6
CONTINUOUS
 62
    30
 10
-427.88620329210721
 20
127.5000000000001
 30
0.0
 11
-427.88620329210721
 21
115.5000000000001
 31
0.0
  0
CIRCLE
  8
SIZE
  6
CONTINUOUS
 62
    30
 10
-427.88620329210721
 20
-127.4999999999999
 30
0.0
 40
6.0
  0
LINE
  8
SIZE
  6
CONTINUOUS
 62
    30
 10
-427.88620329210721
 20
-127.4999999999999
 30
0.0
 11
-427.88620329210721
 21
-115.4999999999999
 31
0.0
  0
TEXT
  8
SIZE
  6
CONTINUOUS
 62
    30
 10
-463.55286995877373
 20
-114.3771428571429
 30
0.0
 40
64.0
  1
φ255
 50
90.0
 41
0.9
 72
     1
 11
-463.55286995877373
 21
0.0
 31
0.0
  0
ENDSEC
  0
EOF
