  0
SECTION
  2
HEADER
  9
$ACADVER
  1
AC1009
  9
$DWGCODEPAGE
  3
dos932
  9
$INSBASE
 10
0.0
 20
0.0
 30
0.0
  9
$EXTMIN
 10
-798.96696362291368
 20
-524.87181455929749
 30
-0.0015258207003583
  9
$EXTMAX
 10
1178.7368891862409
 20
859.40552591276901
 30
0.0000000349246037
  9
$LIMMIN
 10
-2970.0
 20
-2100.0
  9
$LIMMAX
 10
2970.0
 20
2100.0
  9
$ORTHOMODE
 70
     1
  9
$REGENMODE
 70
     1
  9
$FILLMODE
 70
     1
  9
$QTEXTMODE
 70
     0
  9
$MIRRTEXT
 70
     0
  9
$LTSCALE
 40
20.0
  9
$ATTMODE
 70
     1
  9
$TEXTSIZE
 40
64.0
  9
$TRACEWID
 40
0.05
  9
$TEXTSTYLE
  7
STANDARD
  9
$CLAYER
  8
SIZE
  9
$CELTYPE
  6
CONTINUOUS
  9
$CECOLOR
 62
     7
  9
$DIMSCALE
 40
1.0
  9
$DIMASZ
 40
12.0
  9
$DIMEXO
 40
20.0
  9
$DIMDLI
 40
200.0
  9
$DIMRND
 40
0.0
  9
$DIMDLE
 40
0.0
  9
$DIMEXE
 40
20.0
  9
$DIMTP
 40
0.0
  9
$DIMTM
 40
0.0
  9
$DIMTXT
 40
64.0
  9
$DIMCEN
 40
0.09
  9
$DIMTSZ
 40
0.0
  9
$DIMTOL
 70
     0
  9
$DIMLIM
 70
     0
  9
$DIMTIH
 70
     0
  9
$DIMTOH
 70
     0
  9
$DIMSE1
 70
     0
  9
$DIMSE2
 70
     0
  9
$DIMTAD
 70
     1
  9
$DIMZIN
 70
     8
  9
$DIMBLK
  1

  9
$DIMASO
 70
     1
  9
$DIMSHO
 70
     0
  9
$DIMPOST
  1

  9
$DIMAPOST
  1

  9
$DIMALT
 70
     0
  9
$DIMALTD
 70
     2
  9
$DIMALTF
 40
25.399999999999999
  9
$DIMLFAC
 40
1.0
  9
$DIMTOFL
 70
     1
  9
$DIMTVP
 40
0.0
  9
$DIMTIX
 70
     1
  9
$DIMSOXD
 70
     0
  9
$DIMSAH
 70
     0
  9
$DIMBLK1
  1

  9
$DIMBLK2
  1

  9
$DIMSTYLE
  2
STANDARD
  9
$DIMCLRD
 70
     7
  9
$DIMCLRE
 70
     7
  9
$DIMCLRT
 70
     7
  9
$DIMTFAC
 40
1.0
  9
$DIMGAP
 40
25.0
  9
$LUNITS
 70
     2
  9
$LUPREC
 70
     4
  9
$SKETCHINC
 40
0.1
  9
$FILLETRAD
 40
3.0
  9
$AUNITS
 70
     1
  9
$AUPREC
 70
     3
  9
$MENU
  1
ACAD
  9
$ELEVATION
 40
0.0
  9
$PELEVATION
 40
0.0
  9
$THICKNESS
 40
0.0
  9
$LIMCHECK
 70
     0
  9
$CHAMFERA
 40
0.0
  9
$CHAMFERB
 40
0.0
  9
$SKPOLY
 70
     0
  9
$TDCREATE
 40
2453019.62301037
  9
$TDUPDATE
 40
2459025.61198941
  9
$TDINDWG
 40
1.7138701505
  9
$TDUSRTIMER
 40
1.7138701505
  9
$USRTIMER
 70
     1
  9
$ANGBASE
 50
0.0
  9
$ANGDIR
 70
     0
  9
$PDMODE
 70
     3
  9
$PDSIZE
 40
-2.0
  9
$PLINEWID
 40
0.0
  9
$SPLFRAME
 70
     0
  9
$SPLINETYPE
 70
     6
  9
$SPLINESEGS
 70
     8
  9
$SURFTAB1
 70
     6
  9
$SURFTAB2
 70
     6
  9
$SURFTYPE
 70
     6
  9
$SURFU
 70
     6
  9
$SURFV
 70
     6
  9
$UCSNAME
  2

  9
$UCSORG
 10
0.0
 20
0.0
 30
0.0
  9
$UCSXDIR
 10
1.0
 20
0.0
 30
0.0
  9
$UCSYDIR
 10
0.0
 20
1.0
 30
0.0
  9
$PUCSNAME
  2

  9
$PUCSORG
 10
0.0
 20
0.0
 30
0.0
  9
$PUCSXDIR
 10
1.0
 20
0.0
 30
0.0
  9
$PUCSYDIR
 10
0.0
 20
1.0
 30
0.0
  9
$USERI1
 70
     0
  9
$USERI2
 70
     0
  9
$USERI3
 70
     0
  9
$USERI4
 70
     0
  9
$USERI5
 70
     0
  9
$USERR1
 40
20.0
  9
$USERR2
 40
0.0
  9
$USERR3
 40
0.0
  9
$USERR4
 40
0.0
  9
$USERR5
 40
0.0
  9
$WORLDVIEW
 70
     1
  9
$SHADEDGE
 70
     3
  9
$SHADEDIF
 70
    70
  9
$TILEMODE
 70
     1
  9
$MAXACTVP
 70
    48
  9
$PINSBASE
 10
0.0
 20
0.0
 30
0.0
  9
$PLIMCHECK
 70
     0
  9
$PEXTMIN
 10
-100000000000000000000.0
 20
-100000000000000000000.0
 30
-100000000000000000000.0
  9
$PEXTMAX
 10
100000000000000000000.0
 20
100000000000000000000.0
 30
100000000000000000000.0
  9
$PLIMMIN
 10
0.0
 20
0.0
  9
$PLIMMAX
 10
12.0
 20
9.0
  9
$UNITMODE
 70
     0
  9
$VISRETAIN
 70
     0
  9
$PLINEGEN
 70
     0
  9
$PSLTSCALE
 70
     0
  9
$TREEDEPTH
 70
  3020
  9
$ATTDIA
 70
     0
  9
$ATTREQ
 70
     1
  9
$BLIPMODE
 70
     1
  9
$COORDS
 70
     1
  9
$DRAGMODE
 70
     2
  9
$OSMODE
 70
     0
  9
$HANDLING
 70
     0
  9
$HANDSEED
  5
F998
  0
ENDSEC
  0
SECTION
  2
TABLES
  0
TABLE
  2
LTYPE
 70
     2
  0
LTYPE
  2
CONTINUOUS
 70
     0
  3
実線
 72
    65
 73
     0
 40
0.0
  0
LTYPE
  2
DASHDOT
 70
     0
  3
____ _ ____ _ ____ _ ____ _ ____ _ ____ _ ____
 72
    65
 73
     4
 40
5.5
 49
4.0
 49
-0.6
 49
0.3
 49
-0.6
  0
ENDTAB
  0
TABLE
  2
LAYER
 70
    12
  0
LAYER
  2
0
 70
     0
 62
     7
  6
CONTINUOUS
  0
LAYER
  2
BASIS
 70
     0
 62
     6
  6
DASHDOT
  0
LAYER
  2
OUTLINE
 70
     0
 62
     3
  6
CONTINUOUS
  0
LAYER
  2
DETAIL
 70
     0
 62
     5
  6
CONTINUOUS
  0
LAYER
  2
SIZE
 70
     0
 62
    30
  6
CONTINUOUS
  0
LAYER
  2
ARRANGE
 70
     0
 62
     1
  6
CONTINUOUS
  0
LAYER
  2
ETC
 70
     0
 62
    61
  6
CONTINUOUS
  0
LAYER
  2
FIX
 70
     0
 62
    11
  6
CONTINUOUS
  0
LAYER
  2
NOTE
 70
     0
 62
     4
  6
CONTINUOUS
  0
LAYER
  2
DEFPOINTS
 70
    64
 62
     7
  6
CONTINUOUS
  0
LAYER
  2
SERVICESPACE
 70
    64
 62
     2
  6
DASHDOT
  0
LAYER
  2
SYMBOLLINE
 70
    64
 62
    15
  6
CONTINUOUS
  0
ENDTAB
  0
TABLE
  2
STYLE
 70
     1
  0
STYLE
  2
STANDARD
 70
     0
 40
64.0
 41
0.9
 50
0.0
 71
     0
 42
64.0
  3
SIMPLEX.shx
  4
BIGFONT.shx
  0
ENDTAB
  0
TABLE
  2
APPID
 70
    19
  0
APPID
  2
ACAD
 70
     0
  0
APPID
  2
AUTOCAD_POSTSCRIPT_FIGURE
 70
     0
  0
APPID
  2
ACAD_EXEMPT_FROM_CAD_STANDARDS
 70
     0
  0
APPID
  2
ACAD_PSEXT
 70
     0
  0
APPID
  2
ACAUTHENVIRON
 70
     0
  0
APPID
  2
GENIUS_GENOENT_13
 70
     0
  0
APPID
  2
GENIUS_GENCFG_13
 70
     0
  0
APPID
  2
GENIUS_GENCFG0_13
 70
     0
  0
APPID
  2
GENIUS_GENCFG1_13
 70
     0
  0
APPID
  2
GENIUS_GENCFG2_13
 70
     0
  0
APPID
  2
GENIUS_GENCFG3_13
 70
     0
  0
APPID
  2
GENIUS_GENCFG4_13
 70
     0
  0
APPID
  2
GENIUS_GEVCFG0_13
 70
     0
  0
APPID
  2
CONTENTBLOCKICON
 70
     0
  0
APPID
  2
CONTENTBLOCKDESCRIPTION
 70
     0
  0
APPID
  2
ACAD_NAV_VCDISPLAY
 70
     0
  0
APPID
  2
ACAD_MLEADERVER
 70
     0
  0
APPID
  2
ACDBDYNAMICBLOCKTRUENAME
 70
     0
  0
APPID
  2
ACDBDYNAMICBLOCKGUID
 70
     0
  0
ENDTAB
  0
TABLE
  2
DIMSTYLE
 70
     1
  0
DIMSTYLE
  2
STANDARD
 70
     0
  3

  4

  5
_ORIGIN
  6

  7

 40
1.0
 41
12.0
 42
20.0
 43
200.0
 44
20.0
 45
0.0
 46
0.0
 47
0.0
 48
0.0
140
64.0
141
0.09
142
0.0
143
25.399999999999999
144
1.0
145
0.0
146
1.0
147
25.0
 71
     0
 72
     0
 73
     0
 74
     0
 75
     0
 76
     0
 77
     1
 78
     8
170
     0
171
     2
172
     1
173
     0
174
     1
175
     0
176
     7
177
     7
178
     7
  0
ENDTAB
  0
TABLE
  2
VIEW
 70
     1
  0
VIEW
  2
ALL
 70
     0
 40
4282.6198079999986
 10
0.0
 20
41.309904000000003
 41
5940.0
 11
0.0
 21
0.0
 31
1.0
 12
0.0
 22
0.0
 32
0.0
 42
50.0
 43
0.0
 44
0.0
 50
0.0
 71
     0
  0
ENDTAB
  0
TABLE
  2
UCS
 70
     0
  0
ENDTAB
  0
TABLE
  2
VPORT
 70
     1
  0
VPORT
  2
*ACTIVE
 70
     0
 10
0.0
 20
0.0
 11
1.0
 21
1.0
 12
189.8849627816636
 22
167.26685567673579
 13
0.0
 23
0.0
 14
1.0
 24
1.0
 15
0.0
 25
0.0
 16
0.0
 26
0.0
 36
1.0
 17
0.0
 27
0.0
 37
0.0
 40
1393.4548698011631
 41
1.747787610619469
 42
50.0
 43
0.0
 44
0.0
 50
0.0
 51
0.0
 71
     0
 72
  1000
 73
     1
 74
     3
 75
     0
 76
     0
 77
     0
 78
     0
  0
ENDTAB
  0
ENDSEC
  0
SECTION
  2
BLOCKS
  0
BLOCK
  8
0
  2
_ORIGIN
 70
     0
 10
0.0
 20
0.0
 30
0.0
  3
_ORIGIN
  1
_ORIGIN
  0
CIRCLE
  8
0
  6
CONTINUOUS
 62
     7
 10
0.0
 20
0.0
 30
0.0
 40
0.5
  0
LINE
  8
0
  6
CONTINUOUS
 62
     7
 10
0.0
 20
0.0
 30
0.0
 11
-1.0
 21
0.0
 31
0.0
  0
ENDBLK
  8
0
  0
ENDSEC
  0
SECTION
  2
ENTITIES
  0
TEXT
  8
ETC
  6
CONTINUOUS
 62
    61
 10
668.14900453991095
 20
792.89190888749363
 30
0.0
 40
64.0
  1
BG-45TR5_4
 41
0.9
  0
TEXT
  8
ETC
  6
CONTINUOUS
 62
    61
 10
663.96301053991056
 20
674.93659887266267
 30
0.0
 40
64.0
  1
産業扇
 41
0.9
  0
CIRCLE
  8
ARRANGE
  6
CONTINUOUS
 62
     1
 10
0.0
 20
0.0
 30
0.0
 40
40.0
  0
POINT
  8
ARRANGE
  6
CONTINUOUS
 62
     1
 10
0.0
 20
0.0
 30
0.0
  0
TEXT
  8
ETC
  6
CONTINUOUS
 62
    61
 10
714.66440878846652
 20
566.78782598643738
 30
0.0
 40
40.0
  1
BG-45TR5
 41
0.9
  0
LINE
  8
SIZE
  6
CONTINUOUS
 62
    30
 10
-410.00033119778197
 20
475.01804780384509
 30
0.0
 11
-410.00033119778197
 21
790.1674172141602
 31
0.0
  0
LINE
  8
SIZE
  6
CONTINUOUS
 62
    30
 10
390.00033119778209
 20
475.01804780384492
 30
0.0
 11
390.00033119778209
 21
790.1674172141602
 31
0.0
  0
LINE
  8
SIZE
  6
CONTINUOUS
 62
    30
 10
-398.00033119778197
 20
770.1674172141602
 30
0.0
 11
378.00033119778209
 21
770.1674172141602
 31
0.0
  0
CIRCLE
  8
SIZE
  6
CONTINUOUS
 62
    30
 10
-410.00033119778197
 20
770.1674172141602
 30
0.0
 40
6.0
  0
LINE
  8
SIZE
  6
CONTINUOUS
 62
    30
 10
-410.00033119778197
 20
770.1674172141602
 30
0.0
 11
-398.00033119778197
 21
770.1674172141602
 31
0.0
  0
CIRCLE
  8
SIZE
  6
CONTINUOUS
 62
    30
 10
390.00033119778209
 20
770.1674172141602
 30
0.0
 40
6.0
  0
LINE
  8
SIZE
  6
CONTINUOUS
 62
    30
 10
390.00033119778209
 20
770.1674172141602
 30
0.0
 11
378.00033119778209
 21
770.1674172141602
 31
0.0
  0
TEXT
  8
SIZE
  6
CONTINUOUS
 62
    30
 10
-110.8625706541747
 20
795.1674172141602
 30
0.0
 40
64.0
  1
□800
 41
0.9
 72
     1
 11
-0.3254277970318071
 21
795.1674172141602
 31
0.0
  0
LINE
  8
SIZE
  6
CONTINUOUS
 62
    30
 10
-359.30033119778182
 20
490.30772668264672
 30
0.0
 11
-359.30033119778182
 21
679.36456474787883
 31
0.0
  0
LINE
  8
SIZE
  6
CONTINUOUS
 62
    30
 10
339.30033119778142
 20
488.08195121189527
 30
0.0
 11
339.30033119778142
 21
679.36456474787883
 31
0.0
  0
LINE
  8
SIZE
  6
CONTINUOUS
 62
    30
 10
-347.30033119778182
 20
659.36456474787883
 30
0.0
 11
327.30033119778142
 21
659.36456474787883
 31
0.0
  0
CIRCLE
  8
SIZE
  6
CONTINUOUS
 62
    30
 10
-359.30033119778182
 20
659.36456474787883
 30
0.0
 40
6.0
  0
LINE
  8
SIZE
  6
CONTINUOUS
 62
    30
 10
-359.30033119778182
 20
659.36456474787883
 30
0.0
 11
-347.30033119778182
 21
659.36456474787883
 31
0.0
  0
CIRCLE
  8
SIZE
  6
CONTINUOUS
 62
    30
 10
339.30033119778142
 20
659.36456474787883
 30
0.0
 40
6.0
  0
LINE
  8
SIZE
  6
CONTINUOUS
 62
    30
 10
339.30033119778142
 20
659.36456474787883
 30
0.0
 11
327.30033119778142
 21
659.36456474787883
 31
0.0
  0
TEXT
  8
SIZE
  6
CONTINUOUS
 62
    30
 10
-74.382570654174671
 20
684.36456474787883
 30
0.0
 40
64.0
  1
700
 41
0.9
 72
     1
 11
-0.3254277970318071
 21
684.36456474787883
 31
0.0
  0
LINE
  8
SIZE
  6
CONTINUOUS
 62
    30
 10
420.15252057619091
 20
409.31804780384482
 30
0.0
 11
737.78496783466289
 21
409.31804780384482
 31
0.0
  0
LINE
  8
SIZE
  6
CONTINUOUS
 62
    30
 10
418.0642346058321
 20
-289.29596056668822
 30
0.0
 11
737.78496783466289
 21
-289.29596056668822
 31
0.0
  0
LINE
  8
SIZE
  6
CONTINUOUS
 62
    30
 10
717.78496783466289
 20
397.31804780384482
 30
0.0
 11
717.78496783466289
 21
-277.29596056668828
 31
0.0
  0
CIRCLE
  8
SIZE
  6
CONTINUOUS
 62
    30
 10
717.78496783466289
 20
409.31804780384482
 30
0.0
 40
6.0
  0
LINE
  8
SIZE
  6
CONTINUOUS
 62
    30
 10
717.78496783466289
 20
409.31804780384482
 30
0.0
 11
717.78496783466289
 21
397.31804780384482
 31
0.0
  0
CIRCLE
  8
SIZE
  6
CONTINUOUS
 62
    30
 10
717.78496783466289
 20
-289.29596056668822
 30
0.0
 40
6.0
  0
LINE
  8
SIZE
  6
CONTINUOUS
 62
    30
 10
717.78496783466289
 20
-289.29596056668822
 30
0.0
 11
717.78496783466289
 21
-277.29596056668828
 31
0.0
  0
TEXT
  8
SIZE
  6
CONTINUOUS
 62
    30
 10
692.78496783466289
 20
-73.953160796686504
 30
0.0
 40
64.0
  1
700
 50
90.0
 41
0.9
 72
     1
 11
692.78496783466289
 21
0.1039820604563602
 31
0.0
  0
LINE
  8
NOTE
  6
CONTINUOUS
 62
     4
 10
393.20761869555372
 20
-294.61554759921592
 30
0.0
 11
390.00033119778209
 21
-289.29596056668822
 31
0.0
  0
LINE
  8
NOTE
  6
CONTINUOUS
 62
     4
 10
390.00033119778209
 20
-289.29596056668822
 30
0.0
 11
395.4377216900848
 21
-292.29920613177529
 31
0.0
  0
LINE
  8
NOTE
  6
CONTINUOUS
 62
     4
 10
390.00033119778209
 20
-289.29596056668822
 30
0.0
 11
398.64500918785689
 21
-297.61879316430287
 31
0.0
  0
LINE
  8
NOTE
  6
CONTINUOUS
 62
     4
 10
398.64500918785689
 20
-297.61879316430287
 30
0.0
 11
634.3722240879024
 21
-524.83393768400947
 31
0.0
  0
LINE
  8
NOTE
  6
CONTINUOUS
 62
     4
 10
634.3722240879024
 20
-524.83393768400947
 30
0.0
 11
1155.955876630245
 21
-524.8339376840097
 31
0.0
  0
TEXT
  8
NOTE
  6
CONTINUOUS
 62
     4
 10
649.49938839789161
 20
-504.38321171306842
 30
0.0
 40
64.0
  1
14-φ14×22
 41
0.9
  0
LINE
  8
SIZE
  6
CONTINUOUS
 62
    30
 10
425.56730378362732
 20
0.0
 30
0.0
 11
597.54075028069019
 21
0.0
 31
0.0
  0
LINE
  8
SIZE
  6
CONTINUOUS
 62
    30
 10
405.00033119778209
 20
-339.99596056668878
 30
0.0
 11
597.54075028069019
 21
-339.99596056668878
 31
0.0
  0
LINE
  8
SIZE
  6
CONTINUOUS
 62
    30
 10
577.54075028069019
 20
-12.0
 30
0.0
 11
577.54075028069019
 21
-327.99596056668878
 31
0.0
  0
CIRCLE
  8
SIZE
  6
CONTINUOUS
 62
    30
 10
577.54075028069019
 20
0.0
 30
0.0
 40
6.0
  0
LINE
  8
SIZE
  6
CONTINUOUS
 62
    30
 10
577.54075028069019
 20
0.0
 30
0.0
 11
577.54075028069019
 21
-12.0
 31
0.0
  0
CIRCLE
  8
SIZE
  6
CONTINUOUS
 62
    30
 10
577.54075028069019
 20
-339.99596056668878
 30
0.0
 40
6.0
  0
LINE
  8
SIZE
  6
CONTINUOUS
 62
    30
 10
577.54075028069019
 20
-339.99596056668878
 30
0.0
 11
577.54075028069019
 21
-327.99596056668878
 31
0.0
  0
TEXT
  8
SIZE
  6
CONTINUOUS
 62
    30
 10
552.54075028069019
 20
-240.01276406802839
 30
0.0
 40
64.0
  1
340
 50
90.0
 41
0.9
 72
     1
 11
552.54075028069019
 21
-165.95562121088551
 31
0.0
  0
CIRCLE
  8
FIX
  6
CONTINUOUS
 62
    11
 10
339.30033119778142
 20
460.01804780384492
 30
0.0
 40
7.0
  0
CIRCLE
  8
FIX
  6
CONTINUOUS
 62
    11
 10
-359.30033119778182
 20
460.01804780384492
 30
0.0
 40
7.0
  0
CIRCLE
  8
FIX
  6
CONTINUOUS
 62
    11
 10
-410.00033119778197
 20
-289.29596056668822
 30
0.0
 40
7.0
  0
CIRCLE
  8
FIX
  6
CONTINUOUS
 62
    11
 10
-359.30033119778238
 20
-339.99596056668861
 30
0.0
 40
7.0
  0
CIRCLE
  8
FIX
  6
CONTINUOUS
 62
    11
 10
339.30033119778142
 20
-339.99596056668861
 30
0.0
 40
7.0
  0
CIRCLE
  8
FIX
  6
CONTINUOUS
 62
    11
 10
390.00033119778209
 20
-289.29596056668822
 30
0.0
 40
7.0
  0
CIRCLE
  8
FIX
  6
CONTINUOUS
 62
    11
 10
390.00033119778209
 20
409.31804780384482
 30
0.0
 40
7.0
  0
LINE
  8
SIZE
  6
CONTINUOUS
 62
    30
 10
-425.00033119778197
 20
-339.99596056668861
 30
0.0
 11
-591.39985674893262
 21
-339.99596056668861
 31
0.0
  0
LINE
  8
SIZE
  6
CONTINUOUS
 62
    30
 10
-510.0759704424122
 20
147.19804780000001
 30
0.0
 11
-591.39985674893251
 21
147.19804780000001
 31
0.0
  0
LINE
  8
SIZE
  6
CONTINUOUS
 62
    30
 10
-571.39985674893262
 20
-327.99596056668861
 30
0.0
 11
-571.39985674893251
 21
135.19804780000001
 31
0.0
  0
CIRCLE
  8
SIZE
  6
CONTINUOUS
 62
    30
 10
-571.39985674893262
 20
-339.99596056668861
 30
0.0
 40
6.0
  0
LINE
  8
SIZE
  6
CONTINUOUS
 62
    30
 10
-571.39985674893262
 20
-339.99596056668861
 30
0.0
 11
-571.39985674893262
 21
-327.99596056668861
 31
0.0
  0
CIRCLE
  8
SIZE
  6
CONTINUOUS
 62
    30
 10
-571.39985674893251
 20
147.19804780000001
 30
0.0
 40
6.0
  0
LINE
  8
SIZE
  6
CONTINUOUS
 62
    30
 10
-571.39985674893251
 20
147.19804780000001
 30
0.0
 11
-571.39985674893251
 21
135.19804780000001
 31
0.0
  0
TEXT
  8
SIZE
  6
CONTINUOUS
 62
    30
 10
-596.39985674893251
 20
-363.30469338013671
 30
0.0
 40
64.0
  1
487.2
 50
90.0
 41
0.9
 72
     1
 11
-596.39985674893251
 21
-248.10469338013669
 31
0.0
  0
LINE
  8
SIZE
  6
CONTINUOUS
 62
    30
 10
-460.00033119778197
 20
416.20219224395441
 30
0.0
 11
-460.00033119778197
 21
790.1674172141602
 31
0.0
  0
LINE
  8
SIZE
  6
CONTINUOUS
 62
    30
 10
-410.00033119778197
 20
475.01804780384509
 30
0.0
 11
-410.00033119778197
 21
790.1674172141602
 31
0.0
  0
LINE
  8
SIZE
  6
CONTINUOUS
 62
    30
 10
-472.00033119778197
 20
770.1674172141602
 30
0.0
 11
-484.00033119778197
 21
770.1674172141602
 31
0.0
  0
LINE
  8
SIZE
  6
CONTINUOUS
 62
    30
 10
-398.00033119778197
 20
770.1674172141602
 30
0.0
 11
-386.00033119778197
 21
770.1674172141602
 31
0.0
  0
LINE
  8
SIZE
  6
CONTINUOUS
 62
    30
 10
-460.00033119778197
 20
770.1674172141602
 30
0.0
 11
-410.00033119778197
 21
770.1674172141602
 31
0.0
  0
CIRCLE
  8
SIZE
  6
CONTINUOUS
 62
    30
 10
-460.00033119778197
 20
770.1674172141602
 30
0.0
 40
6.0
  0
LINE
  8
SIZE
  6
CONTINUOUS
 62
    30
 10
-460.00033119778197
 20
770.1674172141602
 30
0.0
 11
-472.00033119778197
 21
770.1674172141602
 31
0.0
  0
CIRCLE
  8
SIZE
  6
CONTINUOUS
 62
    30
 10
-410.00033119778197
 20
770.1674172141602
 30
0.0
 40
6.0
  0
LINE
  8
SIZE
  6
CONTINUOUS
 62
    30
 10
-410.00033119778197
 20
770.1674172141602
 30
0.0
 11
-398.00033119778197
 21
770.1674172141602
 31
0.0
  0
TEXT
  8
SIZE
  6
CONTINUOUS
 62
    30
 10
-481.62890262635352
 20
795.1674172141602
 30
0.0
 40
64.0
  1
50
 41
0.9
 72
     1
 11
-435.00033119778197
 21
795.1674172141602
 31
0.0
  0
LINE
  8
SIZE
  6
CONTINUOUS
 62
    30
 10
-480.00033119778197
 20
396.20219224395441
 30
0.0
 11
-729.68825344913773
 21
396.20219224395441
 31
0.0
  0
LINE
  8
SIZE
  6
CONTINUOUS
 62
    30
 10
-480.00033119778197
 20
-101.80609664395431
 30
0.0
 11
-729.68825344913773
 21
-101.80609664395421
 31
0.0
  0
LINE
  8
SIZE
  6
CONTINUOUS
 62
    30
 10
-709.68825344913762
 20
384.20219224395441
 30
0.0
 11
-709.68825344913785
 21
-89.80609664395422
 31
0.0
  0
CIRCLE
  8
SIZE
  6
CONTINUOUS
 62
    30
 10
-709.68825344913762
 20
396.20219224395441
 30
0.0
 40
6.0
  0
LINE
  8
SIZE
  6
CONTINUOUS
 62
    30
 10
-709.68825344913762
 20
396.20219224395441
 30
0.0
 11
-709.68825344913762
 21
384.20219224395441
 31
0.0
  0
CIRCLE
  8
SIZE
  6
CONTINUOUS
 62
    30
 10
-709.68825344913785
 20
-101.80609664395421
 30
0.0
 40
6.0
  0
LINE
  8
SIZE
  6
CONTINUOUS
 62
    30
 10
-709.68825344913785
 20
-101.80609664395421
 30
0.0
 11
-709.68825344913785
 21
-89.80609664395422
 31
0.0
  0
TEXT
  8
SIZE
  6
CONTINUOUS
 62
    30
 10
-734.68825344913773
 20
36.660904942857172
 30
0.0
 40
64.0
  1
□498
 50
90.0
 41
0.9
 72
     1
 11
-734.68825344913773
 21
147.19804780000001
 31
0.0
  0
LINE
  8
SIZE
  6
CONTINUOUS
 62
    30
 10
-410.00033119778197
 20
-354.99596056668861
 30
0.0
 11
-410.00033119778197
 21
-507.14006534855753
 31
0.0
  0
LINE
  8
SIZE
  6
CONTINUOUS
 62
    30
 10
0.0
 20
-393.686095161438
 30
0.0
 11
0.0
 21
-507.14006534855753
 31
0.0
  0
LINE
  8
SIZE
  6
CONTINUOUS
 62
    30
 10
-398.00033119778197
 20
-487.14006534855753
 30
0.0
 11
-12.0
 21
-487.14006534855753
 31
0.0
  0
CIRCLE
  8
SIZE
  6
CONTINUOUS
 62
    30
 10
-410.00033119778197
 20
-487.14006534855753
 30
0.0
 40
6.0
  0
LINE
  8
SIZE
  6
CONTINUOUS
 62
    30
 10
-410.00033119778197
 20
-487.14006534855753
 30
0.0
 11
-398.00033119778197
 21
-487.14006534855753
 31
0.0
  0
CIRCLE
  8
SIZE
  6
CONTINUOUS
 62
    30
 10
0.0
 20
-487.14006534855753
 30
0.0
 40
6.0
  0
LINE
  8
SIZE
  6
CONTINUOUS
 62
    30
 10
0.0
 20
-487.14006534855753
 30
0.0
 11
-12.0
 21
-487.14006534855753
 31
0.0
  0
TEXT
  8
SIZE
  6
CONTINUOUS
 62
    30
 10
-241.0714285714287
 20
-462.14006534855753
 30
0.0
 40
64.0
  1
410
 41
0.9
 72
     1
 11
-172.50000000000011
 21
-462.14006534855753
 31
0.0
  0
LINE
  8
OUTLINE
  6
CONTINUOUS
 62
     3
 10
-411.20033119778208
 20
-138.80195219999999
 30
0.0
 11
-410.00033119778197
 21
-138.80195219999999
 31
0.0
  0
LINE
  8
OUTLINE
  6
CONTINUOUS
 62
     3
 10
-460.00033119778197
 20
396.20219224395441
 30
0.0
 11
-460.00033119778197
 21
-101.80609664395431
 31
0.0
  0
LINE
  8
OUTLINE
  6
CONTINUOUS
 62
     3
 10
-412.40033119778218
 20
-101.80609664395431
 30
0.0
 11
-460.00033119778197
 21
-101.80609664395431
 31
0.0
  0
LINE
  8
OUTLINE
  6
CONTINUOUS
 62
     3
 10
-411.20033119778208
 20
-103.00609664395429
 30
0.0
 11
-411.20033119778208
 21
-138.80195219999999
 31
0.0
  0
ARC
  8
OUTLINE
  6
CONTINUOUS
 62
     3
 10
-412.40033119778218
 20
-103.00609664395429
 30
0.0
 40
1.199999999999932
 50
0.0
 51
90.0
  0
LINE
  8
OUTLINE
  6
CONTINUOUS
 62
     3
 10
-411.20033119778208
 20
433.19804780000021
 30
0.0
 11
-410.00033119778197
 21
433.19804780000021
 31
0.0
  0
LINE
  8
OUTLINE
  6
CONTINUOUS
 62
     3
 10
-412.40033119778218
 20
396.20219224395441
 30
0.0
 11
-460.00033119778197
 21
396.20219224395441
 31
0.0
  0
ARC
  8
OUTLINE
  6
CONTINUOUS
 62
     3
 10
-412.40033119778218
 20
397.40219224395418
 30
0.0
 40
1.1999999999999891
 50
270.0
 51
0.0
  0
LINE
  8
OUTLINE
  6
CONTINUOUS
 62
     3
 10
385.00033119778209
 20
-339.99596056668861
 30
0.0
 11
385.00033119778209
 21
-334.99596056668861
 31
0.0
  0
LINE
  8
OUTLINE
  6
CONTINUOUS
 62
     3
 10
385.00033119778209
 20
-334.99596056668861
 30
0.0
 11
390.00033119778209
 21
-334.99596056668861
 31
0.0
  0
LINE
  8
OUTLINE
  6
CONTINUOUS
 62
     3
 10
390.00033119778209
 20
-334.99596056668861
 30
0.0
 11
390.00033119778209
 21
455.01804780384492
 31
0.0
  0
LINE
  8
OUTLINE
  6
CONTINUOUS
 62
     3
 10
-405.00033119778197
 20
-339.99596056668861
 30
0.0
 11
385.00033119778209
 21
-339.99596056668861
 31
0.0
  0
LINE
  8
OUTLINE
  6
CONTINUOUS
 62
     3
 10
-405.00033119778197
 20
-339.99596056668861
 30
0.0
 11
-405.00033119778197
 21
-334.99596056668861
 31
0.0
  0
LINE
  8
OUTLINE
  6
CONTINUOUS
 62
     3
 10
-405.00033119778197
 20
-334.99596056668861
 30
0.0
 11
-410.00033119778197
 21
-334.99596056668861
 31
0.0
  0
LINE
  8
OUTLINE
  6
CONTINUOUS
 62
     3
 10
-405.00033119778197
 20
455.01804780384509
 30
0.0
 11
-410.00033119778197
 21
455.01804780384509
 31
0.0
  0
LINE
  8
OUTLINE
  6
CONTINUOUS
 62
     3
 10
-405.00033119778197
 20
455.01804780384509
 30
0.0
 11
-405.00033119778197
 21
460.01804780384509
 31
0.0
  0
LINE
  8
OUTLINE
  6
CONTINUOUS
 62
     3
 10
-405.00033119778197
 20
460.01804780384492
 30
0.0
 11
385.00033119778209
 21
460.01804780384492
 31
0.0
  0
LINE
  8
OUTLINE
  6
CONTINUOUS
 62
     3
 10
385.00033119778209
 20
455.01804780384492
 30
0.0
 11
385.00033119778209
 21
460.01804780384492
 31
0.0
  0
LINE
  8
OUTLINE
  6
CONTINUOUS
 62
     3
 10
385.00033119778209
 20
455.01804780384492
 30
0.0
 11
390.00033119778209
 21
455.01804780384492
 31
0.0
  0
LINE
  8
OUTLINE
  6
CONTINUOUS
 62
     3
 10
385.00033119778209
 20
-339.99596056668861
 30
0.0
 11
385.00033119778209
 21
-334.99596056668861
 31
0.0
  0
LINE
  8
OUTLINE
  6
CONTINUOUS
 62
     3
 10
385.00033119778209
 20
-334.99596056668861
 30
0.0
 11
390.00033119778209
 21
-334.99596056668861
 31
0.0
  0
LINE
  8
OUTLINE
  6
CONTINUOUS
 62
     3
 10
385.00033119778209
 20
455.01804780384492
 30
0.0
 11
390.00033119778209
 21
455.01804780384492
 31
0.0
  0
LINE
  8
OUTLINE
  6
CONTINUOUS
 62
     3
 10
385.00033119778209
 20
455.01804780384492
 30
0.0
 11
385.00033119778209
 21
460.01804780384492
 31
0.0
  0
LINE
  8
OUTLINE
  6
CONTINUOUS
 62
     3
 10
390.00033119778209
 20
-334.99596056668861
 30
0.0
 11
390.00033119778209
 21
455.01804780384492
 31
0.0
  0
LINE
  8
OUTLINE
  6
CONTINUOUS
 62
     3
 10
-405.00033119778197
 20
460.01804780384492
 30
0.0
 11
385.00033119778209
 21
460.01804780384492
 31
0.0
  0
LINE
  8
OUTLINE
  6
CONTINUOUS
 62
     3
 10
-405.00033119778197
 20
-339.99596056668861
 30
0.0
 11
385.00033119778209
 21
-339.99596056668861
 31
0.0
  0
LINE
  8
OUTLINE
  6
CONTINUOUS
 62
     3
 10
-405.00033119778197
 20
455.01804780384509
 30
0.0
 11
-410.00033119778197
 21
455.01804780384509
 31
0.0
  0
LINE
  8
OUTLINE
  6
CONTINUOUS
 62
     3
 10
-405.00033119778197
 20
455.01804780384509
 30
0.0
 11
-405.00033119778197
 21
460.01804780384509
 31
0.0
  0
LINE
  8
OUTLINE
  6
CONTINUOUS
 62
     3
 10
-410.00033119778197
 20
-334.99596056668861
 30
0.0
 11
-410.00033119778232
 21
-138.80195219999999
 31
0.0
  0
LINE
  8
OUTLINE
  6
CONTINUOUS
 62
     3
 10
-405.00033119778197
 20
-334.99596056668861
 30
0.0
 11
-410.00033119778197
 21
-334.99596056668861
 31
0.0
  0
LINE
  8
OUTLINE
  6
CONTINUOUS
 62
     3
 10
-405.00033119778197
 20
-339.99596056668861
 30
0.0
 11
-405.00033119778197
 21
-334.99596056668861
 31
0.0
  0
CIRCLE
  8
DETAIL
  6
CONTINUOUS
 62
     5
 10
0.0
 20
0.0
 30
0.0
 40
18.5
  0
LINE
  8
DETAIL
  6
CONTINUOUS
 62
     5
 10
-411.20033119778191
 20
393.00219224395443
 30
0.0
 11
-460.00033119778197
 21
393.00219224395443
 31
0.0
  0
LINE
  8
DETAIL
  6
CONTINUOUS
 62
     5
 10
-411.20033119778191
 20
-98.606096643954345
 30
0.0
 11
-411.20033119778191
 21
433.19804780000021
 31
0.0
  0
LINE
  8
DETAIL
  6
CONTINUOUS
 62
     5
 10
-412.00033119778197
 20
-99.406096643954356
 30
0.0
 11
-460.00033119778197
 21
-99.406096643954356
 31
0.0
  0
LINE
  8
DETAIL
  6
CONTINUOUS
 62
     5
 10
-411.20033119778191
 20
-138.80195219999999
 30
0.0
 11
-410.00033119778197
 21
-138.80195219999999
 31
0.0
  0
LINE
  8
DETAIL
  6
CONTINUOUS
 62
     5
 10
-460.00033119778197
 20
396.20219224395441
 30
0.0
 11
-460.00033119778197
 21
-101.80609664395431
 31
0.0
  0
LINE
  8
DETAIL
  6
CONTINUOUS
 62
     5
 10
-410.00033119778197
 20
397.40219224395418
 30
0.0
 11
-410.00033119778197
 21
-98.599452438482729
 31
0.0
  0
LINE
  8
DETAIL
  6
CONTINUOUS
 62
     5
 10
-412.40033119778218
 20
-101.80609664395431
 30
0.0
 11
-460.00033119778197
 21
-101.80609664395431
 31
0.0
  0
LINE
  8
DETAIL
  6
CONTINUOUS
 62
     5
 10
-412.00033119778197
 20
-100.6060966439543
 30
0.0
 11
-460.00033119778197
 21
-100.6060966439543
 31
0.0
  0
LINE
  8
DETAIL
  6
CONTINUOUS
 62
     5
 10
-411.20033119778191
 20
-103.00609664395429
 30
0.0
 11
-411.20033119778191
 21
-138.80195219999999
 31
0.0
  0
LINE
  8
DETAIL
  6
CONTINUOUS
 62
     5
 10
-410.00033119778197
 20
-103.00609664395429
 30
0.0
 11
-410.00033119778197
 21
-138.80195219999999
 31
0.0
  0
ARC
  8
DETAIL
  6
CONTINUOUS
 62
     5
 10
-412.40033119778218
 20
-103.00609664395429
 30
0.0
 40
1.199999999999932
 50
0.0
 51
90.0
  0
ARC
  8
DETAIL
  6
CONTINUOUS
 62
     5
 10
-412.40033119778218
 20
-103.00609664395429
 30
0.0
 40
2.3999999999999768
 50
0.0
 51
90.0
  0
LINE
  8
BASIS
  6
DASHDOT
 62
     6
 10
-490.0759704424122
 20
147.19804780000001
 30
0.0
 11
-384.38483463537477
 21
147.19804780000001
 31
0.0
  0
LINE
  8
DETAIL
  6
CONTINUOUS
 62
     5
 10
-411.20033119778191
 20
433.19804780000021
 30
0.0
 11
-410.00033119778197
 21
433.19804780000021
 31
0.0
  0
LINE
  8
DETAIL
  6
CONTINUOUS
 62
     5
 10
-412.40033119778218
 20
396.20219224395441
 30
0.0
 11
-460.00033119778197
 21
396.20219224395441
 31
0.0
  0
ARC
  8
DETAIL
  6
CONTINUOUS
 62
     5
 10
-412.40033119778218
 20
397.40219224395418
 30
0.0
 40
1.1999999999999891
 50
270.0
 51
0.0
  0
LINE
  8
DETAIL
  6
CONTINUOUS
 62
     5
 10
-410.00033119778197
 20
397.40219224395418
 30
0.0
 11
-410.00033119778197
 21
433.19804780000021
 31
0.0
  0
LINE
  8
DETAIL
  6
CONTINUOUS
 62
     5
 10
-412.00033119778197
 20
-98.606096643954345
 30
0.0
 11
-412.00033119778197
 21
-100.6060966439543
 31
0.0
  0
LINE
  8
DETAIL
  6
CONTINUOUS
 62
     5
 10
-410.00033119778197
 20
-98.606096643954345
 30
0.0
 11
-412.00033119778197
 21
-98.606096643954345
 31
0.0
  0
LINE
  8
DETAIL
  6
CONTINUOUS
 62
     5
 10
246.60002574921279
 20
233.00170042992039
 30
0.0
 11
247.80001072883849
 21
233.00170042992039
 31
0.0
  0
ARC
  8
DETAIL
  6
CONTINUOUS
 62
     5
 10
245.400025749213
 20
246.60170400620001
 30
0.0
 40
1.2000000000002731
 50
0.0
 51
90.0
  0
LINE
  8
DETAIL
  6
CONTINUOUS
 62
     5
 10
247.80001072883849
 20
246.6014601039353
 30
0.0
 11
247.80001072883849
 21
233.00170042992039
 31
0.0
  0
LINE
  8
DETAIL
  6
CONTINUOUS
 62
     5
 10
246.60002574921279
 20
233.00170042992039
 30
0.0
 11
246.60002574921279
 21
246.60170400620001
 31
0.0
  0
LINE
  8
DETAIL
  6
CONTINUOUS
 62
     5
 10
246.60002574921279
 20
233.00170042992039
 30
0.0
 11
247.80001072883849
 21
233.00170042992039
 31
0.0
  0
LINE
  8
DETAIL
  6
CONTINUOUS
 62
     5
 10
245.79999499320871
 20
250.00171044350299
 30
0.0
 11
245.79999499320871
 21
248.96789467692841
 31
0.0
  0
LINE
  8
DETAIL
  6
CONTINUOUS
 62
     5
 10
274.80001072883852
 20
250.00171044350299
 30
0.0
 11
245.79999499320871
 21
250.00171044350299
 31
0.0
  0
ARC
  8
DETAIL
  6
CONTINUOUS
 62
     5
 10
245.4000107288384
 20
246.6014601039353
 30
0.0
 40
2.4000000000000909
 50
0.0
 51
90.0
  0
LINE
  8
DETAIL
  6
CONTINUOUS
 62
     5
 10
274.80001072883852
 20
270.00171044350299
 30
0.0
 11
274.80001072883852
 21
250.00171044350299
 31
0.0
  0
LINE
  8
DETAIL
  6
CONTINUOUS
 62
     5
 10
263.80001072883852
 20
275.00171044350299
 30
0.0
 11
263.80001072883852
 21
274.00171044350299
 31
0.0
  0
LINE
  8
DETAIL
  6
CONTINUOUS
 62
     5
 10
270.80001072883852
 20
274.00171044350299
 30
0.0
 11
263.80001072883852
 21
274.00171044350299
 31
0.0
  0
LINE
  8
DETAIL
  6
CONTINUOUS
 62
     5
 10
274.80001072883852
 20
270.00171044350299
 30
0.0
 11
270.80001072883852
 21
274.00171044350299
 31
0.0
  0
LINE
  8
DETAIL
  6
CONTINUOUS
 62
     5
 10
245.400025749213
 20
247.80170400620011
 30
0.0
 11
0.0
 21
247.80170400620011
 31
0.0
  0
LINE
  8
DETAIL
  6
CONTINUOUS
 62
     5
 10
245.4000107288384
 20
249.0014601039355
 30
0.0
 11
0.0
 21
249.0014601039355
 31
0.0
  0
LINE
  8
DETAIL
  6
CONTINUOUS
 62
     5
 10
263.80001072883852
 20
275.00171044350299
 30
0.0
 11
0.0
 21
275.00171044350299
 31
0.0
  0
CIRCLE
  8
DETAIL
  6
CONTINUOUS
 62
     5
 10
-189.99976611131839
 20
265.00218108189063
 30
0.0
 40
3.4999989271161671
  0
CIRCLE
  8
DETAIL
  6
CONTINUOUS
 62
     5
 10
145.500233888682
 20
265.00195220000001
 30
0.0
 40
6.0
  0
LINE
  8
DETAIL
  6
CONTINUOUS
 62
     5
 10
0.0
 20
275.00171044350299
 30
0.0
 11
-248.1999999999997
 21
275.00171044350299
 31
0.0
  0
LINE
  8
DETAIL
  6
CONTINUOUS
 62
     5
 10
0.0
 20
247.80170400620011
 30
0.0
 11
-248.1999999999997
 21
247.80170400620011
 31
0.0
  0
LINE
  8
DETAIL
  6
CONTINUOUS
 62
     5
 10
0.0
 20
249.0014601039355
 30
0.0
 11
-248.1999999999997
 21
249.0014601039355
 31
0.0
  0
LINE
  8
DETAIL
  6
CONTINUOUS
 62
     5
 10
-248.1999999999997
 20
275.00171044350299
 30
0.0
 11
-248.1999999999997
 21
247.80170400620011
 31
0.0
  0
LINE
  8
DETAIL
  6
CONTINUOUS
 62
     5
 10
-233.00170042992019
 20
246.60002574921251
 30
0.0
 11
-233.00170042992019
 21
247.80001072883849
 31
0.0
  0
ARC
  8
DETAIL
  6
CONTINUOUS
 62
     5
 10
-246.60170400620021
 20
245.40002574921249
 30
0.0
 40
1.2000000000000459
 50
90.0
 51
180.0
  0
LINE
  8
DETAIL
  6
CONTINUOUS
 62
     5
 10
-246.60146010393561
 20
247.80001072883849
 30
0.0
 11
-233.00170042992019
 21
247.80001072883849
 31
0.0
  0
LINE
  8
DETAIL
  6
CONTINUOUS
 62
     5
 10
-233.00170042992019
 20
246.60002574921251
 30
0.0
 11
-246.60170400620021
 21
246.60002574921251
 31
0.0
  0
LINE
  8
DETAIL
  6
CONTINUOUS
 62
     5
 10
-233.00170042992019
 20
246.60002574921251
 30
0.0
 11
-233.00170042992019
 21
247.80001072883849
 31
0.0
  0
LINE
  8
DETAIL
  6
CONTINUOUS
 62
     5
 10
-250.0017104435033
 20
245.79999499320849
 30
0.0
 11
-248.96789467692861
 21
245.79999499320849
 31
0.0
  0
LINE
  8
DETAIL
  6
CONTINUOUS
 62
     5
 10
-250.0017104435033
 20
274.80001072883852
 30
0.0
 11
-250.0017104435033
 21
245.79999499320849
 31
0.0
  0
ARC
  8
DETAIL
  6
CONTINUOUS
 62
     5
 10
-246.60146010393561
 20
245.40001072883851
 30
0.0
 40
2.3999999999999768
 50
90.0
 51
180.0
  0
LINE
  8
DETAIL
  6
CONTINUOUS
 62
     5
 10
-270.00171044350333
 20
274.80001072883852
 30
0.0
 11
-250.0017104435033
 21
274.80001072883852
 31
0.0
  0
LINE
  8
DETAIL
  6
CONTINUOUS
 62
     5
 10
-275.00171044350333
 20
263.80001072883852
 30
0.0
 11
-274.00171044350333
 21
263.80001072883852
 31
0.0
  0
LINE
  8
DETAIL
  6
CONTINUOUS
 62
     5
 10
-274.00171044350333
 20
270.80001072883852
 30
0.0
 11
-274.00171044350333
 21
263.80001072883852
 31
0.0
  0
LINE
  8
DETAIL
  6
CONTINUOUS
 62
     5
 10
-270.00171044350333
 20
274.80001072883852
 30
0.0
 11
-274.00171044350333
 21
270.80001072883852
 31
0.0
  0
LINE
  8
DETAIL
  6
CONTINUOUS
 62
     5
 10
-247.8017040062
 20
245.40002574921249
 30
0.0
 11
-247.8017040062
 21
0.0
 31
0.0
  0
LINE
  8
DETAIL
  6
CONTINUOUS
 62
     5
 10
-249.00146010393519
 20
245.40001072883851
 30
0.0
 11
-249.00146010393519
 21
0.0
 31
0.0
  0
LINE
  8
DETAIL
  6
CONTINUOUS
 62
     5
 10
-275.00171044350333
 20
263.80001072883852
 30
0.0
 11
-275.00171044350333
 21
0.0
 31
0.0
  0
CIRCLE
  8
DETAIL
  6
CONTINUOUS
 62
     5
 10
-265.00218108189068
 20
-189.99953222263659
 30
0.0
 40
3.4999989271161671
  0
CIRCLE
  8
DETAIL
  6
CONTINUOUS
 62
     5
 10
-265.00195219999978
 20
145.50023388868181
 30
0.0
 40
6.0
  0
LINE
  8
DETAIL
  6
CONTINUOUS
 62
     5
 10
-275.00171044350333
 20
0.0
 30
0.0
 11
-275.00171044350333
 21
-248.19999999999999
 31
0.0
  0
LINE
  8
DETAIL
  6
CONTINUOUS
 62
     5
 10
-247.8017040062
 20
0.0
 30
0.0
 11
-247.8017040062
 21
-248.19999999999999
 31
0.0
  0
LINE
  8
DETAIL
  6
CONTINUOUS
 62
     5
 10
-249.00146010393519
 20
0.0
 30
0.0
 11
-249.00146010393519
 21
-248.19999999999999
 31
0.0
  0
LINE
  8
DETAIL
  6
CONTINUOUS
 62
     5
 10
-275.00171044350333
 20
-248.19999999999999
 30
0.0
 11
-247.8017040062
 21
-248.19999999999999
 31
0.0
  0
LINE
  8
DETAIL
  6
CONTINUOUS
 62
     5
 10
-246.60002574921279
 20
-233.00170042992039
 30
0.0
 11
-247.80001072883849
 21
-233.00170042992039
 31
0.0
  0
ARC
  8
DETAIL
  6
CONTINUOUS
 62
     5
 10
-245.4000257492124
 20
-246.60170400620001
 30
0.0
 40
1.2000000000000459
 50
180.0
 51
270.0
  0
LINE
  8
DETAIL
  6
CONTINUOUS
 62
     5
 10
-247.80001072883849
 20
-246.60146010393541
 30
0.0
 11
-247.80001072883849
 21
-233.00170042992039
 31
0.0
  0
LINE
  8
DETAIL
  6
CONTINUOUS
 62
     5
 10
-246.60002574921279
 20
-233.00170042992039
 30
0.0
 11
-246.60002574921279
 21
-246.60170400620001
 31
0.0
  0
LINE
  8
DETAIL
  6
CONTINUOUS
 62
     5
 10
-246.60002574921279
 20
-233.00170042992039
 30
0.0
 11
-247.80001072883849
 21
-233.00170042992039
 31
0.0
  0
LINE
  8
DETAIL
  6
CONTINUOUS
 62
     5
 10
-245.7999949932088
 20
-250.00171044350321
 30
0.0
 11
-245.7999949932088
 21
-248.9678946769283
 31
0.0
  0
LINE
  8
DETAIL
  6
CONTINUOUS
 62
     5
 10
-274.80001072883852
 20
-250.00171044350321
 30
0.0
 11
-245.7999949932088
 21
-250.00171044350321
 31
0.0
  0
ARC
  8
DETAIL
  6
CONTINUOUS
 62
     5
 10
-245.4000107288384
 20
-246.60146010393541
 30
0.0
 40
2.3999999999999768
 50
180.0
 51
270.0
  0
LINE
  8
DETAIL
  6
CONTINUOUS
 62
     5
 10
-274.80001072883852
 20
-270.00171044350321
 30
0.0
 11
-274.80001072883852
 21
-250.00171044350321
 31
0.0
  0
LINE
  8
DETAIL
  6
CONTINUOUS
 62
     5
 10
-263.80001072883852
 20
-275.00171044350321
 30
0.0
 11
-263.80001072883852
 21
-274.00171044350321
 31
0.0
  0
LINE
  8
DETAIL
  6
CONTINUOUS
 62
     5
 10
-270.80001072883852
 20
-274.00171044350321
 30
0.0
 11
-263.80001072883852
 21
-274.00171044350321
 31
0.0
  0
LINE
  8
DETAIL
  6
CONTINUOUS
 62
     5
 10
-274.80001072883852
 20
-270.00171044350321
 30
0.0
 11
-270.80001072883852
 21
-274.00171044350321
 31
0.0
  0
LINE
  8
DETAIL
  6
CONTINUOUS
 62
     5
 10
-245.4000257492124
 20
-247.80170400619991
 30
0.0
 11
0.0
 21
-247.80170400619991
 31
0.0
  0
LINE
  8
DETAIL
  6
CONTINUOUS
 62
     5
 10
-245.4000107288384
 20
-249.0014601039355
 30
0.0
 11
0.0
 21
-249.0014601039355
 31
0.0
  0
LINE
  8
DETAIL
  6
CONTINUOUS
 62
     5
 10
-263.80001072883852
 20
-275.00171044350321
 30
0.0
 11
0.0
 21
-275.00171044350321
 31
0.0
  0
CIRCLE
  8
DETAIL
  6
CONTINUOUS
 62
     5
 10
202.499766111318
 20
-265.00218108189051
 30
0.0
 40
3.4999989271161671
  0
CIRCLE
  8
DETAIL
  6
CONTINUOUS
 62
     5
 10
-145.500233888682
 20
-265.00195219999989
 30
0.0
 40
6.0
  0
LINE
  8
DETAIL
  6
CONTINUOUS
 62
     5
 10
0.0
 20
-275.00171044350321
 30
0.0
 11
248.2000000000003
 21
-275.00171044350321
 31
0.0
  0
LINE
  8
DETAIL
  6
CONTINUOUS
 62
     5
 10
0.0
 20
-247.80170400619991
 30
0.0
 11
248.2000000000003
 21
-247.80170400619991
 31
0.0
  0
LINE
  8
DETAIL
  6
CONTINUOUS
 62
     5
 10
0.0
 20
-249.0014601039355
 30
0.0
 11
248.2000000000003
 21
-249.0014601039355
 31
0.0
  0
LINE
  8
DETAIL
  6
CONTINUOUS
 62
     5
 10
248.2000000000003
 20
-275.00171044350321
 30
0.0
 11
248.2000000000003
 21
-247.80170400619991
 31
0.0
  0
LINE
  8
DETAIL
  6
CONTINUOUS
 62
     5
 10
233.00170042992019
 20
-246.60002574921251
 30
0.0
 11
233.00170042992019
 21
-247.80001072883849
 31
0.0
  0
ARC
  8
DETAIL
  6
CONTINUOUS
 62
     5
 10
246.60170400620021
 20
-245.4000257492124
 30
0.0
 40
1.2000000000000459
 50
270.0
 51
0.0
  0
LINE
  8
DETAIL
  6
CONTINUOUS
 62
     5
 10
246.60146010393561
 20
-247.80001072883849
 30
0.0
 11
233.00170042992019
 21
-247.80001072883849
 31
0.0
  0
LINE
  8
DETAIL
  6
CONTINUOUS
 62
     5
 10
233.00170042992019
 20
-246.60002574921251
 30
0.0
 11
246.60170400620021
 21
-246.60002574921251
 31
0.0
  0
LINE
  8
DETAIL
  6
CONTINUOUS
 62
     5
 10
233.00170042992019
 20
-246.60002574921251
 30
0.0
 11
233.00170042992019
 21
-247.80001072883849
 31
0.0
  0
LINE
  8
DETAIL
  6
CONTINUOUS
 62
     5
 10
250.0017104435033
 20
-245.79999499320849
 30
0.0
 11
248.96789467692821
 21
-245.79999499320849
 31
0.0
  0
LINE
  8
DETAIL
  6
CONTINUOUS
 62
     5
 10
250.0017104435033
 20
-274.80001072883852
 30
0.0
 11
250.0017104435033
 21
-245.79999499320849
 31
0.0
  0
ARC
  8
DETAIL
  6
CONTINUOUS
 62
     5
 10
246.60146010393561
 20
-245.40001072883851
 30
0.0
 40
2.3999999999999768
 50
270.0
 51
0.0
  0
LINE
  8
DETAIL
  6
CONTINUOUS
 62
     5
 10
270.00171044350333
 20
-274.80001072883852
 30
0.0
 11
250.0017104435033
 21
-274.80001072883852
 31
0.0
  0
LINE
  8
DETAIL
  6
CONTINUOUS
 62
     5
 10
275.00171044350333
 20
-263.80001072883852
 30
0.0
 11
274.00171044350333
 21
-263.80001072883852
 31
0.0
  0
LINE
  8
DETAIL
  6
CONTINUOUS
 62
     5
 10
274.00171044350333
 20
-270.80001072883852
 30
0.0
 11
274.00171044350333
 21
-263.80001072883852
 31
0.0
  0
LINE
  8
DETAIL
  6
CONTINUOUS
 62
     5
 10
270.00171044350333
 20
-274.80001072883852
 30
0.0
 11
274.00171044350333
 21
-270.80001072883852
 31
0.0
  0
LINE
  8
DETAIL
  6
CONTINUOUS
 62
     5
 10
247.8017040062
 20
-245.4000257492124
 30
0.0
 11
247.8017040062
 21
0.0
 31
0.0
  0
LINE
  8
DETAIL
  6
CONTINUOUS
 62
     5
 10
249.00146010393519
 20
-245.40001072883851
 30
0.0
 11
249.00146010393519
 21
0.0
 31
0.0
  0
LINE
  8
DETAIL
  6
CONTINUOUS
 62
     5
 10
275.00171044350333
 20
-263.80001072883852
 30
0.0
 11
275.00171044350333
 21
0.0
 31
0.0
  0
CIRCLE
  8
DETAIL
  6
CONTINUOUS
 62
     5
 10
265.00218108188977
 20
189.99953222263639
 30
0.0
 40
3.4999989271161671
  0
CIRCLE
  8
DETAIL
  6
CONTINUOUS
 62
     5
 10
265.00195219999978
 20
-145.50023388868189
 30
0.0
 40
6.0
  0
LINE
  8
DETAIL
  6
CONTINUOUS
 62
     5
 10
275.00171044350333
 20
0.0
 30
0.0
 11
275.00171044350333
 21
248.1999999999997
 31
0.0
  0
LINE
  8
DETAIL
  6
CONTINUOUS
 62
     5
 10
247.8017040062
 20
0.0
 30
0.0
 11
247.8017040062
 21
248.1999999999997
 31
0.0
  0
LINE
  8
DETAIL
  6
CONTINUOUS
 62
     5
 10
249.00146010393519
 20
0.0
 30
0.0
 11
249.00146010393561
 21
248.1999999999997
 31
0.0
  0
LINE
  8
DETAIL
  6
CONTINUOUS
 62
     5
 10
275.00171044350333
 20
248.1999999999997
 30
0.0
 11
247.8017040062
 21
248.1999999999997
 31
0.0
  0
LINE
  8
BASIS
  6
DASHDOT
 62
     6
 10
-504.06058987541883
 20
0.0
 30
0.0
 11
405.56730378362732
 21
0.0
 31
0.0
  0
ARC
  8
DETAIL
  6
CONTINUOUS
 62
     5
 10
0.0
 20
0.0
 30
0.0
 40
260.0
 50
18.194872338775451
 51
71.805127661224546
  0
CIRCLE
  8
DETAIL
  6
CONTINUOUS
 62
     5
 10
0.0
 20
0.0
 30
0.0
 40
191.25
  0
LINE
  8
DETAIL
  6
CONTINUOUS
 62
     5
 10
81.184973979179176
 20
247.00000000000011
 30
0.0
 11
-81.184973979179176
 21
247.00000000000011
 31
0.0
  0
LINE
  8
DETAIL
  6
CONTINUOUS
 62
     5
 10
247.0
 20
81.184973979179176
 30
0.0
 11
247.0
 21
-81.184973979179176
 31
0.0
  0
LINE
  8
DETAIL
  6
CONTINUOUS
 62
     5
 10
-247.0
 20
81.184973979179176
 30
0.0
 11
-247.0
 21
-81.184973979179176
 31
0.0
  0
ARC
  8
DETAIL
  6
CONTINUOUS
 62
     5
 10
0.0
 20
0.0
 30
0.0
 40
260.0
 50
288.19487233877538
 51
341.80512766122462
  0
ARC
  8
DETAIL
  6
CONTINUOUS
 62
     5
 10
0.0
 20
0.0
 30
0.0
 40
260.00000000000011
 50
198.1948723387755
 51
251.8051276612245
  0
ARC
  8
DETAIL
  6
CONTINUOUS
 62
     5
 10
0.0
 20
0.0
 30
0.0
 40
260.0
 50
108.1948723387755
 51
161.80512766122459
  0
LINE
  8
DETAIL
  6
CONTINUOUS
 62
     5
 10
81.184973979179176
 20
-246.99999999999989
 30
0.0
 11
-81.184973979179176
 21
-246.99999999999989
 31
0.0
  0
ARC
  8
DETAIL
  6
CONTINUOUS
 62
     5
 10
12.057130343571769
 20
-36.90030347112463
 30
0.0
 40
5.0000005960468306
 50
30.000011307486069
 51
72.266096155729485
  0
LINE
  8
DETAIL
  6
CONTINUOUS
 62
     5
 10
32.366021188037386
 20
-62.076366227085153
 30
0.0
 11
16.38725568771633
 21
-34.400305620306312
 31
0.0
  0
ARC
  8
DETAIL
  6
CONTINUOUS
 62
     5
 10
25.913485755143942
 20
-28.9003025174502
 30
0.0
 40
5.0000005960464664
 50
167.73399977006929
 51
210.00008461831681
  0
LINE
  8
DETAIL
  6
CONTINUOUS
 62
     5
 10
37.562148257940862
 20
-59.076359061068217
 30
0.0
 11
21.58337894798251
 21
-31.40030226392668
 31
0.0
  0
ARC
  8
DETAIL
  6
CONTINUOUS
 62
     5
 10
-12.057130343571769
 20
-36.90030347112463
 30
0.0
 40
5.0000005960466458
 50
107.7339038442705
 51
149.99998869251391
  0
LINE
  8
DETAIL
  6
CONTINUOUS
 62
     5
 10
-32.366021188036939
 20
-62.076366227085153
 30
0.0
 11
-16.38725568771633
 21
-34.400305620306312
 31
0.0
  0
ARC
  8
DETAIL
  6
CONTINUOUS
 62
     5
 10
-25.913485755143942
 20
-28.9003025174502
 30
0.0
 40
5.0000005960463634
 50
329.99991538168319
 51
12.26600022993069
  0
LINE
  8
DETAIL
  6
CONTINUOUS
 62
     5
 10
-37.562148257940862
 20
-59.076359061068217
 30
0.0
 11
-21.58337894798251
 21
-31.40030226392668
 31
0.0
  0
ARC
  8
DETAIL
  6
CONTINUOUS
 62
     5
 10
-12.057130343571769
 20
36.900303471124523
 30
0.0
 40
5.000000596046803
 50
210.00001130748609
 51
252.26609615572869
  0
LINE
  8
DETAIL
  6
CONTINUOUS
 62
     5
 10
-32.366021188036939
 20
62.076366227085153
 30
0.0
 11
-16.38725568771633
 21
34.400305620306312
 31
0.0
  0
ARC
  8
DETAIL
  6
CONTINUOUS
 62
     5
 10
-25.913485755143942
 20
28.9003025174502
 30
0.0
 40
5.0000005960464788
 50
347.73399977006932
 51
30.000084618316851
  0
LINE
  8
DETAIL
  6
CONTINUOUS
 62
     5
 10
-37.562148257940862
 20
59.07635906106816
 30
0.0
 11
-21.58337894798251
 21
31.400302263926619
 31
0.0
  0
ARC
  8
DETAIL
  6
CONTINUOUS
 62
     5
 10
-37.980320689716343
 20
8.0000009536744301
 30
0.0
 40
5.0000005960465614
 50
270.0
 51
312.26608416499113
  0
LINE
  8
DETAIL
  6
CONTINUOUS
 62
     5
 10
-69.937874548181753
 20
3.0000003576278691
 30
0.0
 11
-37.980320689716343
 21
3.0000003576278691
 31
0.0
  0
ARC
  8
DETAIL
  6
CONTINUOUS
 62
     5
 10
-37.980320689716343
 20
-8.0000009536744301
 30
0.0
 40
5.0000005960463323
 50
47.733915835008858
 51
90.0
  0
LINE
  8
DETAIL
  6
CONTINUOUS
 62
     5
 10
-69.937874548181753
 20
-3.0000003576279819
 30
0.0
 11
-37.980320689716343
 21
-3.0000003576278691
 31
0.0
  0
ARC
  8
DETAIL
  6
CONTINUOUS
 62
     5
 10
37.980320689716343
 20
-8.0000009536744301
 30
0.0
 40
5.0000005960465046
 50
90.0
 51
132.26608416499121
  0
LINE
  8
DETAIL
  6
CONTINUOUS
 62
     5
 10
69.937874548182208
 20
-3.0000003576278691
 30
0.0
 11
37.980320689716343
 21
-3.0000003576278691
 31
0.0
  0
CIRCLE
  8
DETAIL
  6
CONTINUOUS
 62
     5
 10
-0.0096740734188643
 20
0.0
 30
0.0
 40
100.00001192093031
  0
CIRCLE
  8
DETAIL
  6
CONTINUOUS
 62
     5
 10
-0.0096740734188643
 20
0.0
 30
0.0
 40
35.000004172325589
  0
CIRCLE
  8
DETAIL
  6
CONTINUOUS
 62
     5
 10
0.0
 20
-84.999992966651178
 30
0.0
 40
8.0000009536743164
  0
CIRCLE
  8
DETAIL
  6
CONTINUOUS
 62
     5
 10
0.0
 20
-84.999992966651178
 30
0.0
 40
14.99999988079071
  0
CIRCLE
  8
DETAIL
  6
CONTINUOUS
 62
     5
 10
-73.60730857936278
 20
42.491618453457143
 30
0.0
 40
8.0000009536744301
  0
CIRCLE
  8
DETAIL
  6
CONTINUOUS
 62
     5
 10
-73.60730857936278
 20
42.491618453457143
 30
0.0
 40
14.99999988079071
  0
CIRCLE
  8
DETAIL
  6
CONTINUOUS
 62
     5
 10
-73.60730857936278
 20
-42.491618453457249
 30
0.0
 40
8.0000009536744301
  0
CIRCLE
  8
DETAIL
  6
CONTINUOUS
 62
     5
 10
-73.60730857936278
 20
-42.491618453457249
 30
0.0
 40
14.99999988079071
  0
CIRCLE
  8
DETAIL
  6
CONTINUOUS
 62
     5
 10
73.60730857936187
 20
-42.491618453457193
 30
0.0
 40
8.0000009536743164
  0
CIRCLE
  8
DETAIL
  6
CONTINUOUS
 62
     5
 10
73.60730857936187
 20
-42.491618453457193
 30
0.0
 40
14.99999988079071
  0
CIRCLE
  8
DETAIL
  6
CONTINUOUS
 62
     5
 10
0.0
 20
84.999992966651007
 30
0.0
 40
14.99999988079071
  0
LINE
  8
DETAIL
  6
CONTINUOUS
 62
     5
 10
97.830412477129357
 20
36.599942897689857
 30
0.0
 11
98.867309203812056
 21
35.516842508229843
 31
0.0
  0
LINE
  8
DETAIL
  6
CONTINUOUS
 62
     5
 10
99.597048504200302
 20
55.516649012192147
 30
0.0
 11
98.928530305042386
 21
53.564433369082849
 31
0.0
  0
LINE
  8
DETAIL
  6
CONTINUOUS
 62
     5
 10
101.6000263896626
 20
36.754675932389432
 30
0.0
 11
102.3849662824946
 21
38.662994557142163
 31
0.0
  0
LINE
  8
DETAIL
  6
CONTINUOUS
 62
     5
 10
99.652536851991954
 20
37.425259343933703
 30
0.0
 11
101.6000170242128
 21
36.754696290139243
 31
0.0
  0
LINE
  8
DETAIL
  6
CONTINUOUS
 62
     5
 10
104.3327368095365
 20
37.99250061371913
 30
0.0
 11
105.117676702368
 21
39.900819238471847
 31
0.0
  0
LINE
  8
DETAIL
  6
CONTINUOUS
 62
     5
 10
102.3852635012786
 20
38.663107860432213
 30
0.0
 11
104.33274367349939
 21
37.992544806637618
 31
0.0
  0
LINE
  8
DETAIL
  6
CONTINUOUS
 62
     5
 10
105.78616411871739
 20
41.853005336523893
 30
0.0
 11
105.1176475658781
 21
39.900821393918143
 31
0.0
  0
LINE
  8
DETAIL
  6
CONTINUOUS
 62
     5
 10
103.87996936138509
 20
42.633257434659981
 30
0.0
 11
105.7861982721429
 21
41.853032639876567
 31
0.0
  0
LINE
  8
DETAIL
  6
CONTINUOUS
 62
     5
 10
104.54834296257511
 20
44.585755182546563
 30
0.0
 11
103.8798247634172
 21
42.633539539437379
 31
0.0
  0
LINE
  8
DETAIL
  6
CONTINUOUS
 62
     5
 10
103.31053557445421
 20
47.318492413077713
 30
0.0
 11
102.6419877335925
 21
45.366286978522112
 31
0.0
  0
LINE
  8
DETAIL
  6
CONTINUOUS
 62
     5
 10
101.4043194944275
 20
48.098680690489573
 30
0.0
 11
103.31055307041019
 21
47.318467313229227
 31
0.0
  0
LINE
  8
DETAIL
  6
CONTINUOUS
 62
     5
 10
102.6421421751065
 20
45.365942282928472
 30
0.0
 11
104.54837108586391
 21
44.585717488144951
 31
0.0
  0
LINE
  8
DETAIL
  6
CONTINUOUS
 62
     5
 10
100.1664942394459
 20
50.831408269621761
 30
0.0
 11
102.0727231502042
 21
50.051183474838354
 31
0.0
  0
LINE
  8
DETAIL
  6
CONTINUOUS
 62
     5
 10
100.8348889511167
 20
52.783940263340362
 30
0.0
 11
100.1663713669318
 21
50.831724374241958
 31
0.0
  0
LINE
  8
DETAIL
  6
CONTINUOUS
 62
     5
 10
98.928650369894967
 20
53.564132921332202
 30
0.0
 11
100.8349075240103
 21
52.783896566464023
 31
0.0
  0
LINE
  8
DETAIL
  6
CONTINUOUS
 62
     5
 10
96.453003696048199
 20
59.029615995972343
 30
0.0
 11
98.359259499683958
 21
58.249376449061167
 31
0.0
  0
LINE
  8
DETAIL
  6
CONTINUOUS
 62
     5
 10
98.359249015067235
 20
58.249372272393657
 30
0.0
 11
97.690730815909319
 21
56.297156629284359
 31
0.0
  0
LINE
  8
DETAIL
  6
CONTINUOUS
 62
     5
 10
97.690843289234181
 20
56.296869245764583
 30
0.0
 11
99.597075514757762
 21
55.516652676508564
 31
0.0
  0
LINE
  8
DETAIL
  6
CONTINUOUS
 62
     5
 10
102.0727151126403
 20
50.051211589785787
 30
0.0
 11
101.4041969134819
 21
48.098995946676503
 31
0.0
  0
LINE
  8
DETAIL
  6
CONTINUOUS
 62
     5
 10
98.867287746485999
 20
35.516862860020638
 30
0.0
 11
99.652227639317516
 21
37.425181484773361
 31
0.0
  0
LINE
  8
DETAIL
  6
CONTINUOUS
 62
     5
 10
97.830391513743507
 20
36.599945555981321
 30
0.0
 11
105.1176902503084
 21
39.900821330422673
 31
0.0
  0
ARC
  8
DETAIL
  6
CONTINUOUS
 62
     5
 10
25.913485755143942
 20
28.9003025174502
 30
0.0
 40
5.0000005960467284
 50
149.99991538168319
 51
192.26600022993071
  0
LINE
  8
DETAIL
  6
CONTINUOUS
 62
     5
 10
37.562148257940862
 20
59.07635906106816
 30
0.0
 11
21.58337894798251
 21
31.400302263926619
 31
0.0
  0
ARC
  8
DETAIL
  6
CONTINUOUS
 62
     5
 10
12.057130343571769
 20
36.900303471124523
 30
0.0
 40
5.0000005960466458
 50
287.73390384427131
 51
329.99998869251391
  0
LINE
  8
DETAIL
  6
CONTINUOUS
 62
     5
 10
69.937874548182208
 20
3.0000003576278691
 30
0.0
 11
37.980320689716343
 21
3.0000003576278691
 31
0.0
  0
ARC
  8
DETAIL
  6
CONTINUOUS
 62
     5
 10
37.980320689716343
 20
8.0000009536744301
 30
0.0
 40
5.000000596046374
 50
227.7339158350089
 51
270.0
  0
LINE
  8
DETAIL
  6
CONTINUOUS
 62
     5
 10
32.366021188037386
 20
62.076366227085153
 30
0.0
 11
16.38725568771633
 21
34.400305620306312
 31
0.0
  0
CIRCLE
  8
DETAIL
  6
CONTINUOUS
 62
     5
 10
73.60730857936187
 20
42.491618453457143
 30
0.0
 40
8.0000009536743164
  0
CIRCLE
  8
DETAIL
  6
CONTINUOUS
 62
     5
 10
0.0
 20
84.999992966651007
 30
0.0
 40
8.0000009536743164
  0
CIRCLE
  8
DETAIL
  6
CONTINUOUS
 62
     5
 10
73.60730857936187
 20
42.491618453457143
 30
0.0
 40
14.99999988079071
  0
LINE
  8
DETAIL
  6
CONTINUOUS
 62
     5
 10
-80.611678385479081
 20
66.423631535088475
 30
0.0
 11
-87.113970029164648
 21
71.084179478699525
 31
0.0
  0
LINE
  8
DETAIL
  6
CONTINUOUS
 62
     5
 10
-80.1921493727491
 20
67.863151361712653
 30
0.0
 11
-82.23727172671579
 21
67.588769936972312
 31
0.0
  0
LINE
  8
DETAIL
  6
CONTINUOUS
 62
     5
 10
-94.381978283265198
 20
63.371958525905256
 30
0.0
 11
-92.357050843088018
 21
63.769112604096897
 31
0.0
  0
LINE
  8
DETAIL
  6
CONTINUOUS
 62
     5
 10
-97.599940564980443
 20
56.454317382719303
 30
0.0
 11
-97.877369308312609
 21
58.495271200162513
 31
0.0
  0
LINE
  8
DETAIL
  6
CONTINUOUS
 62
     5
 10
-99.625060649923853
 20
56.056922208010967
 30
0.0
 11
-97.600133209746218
 21
56.454076286202508
 31
0.0
  0
LINE
  8
DETAIL
  6
CONTINUOUS
 62
     5
 10
-99.347648876176663
 20
54.015943474105597
 30
0.0
 11
-99.625069509331752
 21
56.056929199621088
 31
0.0
  0
LINE
  8
DETAIL
  6
CONTINUOUS
 62
     5
 10
-95.852225026507767
 20
58.892657921771843
 30
0.0
 11
-96.129649099293147
 21
60.933643220815497
 31
0.0
  0
LINE
  8
DETAIL
  6
CONTINUOUS
 62
     5
 10
-96.12967765545136
 20
60.933605287779763
 30
0.0
 11
-94.104750309728388
 21
61.330760021548258
 31
0.0
  0
LINE
  8
DETAIL
  6
CONTINUOUS
 62
     5
 10
-94.104537991354391
 20
61.331024484577142
 30
0.0
 11
-94.38195795378806
 21
63.371979544113628
 31
0.0
  0
LINE
  8
DETAIL
  6
CONTINUOUS
 62
     5
 10
-90.609129571188078
 20
66.207731481032056
 30
0.0
 11
-90.886549533622201
 21
68.248686540568542
 31
0.0
  0
LINE
  8
DETAIL
  6
CONTINUOUS
 62
     5
 10
-92.356839113693695
 20
63.769376390402613
 30
0.0
 11
-92.634271296604766
 21
65.81032978138046
 31
0.0
  0
LINE
  8
DETAIL
  6
CONTINUOUS
 62
     5
 10
-92.634284285733884
 20
65.810302079514486
 30
0.0
 11
-90.609350865571741
 21
66.207425382960878
 31
0.0
  0
LINE
  8
DETAIL
  6
CONTINUOUS
 62
     5
 10
-90.886568116286526
 20
68.248643337884687
 30
0.0
 11
-88.861640676109801
 21
68.645797416076448
 31
0.0
  0
LINE
  8
DETAIL
  6
CONTINUOUS
 62
     5
 10
-88.861468665189932
 20
68.646063693978476
 30
0.0
 11
-89.138888627624056
 21
70.687018753515076
 31
0.0
  0
LINE
  8
DETAIL
  6
CONTINUOUS
 62
     5
 10
-89.138847905514012
 20
70.68700282745715
 30
0.0
 11
-87.113948741937747
 21
71.084142481150593
 31
0.0
  0
LINE
  8
DETAIL
  6
CONTINUOUS
 62
     5
 10
-84.675865347031504
 20
69.336685235054574
 30
0.0
 11
-85.068880793716289
 21
71.358534064461651
 31
0.0
  0
LINE
  8
DETAIL
  6
CONTINUOUS
 62
     5
 10
-85.068839089545236
 20
71.358550216554931
 30
0.0
 11
-87.113961443511926
 21
71.084168791814591
 31
0.0
  0
LINE
  8
DETAIL
  6
CONTINUOUS
 62
     5
 10
-82.237493761063433
 20
67.588998793423002
 30
0.0
 11
-82.630509207748673
 21
69.610847622830079
 31
0.0
  0
LINE
  8
DETAIL
  6
CONTINUOUS
 62
     5
 10
-82.630496260145264
 20
69.610865912422696
 30
0.0
 11
-84.675618614111954
 21
69.336484487682355
 31
0.0
  0
LINE
  8
DETAIL
  6
CONTINUOUS
 62
     5
 10
-97.877352629643156
 20
58.495249640492261
 30
0.0
 11
-95.852425189465976
 21
58.892403718683909
 31
0.0
  0
LINE
  8
DETAIL
  6
CONTINUOUS
 62
     5
 10
-80.611686565024229
 20
66.423651019059093
 30
0.0
 11
-80.192142476244044
 21
67.863180120197057
 31
0.0
  0
LINE
  8
DETAIL
  6
CONTINUOUS
 62
     5
 10
-17.218713128264429
 20
-103.0235770910699
 30
0.0
 11
-18.003720221143791
 21
-110.9850008091223
 31
0.0
  0
LINE
  8
DETAIL
  6
CONTINUOUS
 62
     5
 10
-18.6751383737369
 20
-103.3800142217333
 30
0.0
 11
-17.414955912602181
 21
-105.0139514217457
 31
0.0
  0
LINE
  8
DETAIL
  6
CONTINUOUS
 62
     5
 10
-7.6907368293755098
 20
-113.42317011569121
 30
0.0
 11
-9.0471460703947741
 21
-111.8681085507736
 31
0.0
  0
LINE
  8
DETAIL
  6
CONTINUOUS
 62
     5
 10
-0.0909027242541924
 20
-112.75118662848389
 30
0.0
 11
-1.7197062064451529
 21
-114.0119238766711
 31
0.0
  0
LINE
  8
DETAIL
  6
CONTINUOUS
 62
     5
 10
1.265811634856163
 20
-114.3062944804046
 30
0.0
 11
-0.0905976061626461
 21
-112.75123291548699
 31
0.0
  0
LINE
  8
DETAIL
  6
CONTINUOUS
 62
     5
 10
2.8946451801284638
 20
-113.045559470078
 30
0.0
 11
1.265810009648249
 21
-114.3063056486823
 31
0.0
  0
LINE
  8
DETAIL
  6
CONTINUOUS
 62
     5
 10
-3.0764253433876552
 20
-112.456790843104
 30
0.0
 11
-4.7052584247171581
 21
-113.71753978727961
 31
0.0
  0
LINE
  8
DETAIL
  6
CONTINUOUS
 62
     5
 10
-4.7052112956653218
 20
-113.7175455511202
 30
0.0
 11
-6.0616210572038653
 21
-112.1624843957903
 31
0.0
  0
LINE
  8
DETAIL
  6
CONTINUOUS
 62
     5
 10
-6.0619562480928826
 20
-112.162432754199
 30
0.0
 11
-7.6907651964161232
 21
-113.423163018952
 31
0.0
  0
LINE
  8
DETAIL
  6
CONTINUOUS
 62
     5
 10
-12.033012603918451
 20
-111.5736737639606
 30
0.0
 11
-13.6618215522426
 21
-112.83440402871349
 31
0.0
  0
LINE
  8
DETAIL
  6
CONTINUOUS
 62
     5
 10
-9.0474803807337594
 20
-111.8680570808921
 30
0.0
 11
-10.676281773804931
 21
-113.12879709460979
 31
0.0
  0
LINE
  8
DETAIL
  6
CONTINUOUS
 62
     5
 10
-10.676251288720779
 20
-113.12879449259221
 30
0.0
 11
-12.0326368680212
 21
-111.573712361483
 31
0.0
  0
LINE
  8
DETAIL
  6
CONTINUOUS
 62
     5
 10
-13.66177484628861
 20
-112.83439852043141
 30
0.0
 11
-15.01818408730742
 21
-111.2793369555138
 31
0.0
  0
LINE
  8
DETAIL
  6
CONTINUOUS
 62
     5
 10
-15.01850069619513
 20
-111.2793211286386
 30
0.0
 11
-16.647309644519279
 21
-112.54005139339171
 31
0.0
  0
LINE
  8
DETAIL
  6
CONTINUOUS
 62
     5
 10
-16.647316213203339
 20
-112.5400081639812
 30
0.0
 11
-18.00369882394034
 21
-110.9849638750689
 31
0.0
  0
LINE
  8
DETAIL
  6
CONTINUOUS
 62
     5
 10
-17.709398154247079
 20
-107.99979309548679
 30
0.0
 11
-19.263862879783119
 21
-109.3510788710994
 31
0.0
  0
LINE
  8
DETAIL
  6
CONTINUOUS
 62
     5
 10
-19.26389771999175
 20
-109.351050830274
 30
0.0
 11
-18.00371525885657
 21
-110.9849880302864
 31
0.0
  0
LINE
  8
DETAIL
  6
CONTINUOUS
 62
     5
 10
-17.415043090928521
 20
-105.0142581373568
 30
0.0
 11
-18.969507816463651
 21
-106.3655439129693
 31
0.0
  0
LINE
  8
DETAIL
  6
CONTINUOUS
 62
     5
 10
-18.96953012951781
 20
-106.3655418448121
 30
0.0
 11
-17.70934766838263
 21
-107.9994790448246
 31
0.0
  0
LINE
  8
DETAIL
  6
CONTINUOUS
 62
     5
 10
-1.719695874557601
 20
-114.01189865268449
 30
0.0
 11
-3.0761051155764112
 21
-112.4568370877668
 31
0.0
  0
LINE
  8
DETAIL
  6
CONTINUOUS
 62
     5
 10
-17.21872591210558
 20
-103.02359391674911
 30
0.0
 11
-18.675166727568008
 21
-103.3800226284268
 31
0.0
  0
ARC
  8
DETAIL
  6
CONTINUOUS
 62
     5
 10
-0.0096740734188643
 20
0.0
 30
0.0
 40
115.0000137090698
 50
49.369382547329579
 51
157.0195329943229
  0
ARC
  8
DETAIL
  6
CONTINUOUS
 62
     5
 10
-0.0096740734188643
 20
0.0
 30
0.0
 40
115.00001370907
 50
169.38906539481721
 51
277.00379552386642
  0
ARC
  8
DETAIL
  6
CONTINUOUS
 62
     5
 10
-0.0096740734188643
 20
0.0
 30
0.0
 40
115.0000137090699
 50
289.38091988046688
 51
36.981502600629213
  0
LINE
  8
DETAIL
  6
CONTINUOUS
 62
     5
 10
32.068363197846793
 20
13.999993460216389
 30
0.0
 11
32.068363197846793
 21
-13.999993460216499
 31
0.0
  0
LINE
  8
DETAIL
  6
CONTINUOUS
 62
     5
 10
-32.068363197846793
 20
13.999993460216389
 30
0.0
 11
-32.068363197846793
 21
-13.999993460216499
 31
0.0
  0
LINE
  8
DETAIL
  6
CONTINUOUS
 62
     5
 10
149.36055813862501
 20
-119.4486758926964
 30
0.0
 11
-17.21870136973439
 21
-103.02358405612959
 31
0.0
  0
LINE
  8
DETAIL
  6
CONTINUOUS
 62
     5
 10
143.10933045453609
 20
-126.87112373134551
 30
0.0
 11
-18.00372926507816
 21
-110.9849770606193
 31
0.0
  0
LINE
  8
DETAIL
  6
CONTINUOUS
 62
     5
 10
-178.12586684080131
 20
-69.625699725123752
 30
0.0
 11
-80.6116902966628
 21
66.423624834431962
 31
0.0
  0
LINE
  8
DETAIL
  6
CONTINUOUS
 62
     5
 10
-181.42828138529191
 20
-60.500753826537732
 30
0.0
 11
-87.113944940390411
 21
71.084175436724422
 31
0.0
  0
ARC
  8
DETAIL
  6
CONTINUOUS
 62
     5
 10
-0.0096740734188643
 20
0.0
 30
0.0
 40
164.99998915195329
 50
75.195574308656575
 51
191.52119602170791
  0
ARC
  8
DETAIL
  6
CONTINUOUS
 62
     5
 10
-0.0096740734188643
 20
0.0
 30
0.0
 40
164.99998915195351
 50
195.20306686613961
 51
311.51792145276272
  0
ARC
  8
DETAIL
  6
CONTINUOUS
 62
     5
 10
-0.0096740734188643
 20
0.0
 30
0.0
 40
164.99998915195329
 50
315.19997035935052
 51
71.513282723338506
  0
LINE
  8
DETAIL
  6
CONTINUOUS
 62
     5
 10
28.76530870217584
 20
189.0743756178201
 30
0.0
 11
97.830391666395826
 21
36.599959221697418
 31
0.0
  0
LINE
  8
DETAIL
  6
CONTINUOUS
 62
     5
 10
38.318950930755818
 20
187.37187755788301
 30
0.0
 11
105.117674205469
 21
39.900801623894843
 31
0.0
  0
LINE
  8
DETAIL
  6
CONTINUOUS
 62
     5
 10
-410.00330284445039
 20
397.15308320054368
 30
0.0
 11
-410.00330284445039
 21
422.44934310663598
 31
0.0
  0
LINE
  8
DETAIL
  6
CONTINUOUS
 62
     5
 10
385.00033119778209
 20
-339.99596056668861
 30
0.0
 11
385.00033119778209
 21
-334.99596056668861
 31
0.0
  0
LINE
  8
DETAIL
  6
CONTINUOUS
 62
     5
 10
385.00033119778209
 20
-334.99596056668861
 30
0.0
 11
390.00033119778209
 21
-334.99596056668861
 31
0.0
  0
LINE
  8
DETAIL
  6
CONTINUOUS
 62
     5
 10
387.70033119778191
 20
-334.99596056668861
 30
0.0
 11
387.70033119778191
 21
455.01804780384492
 31
0.0
  0
LINE
  8
DETAIL
  6
CONTINUOUS
 62
     5
 10
-405.00033119778197
 20
-337.69596056668843
 30
0.0
 11
385.00033119778209
 21
-337.69596056668843
 31
0.0
  0
LINE
  8
DETAIL
  6
CONTINUOUS
 62
     5
 10
390.00033119778209
 20
-334.99596056668861
 30
0.0
 11
390.00033119778209
 21
455.01804780384492
 31
0.0
  0
LINE
  8
DETAIL
  6
CONTINUOUS
 62
     5
 10
-405.00033119778197
 20
-339.99596056668861
 30
0.0
 11
385.00033119778209
 21
-339.99596056668861
 31
0.0
  0
CIRCLE
  8
DETAIL
  6
CONTINUOUS
 62
     5
 10
0.0
 20
0.0
 30
0.0
 40
240.0
  0
LINE
  8
DETAIL
  6
CONTINUOUS
 62
     5
 10
-405.00033119778197
 20
-339.99596056668861
 30
0.0
 11
-405.00033119778197
 21
-334.99596056668861
 31
0.0
  0
LINE
  8
DETAIL
  6
CONTINUOUS
 62
     5
 10
-405.00033119778197
 20
-334.99596056668861
 30
0.0
 11
-410.00033119778197
 21
-334.99596056668861
 31
0.0
  0
LINE
  8
DETAIL
  6
CONTINUOUS
 62
     5
 10
-410.00033119778197
 20
-334.99596056668861
 30
0.0
 11
-410.00033119778197
 21
455.01804780384509
 31
0.0
  0
LINE
  8
DETAIL
  6
CONTINUOUS
 62
     5
 10
-407.70033119778191
 20
-334.99596056668861
 30
0.0
 11
-407.70033119778191
 21
455.01804780384509
 31
0.0
  0
LINE
  8
DETAIL
  6
CONTINUOUS
 62
     5
 10
-405.00033119778197
 20
455.01804780384509
 30
0.0
 11
-410.00033119778197
 21
455.01804780384509
 31
0.0
  0
LINE
  8
DETAIL
  6
CONTINUOUS
 62
     5
 10
-405.00033119778197
 20
455.01804780384509
 30
0.0
 11
-405.00033119778197
 21
460.01804780384509
 31
0.0
  0
LINE
  8
DETAIL
  6
CONTINUOUS
 62
     5
 10
-405.00033119778197
 20
460.01804780384492
 30
0.0
 11
385.00033119778209
 21
460.01804780384492
 31
0.0
  0
LINE
  8
DETAIL
  6
CONTINUOUS
 62
     5
 10
-405.00033119778197
 20
457.71804780384491
 30
0.0
 11
385.00033119778209
 21
457.71804780384491
 31
0.0
  0
LINE
  8
DETAIL
  6
CONTINUOUS
 62
     5
 10
385.00033119778209
 20
455.01804780384492
 30
0.0
 11
385.00033119778209
 21
460.01804780384492
 31
0.0
  0
LINE
  8
DETAIL
  6
CONTINUOUS
 62
     5
 10
385.00033119778209
 20
455.01804780384492
 30
0.0
 11
390.00033119778209
 21
455.01804780384492
 31
0.0
  0
LINE
  8
DETAIL
  6
CONTINUOUS
 62
     5
 10
385.00033119778209
 20
-339.99596056668861
 30
0.0
 11
385.00033119778209
 21
-334.99596056668861
 31
0.0
  0
LINE
  8
DETAIL
  6
CONTINUOUS
 62
     5
 10
385.00033119778209
 20
-334.99596056668861
 30
0.0
 11
390.00033119778209
 21
-334.99596056668861
 31
0.0
  0
LINE
  8
DETAIL
  6
CONTINUOUS
 62
     5
 10
385.00033119778209
 20
455.01804780384492
 30
0.0
 11
390.00033119778209
 21
455.01804780384492
 31
0.0
  0
LINE
  8
DETAIL
  6
CONTINUOUS
 62
     5
 10
385.00033119778209
 20
455.01804780384492
 30
0.0
 11
385.00033119778209
 21
460.01804780384492
 31
0.0
  0
LINE
  8
DETAIL
  6
CONTINUOUS
 62
     5
 10
387.70033119778191
 20
-334.99596056668861
 30
0.0
 11
387.70033119778191
 21
455.01804780384492
 31
0.0
  0
LINE
  8
DETAIL
  6
CONTINUOUS
 62
     5
 10
-405.00033119778197
 20
457.71804780384491
 30
0.0
 11
385.00033119778209
 21
457.71804780384491
 31
0.0
  0
LINE
  8
DETAIL
  6
CONTINUOUS
 62
     5
 10
-405.00033119778197
 20
-337.69596056668843
 30
0.0
 11
385.00033119778209
 21
-337.69596056668843
 31
0.0
  0
LINE
  8
DETAIL
  6
CONTINUOUS
 62
     5
 10
390.00033119778209
 20
-334.99596056668861
 30
0.0
 11
390.00033119778209
 21
455.01804780384492
 31
0.0
  0
LINE
  8
DETAIL
  6
CONTINUOUS
 62
     5
 10
-405.00033119778197
 20
460.01804780384492
 30
0.0
 11
385.00033119778209
 21
460.01804780384492
 31
0.0
  0
LINE
  8
DETAIL
  6
CONTINUOUS
 62
     5
 10
-405.00033119778197
 20
-339.99596056668861
 30
0.0
 11
385.00033119778209
 21
-339.99596056668861
 31
0.0
  0
CIRCLE
  8
DETAIL
  6
CONTINUOUS
 62
     5
 10
0.0
 20
0.0
 30
0.0
 40
240.0
  0
LINE
  8
DETAIL
  6
CONTINUOUS
 62
     5
 10
-405.00033119778197
 20
455.01804780384509
 30
0.0
 11
-410.00033119778197
 21
455.01804780384509
 31
0.0
  0
LINE
  8
DETAIL
  6
CONTINUOUS
 62
     5
 10
-405.00033119778197
 20
455.01804780384509
 30
0.0
 11
-405.00033119778197
 21
460.01804780384509
 31
0.0
  0
LINE
  8
DETAIL
  6
CONTINUOUS
 62
     5
 10
-410.00033119778197
 20
-334.99596056668861
 30
0.0
 11
-410.00033119778197
 21
455.01804780384509
 31
0.0
  0
LINE
  8
DETAIL
  6
CONTINUOUS
 62
     5
 10
-405.00033119778197
 20
-334.99596056668861
 30
0.0
 11
-410.00033119778197
 21
-334.99596056668861
 31
0.0
  0
LINE
  8
DETAIL
  6
CONTINUOUS
 62
     5
 10
-405.00033119778197
 20
-339.99596056668861
 30
0.0
 11
-405.00033119778197
 21
-334.99596056668861
 31
0.0
  0
LINE
  8
NOTE
  6
CONTINUOUS
 62
     4
 10
-359.30033119778238
 20
-326.06832600324208
 30
0.0
 11
-359.30033119778238
 21
-351.82023491702881
 31
0.0
  0
LINE
  8
DETAIL
  6
CONTINUOUS
 62
     5
 10
-377.70033119778191
 20
-306.28174700431549
 30
0.0
 11
-405.27201983055647
 21
-333.8534356370896
 31
0.0
  0
LINE
  8
DETAIL
  6
CONTINUOUS
 62
     5
 10
-376.28611763540891
 20
-307.69596056668843
 30
0.0
 11
-403.85780626818308
 21
-335.26764919946271
 31
0.0
  0
LINE
  8
DETAIL
  6
CONTINUOUS
 62
     5
 10
-342.70033119778202
 20
-314.69596056668843
 30
0.0
 11
-322.70033119778202
 21
-314.6959605666886
 31
0.0
  0
ARC
  8
DETAIL
  6
CONTINUOUS
 62
     5
 10
-403.10033119778251
 20
-333.09596056668852
 30
0.0
 40
4.6000000000000236
 50
180.0
 51
270.0
  0
ARC
  8
DETAIL
  6
CONTINUOUS
 62
     5
 10
-403.10033119778251
 20
-333.09596056668818
 30
0.0
 40
2.299999999999955
 50
180.0
 51
270.0
  0
LINE
  8
DETAIL
  6
CONTINUOUS
 62
     5
 10
-376.28611763540891
 20
-307.69596056668843
 30
0.0
 11
-342.70033119778202
 21
-307.69596056668843
 31
0.0
  0
LINE
  8
DETAIL
  6
CONTINUOUS
 62
     5
 10
-322.70033119778202
 20
-337.69596056668843
 30
0.0
 11
-322.70033119778202
 21
-314.6959605666886
 31
0.0
  0
LINE
  8
DETAIL
  6
CONTINUOUS
 62
     5
 10
-342.70033119778202
 20
-314.69596056668843
 30
0.0
 11
-342.70033119778202
 21
-307.69596056668843
 31
0.0
  0
LINE
  8
DETAIL
  6
CONTINUOUS
 62
     5
 10
-377.70033119778191
 20
-272.69596056668843
 30
0.0
 11
-384.70033119778191
 21
-272.69596056668843
 31
0.0
  0
LINE
  8
DETAIL
  6
CONTINUOUS
 62
     5
 10
-384.70033119778191
 20
-272.69596056668843
 30
0.0
 11
-384.70033119778191
 21
-252.6959605666884
 31
0.0
  0
LINE
  8
DETAIL
  6
CONTINUOUS
 62
     5
 10
-403.10033119778251
 20
-335.3959605666883
 30
0.0
 11
-322.70033119778202
 21
-335.3959605666883
 31
0.0
  0
LINE
  8
DETAIL
  6
CONTINUOUS
 62
     5
 10
-403.10033119778251
 20
-337.69596056668843
 30
0.0
 11
-322.70033119778202
 21
-337.69596056668843
 31
0.0
  0
LINE
  8
DETAIL
  6
CONTINUOUS
 62
     5
 10
-384.70033119778191
 20
-252.6959605666884
 30
0.0
 11
-407.70033119778191
 21
-252.6959605666884
 31
0.0
  0
LINE
  8
NOTE
  6
CONTINUOUS
 62
     4
 10
-419.47707895456551
 20
-289.29596056668822
 30
0.0
 11
-398.56619440655282
 21
-289.29596056668822
 31
0.0
  0
LINE
  8
DETAIL
  6
CONTINUOUS
 62
     5
 10
-407.70033119778191
 20
-333.09596056668852
 30
0.0
 11
-407.70033119778191
 21
-252.6959605666884
 31
0.0
  0
LINE
  8
DETAIL
  6
CONTINUOUS
 62
     5
 10
-405.40033119778218
 20
-333.09596056668818
 30
0.0
 11
-405.40033119778218
 21
-252.6959605666884
 31
0.0
  0
LINE
  8
DETAIL
  6
CONTINUOUS
 62
     5
 10
-377.70033119778191
 20
-306.28174700431549
 30
0.0
 11
-377.70033119778191
 21
-272.69596056668843
 31
0.0
  0
LINE
  8
DETAIL
  6
CONTINUOUS
 62
     5
 10
-376.28611763540891
 20
427.71804780384491
 30
0.0
 11
-403.85780626818308
 21
455.28973643661908
 31
0.0
  0
LINE
  8
DETAIL
  6
CONTINUOUS
 62
     5
 10
-377.70033119778191
 20
426.30383424147169
 30
0.0
 11
-405.27201983055602
 21
453.87552287424592
 31
0.0
  0
LINE
  8
DETAIL
  6
CONTINUOUS
 62
     5
 10
-384.70033119778191
 20
392.71804780384491
 30
0.0
 11
-384.70033119778191
 21
372.71804780384491
 31
0.0
  0
ARC
  8
DETAIL
  6
CONTINUOUS
 62
     5
 10
-403.100331197782
 20
453.11804780384489
 30
0.0
 40
4.6000000000000236
 50
90.0
 51
180.0
  0
ARC
  8
DETAIL
  6
CONTINUOUS
 62
     5
 10
-403.100331197782
 20
453.11804780384489
 30
0.0
 40
2.3000000000000109
 50
90.0
 51
180.0
  0
LINE
  8
DETAIL
  6
CONTINUOUS
 62
     5
 10
-377.70033119778191
 20
426.30383424147169
 30
0.0
 11
-377.70033119778191
 21
392.71804780384491
 31
0.0
  0
LINE
  8
DETAIL
  6
CONTINUOUS
 62
     5
 10
-407.70033119778191
 20
372.71804780384491
 30
0.0
 11
-384.70033119778191
 21
372.71804780384491
 31
0.0
  0
LINE
  8
DETAIL
  6
CONTINUOUS
 62
     5
 10
-384.70033119778191
 20
392.71804780384491
 30
0.0
 11
-377.70033119778191
 21
392.71804780384491
 31
0.0
  0
LINE
  8
DETAIL
  6
CONTINUOUS
 62
     5
 10
-342.70033119778202
 20
427.71804780384491
 30
0.0
 11
-342.70033119778202
 21
434.71804780384491
 31
0.0
  0
LINE
  8
DETAIL
  6
CONTINUOUS
 62
     5
 10
-342.70033119778202
 20
434.71804780384491
 30
0.0
 11
-322.70033119778202
 21
434.71804780384491
 31
0.0
  0
LINE
  8
DETAIL
  6
CONTINUOUS
 62
     5
 10
-405.40033119778172
 20
453.11804780384489
 30
0.0
 11
-405.40033119778172
 21
372.71804780384491
 31
0.0
  0
LINE
  8
DETAIL
  6
CONTINUOUS
 62
     5
 10
-407.70033119778191
 20
453.11804780384489
 30
0.0
 11
-407.70033119778191
 21
372.71804780384491
 31
0.0
  0
LINE
  8
DETAIL
  6
CONTINUOUS
 62
     5
 10
-322.70033119778202
 20
434.71804780384491
 30
0.0
 11
-322.70033119778202
 21
457.71804780384491
 31
0.0
  0
LINE
  8
NOTE
  6
CONTINUOUS
 62
     4
 10
-359.30033119778182
 20
470.30772668264672
 30
0.0
 11
-359.30033119778182
 21
448.58391101261577
 31
0.0
  0
LINE
  8
DETAIL
  6
CONTINUOUS
 62
     5
 10
-403.100331197782
 20
457.71804780384491
 30
0.0
 11
-322.70033119778202
 21
457.71804780384491
 31
0.0
  0
LINE
  8
DETAIL
  6
CONTINUOUS
 62
     5
 10
-403.100331197782
 20
455.41804780384501
 30
0.0
 11
-322.70033119778202
 21
455.41804780384479
 31
0.0
  0
LINE
  8
DETAIL
  6
CONTINUOUS
 62
     5
 10
-376.28611763540891
 20
427.71804780384491
 30
0.0
 11
-342.70033119778202
 21
427.71804780384491
 31
0.0
  0
LINE
  8
NOTE
  6
CONTINUOUS
 62
     4
 10
339.30033119778142
 20
446.09041324039868
 30
0.0
 11
339.30033119778142
 21
468.08195121189527
 31
0.0
  0
LINE
  8
DETAIL
  6
CONTINUOUS
 62
     5
 10
357.70033119778191
 20
426.30383424147198
 30
0.0
 11
385.27201983055647
 21
453.87552287424609
 31
0.0
  0
LINE
  8
DETAIL
  6
CONTINUOUS
 62
     5
 10
356.28611763540948
 20
427.71804780384491
 30
0.0
 11
383.85780626818308
 21
455.28973643661908
 31
0.0
  0
LINE
  8
DETAIL
  6
CONTINUOUS
 62
     5
 10
322.70033119778191
 20
434.71804780384491
 30
0.0
 11
302.70033119778191
 21
434.71804780384491
 31
0.0
  0
ARC
  8
DETAIL
  6
CONTINUOUS
 62
     5
 10
383.100331197782
 20
453.11804780384489
 30
0.0
 40
4.5999999999999091
 50
0.0
 51
90.0
  0
ARC
  8
DETAIL
  6
CONTINUOUS
 62
     5
 10
383.100331197782
 20
453.11804780384477
 30
0.0
 40
2.300000000000181
 50
0.0
 51
90.0
  0
LINE
  8
DETAIL
  6
CONTINUOUS
 62
     5
 10
356.28611763540948
 20
427.71804780384491
 30
0.0
 11
322.70033119778191
 21
427.71804780384491
 31
0.0
  0
LINE
  8
DETAIL
  6
CONTINUOUS
 62
     5
 10
302.70033119778191
 20
457.71804780384491
 30
0.0
 11
302.70033119778191
 21
434.71804780384491
 31
0.0
  0
LINE
  8
DETAIL
  6
CONTINUOUS
 62
     5
 10
322.70033119778191
 20
434.71804780384491
 30
0.0
 11
322.70033119778191
 21
427.71804780384491
 31
0.0
  0
LINE
  8
DETAIL
  6
CONTINUOUS
 62
     5
 10
357.70033119778191
 20
392.71804780384491
 30
0.0
 11
364.70033119778191
 21
392.71804780384491
 31
0.0
  0
LINE
  8
DETAIL
  6
CONTINUOUS
 62
     5
 10
364.70033119778191
 20
392.71804780384491
 30
0.0
 11
364.70033119778191
 21
372.71804780384491
 31
0.0
  0
LINE
  8
DETAIL
  6
CONTINUOUS
 62
     5
 10
383.100331197782
 20
455.41804780384479
 30
0.0
 11
302.70033119778191
 21
455.41804780384479
 31
0.0
  0
LINE
  8
DETAIL
  6
CONTINUOUS
 62
     5
 10
383.100331197782
 20
457.71804780384491
 30
0.0
 11
302.70033119778191
 21
457.71804780384491
 31
0.0
  0
LINE
  8
DETAIL
  6
CONTINUOUS
 62
     5
 10
364.70033119778191
 20
372.71804780384491
 30
0.0
 11
387.70033119778191
 21
372.71804780384491
 31
0.0
  0
LINE
  8
NOTE
  6
CONTINUOUS
 62
     4
 10
400.15252057619091
 20
409.31804780384482
 30
0.0
 11
378.56619440655231
 21
409.31804780384482
 31
0.0
  0
LINE
  8
DETAIL
  6
CONTINUOUS
 62
     5
 10
387.70033119778191
 20
453.11804780384489
 30
0.0
 11
387.70033119778191
 21
372.71804780384491
 31
0.0
  0
LINE
  8
DETAIL
  6
CONTINUOUS
 62
     5
 10
385.40033119778258
 20
453.11804780384477
 30
0.0
 11
385.40033119778258
 21
372.71804780384491
 31
0.0
  0
LINE
  8
DETAIL
  6
CONTINUOUS
 62
     5
 10
357.70033119778191
 20
426.30383424147198
 30
0.0
 11
357.70033119778191
 21
392.71804780384491
 31
0.0
  0
LINE
  8
NOTE
  6
CONTINUOUS
 62
     4
 10
376.0726966343359
 20
-289.29596056668822
 30
0.0
 11
398.0642346058321
 21
-289.29596056668822
 31
0.0
  0
LINE
  8
DETAIL
  6
CONTINUOUS
 62
     5
 10
356.28611763540948
 20
-307.6959605666886
 30
0.0
 11
383.85780626818308
 21
-335.26764919946271
 31
0.0
  0
LINE
  8
DETAIL
  6
CONTINUOUS
 62
     5
 10
357.70033119778191
 20
-306.28174700431532
 30
0.0
 11
385.27201983055647
 21
-333.8534356370896
 31
0.0
  0
LINE
  8
DETAIL
  6
CONTINUOUS
 62
     5
 10
364.70033119778191
 20
-272.6959605666886
 30
0.0
 11
364.70033119778191
 21
-252.69596056668851
 31
0.0
  0
ARC
  8
DETAIL
  6
CONTINUOUS
 62
     5
 10
383.100331197782
 20
-333.09596056668852
 30
0.0
 40
4.5999999999999091
 50
270.0
 51
0.0
  0
ARC
  8
DETAIL
  6
CONTINUOUS
 62
     5
 10
383.100331197782
 20
-333.09596056668852
 30
0.0
 40
2.299999999999955
 50
270.0
 51
0.0
  0
LINE
  8
DETAIL
  6
CONTINUOUS
 62
     5
 10
357.70033119778191
 20
-306.28174700431532
 30
0.0
 11
357.70033119778191
 21
-272.6959605666886
 31
0.0
  0
LINE
  8
DETAIL
  6
CONTINUOUS
 62
     5
 10
387.70033119778191
 20
-252.69596056668851
 30
0.0
 11
364.70033119778191
 21
-252.69596056668851
 31
0.0
  0
LINE
  8
DETAIL
  6
CONTINUOUS
 62
     5
 10
364.70033119778191
 20
-272.6959605666886
 30
0.0
 11
357.70033119778191
 21
-272.6959605666886
 31
0.0
  0
LINE
  8
DETAIL
  6
CONTINUOUS
 62
     5
 10
322.70033119778191
 20
-307.6959605666886
 30
0.0
 11
322.70033119778191
 21
-314.6959605666886
 31
0.0
  0
LINE
  8
DETAIL
  6
CONTINUOUS
 62
     5
 10
322.70033119778191
 20
-314.6959605666886
 30
0.0
 11
302.70033119778191
 21
-314.69596056668843
 31
0.0
  0
LINE
  8
DETAIL
  6
CONTINUOUS
 62
     5
 10
385.40033119778172
 20
-333.09596056668852
 30
0.0
 11
385.40033119778172
 21
-252.69596056668851
 31
0.0
  0
LINE
  8
DETAIL
  6
CONTINUOUS
 62
     5
 10
387.70033119778191
 20
-333.09596056668852
 30
0.0
 11
387.70033119778191
 21
-252.69596056668851
 31
0.0
  0
LINE
  8
DETAIL
  6
CONTINUOUS
 62
     5
 10
302.70033119778191
 20
-314.69596056668843
 30
0.0
 11
302.70033119778191
 21
-337.69596056668843
 31
0.0
  0
LINE
  8
NOTE
  6
CONTINUOUS
 62
     4
 10
339.30033119778142
 20
-352.07775370398218
 30
0.0
 11
339.30033119778142
 21
-328.56182377545917
 31
0.0
  0
LINE
  8
DETAIL
  6
CONTINUOUS
 62
     5
 10
383.100331197782
 20
-337.69596056668843
 30
0.0
 11
302.70033119778191
 21
-337.69596056668843
 31
0.0
  0
LINE
  8
DETAIL
  6
CONTINUOUS
 62
     5
 10
383.100331197782
 20
-335.39596056668847
 30
0.0
 11
302.70033119778191
 21
-335.39596056668847
 31
0.0
  0
LINE
  8
DETAIL
  6
CONTINUOUS
 62
     5
 10
356.28611763540948
 20
-307.6959605666886
 30
0.0
 11
322.70033119778191
 21
-307.6959605666886
 31
0.0
  0
LINE
  8
DETAIL
  6
CONTINUOUS
 62
     5
 10
-410.00330284445039
 20
13.018951922539371
 30
0.0
 11
-410.00330284445039
 21
43.992387047597497
 31
0.0
  0
LINE
  8
DETAIL
  6
CONTINUOUS
 62
     5
 10
-408.80330284445051
 20
13.018951922539371
 30
0.0
 11
-408.80330284445051
 21
43.367706586935363
 31
0.0
  0
LINE
  8
DETAIL
  6
CONTINUOUS
 62
     5
 10
-408.80330284445051
 20
13.018951922539371
 30
0.0
 11
-410.00330284445039
 21
13.018951922539371
 31
0.0
  0
LINE
  8
BASIS
  6
DASHDOT
 62
     6
 10
0.0
 20
-373.686095161438
 30
0.0
 11
0.0
 21
493.09664801738109
 31
0.0
  0
LINE
  8
OUTLINE
  6
CONTINUOUS
 62
     3
 10
-410.00033119778192
 20
433.19804780000021
 30
0.0
 11
-410.00033119778197
 21
455.01804780384509
 31
0.0
  0
LINE
  8
OUTLINE
  6
CONTINUOUS
 62
     3
 10
-411.20033119778208
 20
397.40219224395418
 30
0.0
 11
-411.20033119778208
 21
433.19804780000021
 31
0.0
  0
CIRCLE
  8
DETAIL
  6
CONTINUOUS
 62
     5
 10
0.0
 20
0.0
 30
0.0
 40
5.8999996185302734
  0
LINE
  8
DETAIL
  6
CONTINUOUS
 62
     5
 10
263.26759258368162
 20
-200.76758586624121
 30
0.0
 11
266.73240741631838
 21
-204.23241413375879
 31
0.0
  0
LINE
  8
DETAIL
  6
CONTINUOUS
 62
     5
 10
266.7324132575709
 20
-200.76759156146241
 30
0.0
 11
263.2675867424291
 21
-204.2324084385377
 31
0.0
  0
CIRCLE
  8
DETAIL
  6
CONTINUOUS
 62
     5
 10
265.0
 20
-202.50000000000011
 30
0.0
 40
5.8999996185302734
  0
LINE
  8
DETAIL
  6
CONTINUOUS
 62
     5
 10
263.55043398445559
 20
1.449570780933982
 30
0.0
 11
266.44956601554441
 21
-1.449570780933982
 31
0.0
  0
LINE
  8
DETAIL
  6
CONTINUOUS
 62
     5
 10
266.44957078093381
 20
1.4495660155444059
 30
0.0
 11
263.55042921906619
 21
-1.4495660155444059
 31
0.0
  0
CIRCLE
  8
DETAIL
  6
CONTINUOUS
 62
     5
 10
265.0
 20
0.0
 30
0.0
 40
3.5
  0
LINE
  8
DETAIL
  6
CONTINUOUS
 62
     5
 10
263.55043398445559
 20
203.94957078093381
 30
0.0
 11
266.44956601554441
 21
201.05042921906571
 31
0.0
  0
LINE
  8
DETAIL
  6
CONTINUOUS
 62
     5
 10
266.44957078093381
 20
203.94956601554409
 30
0.0
 11
263.55042921906619
 21
201.0504339844554
 31
0.0
  0
CIRCLE
  8
DETAIL
  6
CONTINUOUS
 62
     5
 10
265.0
 20
202.49999999999969
 30
0.0
 40
3.5
  0
LINE
  8
DETAIL
  6
CONTINUOUS
 62
     5
 10
201.05043398445559
 20
266.44957078093398
 30
0.0
 11
203.94956601554441
 21
263.55042921906602
 31
0.0
  0
LINE
  8
DETAIL
  6
CONTINUOUS
 62
     5
 10
203.94957078093381
 20
266.44956601554429
 30
0.0
 11
201.0504292190661
 21
263.55043398445542
 31
0.0
  0
CIRCLE
  8
DETAIL
  6
CONTINUOUS
 62
     5
 10
202.5
 20
264.99999999999989
 30
0.0
 40
3.5
  0
LINE
  8
DETAIL
  6
CONTINUOUS
 62
     5
 10
-1.4495660155444059
 20
266.44957078093381
 30
0.0
 11
1.4495660155444059
 21
263.55042921906568
 31
0.0
  0
LINE
  8
DETAIL
  6
CONTINUOUS
 62
     5
 10
1.449570780933755
 20
266.44956601554412
 30
0.0
 11
-1.449570780933755
 21
263.55043398445542
 31
0.0
  0
CIRCLE
  8
DETAIL
  6
CONTINUOUS
 62
     5
 10
0.0
 20
264.99999999999977
 30
0.0
 40
3.5
  0
LINE
  8
DETAIL
  6
CONTINUOUS
 62
     5
 10
-204.23240741631801
 20
266.73241413375882
 30
0.0
 11
-200.76759258368111
 21
263.26758586624118
 31
0.0
  0
LINE
  8
DETAIL
  6
CONTINUOUS
 62
     5
 10
-200.76758674242851
 20
266.73240843853768
 30
0.0
 11
-204.23241325757041
 21
263.26759156146238
 31
0.0
  0
CIRCLE
  8
DETAIL
  6
CONTINUOUS
 62
     5
 10
-202.4999999999994
 20
265.0
 30
0.0
 40
5.8999996185302734
  0
LINE
  8
DETAIL
  6
CONTINUOUS
 62
     5
 10
-266.73240741631838
 20
204.23241413375879
 30
0.0
 11
-263.26759258368162
 21
200.76758586624121
 31
0.0
  0
LINE
  8
DETAIL
  6
CONTINUOUS
 62
     5
 10
-263.2675867424291
 20
204.2324084385377
 30
0.0
 11
-266.7324132575709
 21
200.76759156146241
 31
0.0
  0
CIRCLE
  8
DETAIL
  6
CONTINUOUS
 62
     5
 10
-265.0
 20
202.50000000000011
 30
0.0
 40
5.8999996185302734
  0
LINE
  8
DETAIL
  6
CONTINUOUS
 62
     5
 10
-266.73240741631838
 20
-200.76758586624089
 30
0.0
 11
-263.26759258368162
 21
-204.23241413375851
 31
0.0
  0
LINE
  8
DETAIL
  6
CONTINUOUS
 62
     5
 10
-263.2675867424291
 20
-200.7675915614621
 30
0.0
 11
-266.7324132575709
 21
-204.23240843853731
 31
0.0
  0
CIRCLE
  8
DETAIL
  6
CONTINUOUS
 62
     5
 10
-265.0
 20
-202.49999999999969
 30
0.0
 40
5.8999996185302734
  0
LINE
  8
DETAIL
  6
CONTINUOUS
 62
     5
 10
-204.23240741631841
 20
-263.26758586624118
 30
0.0
 11
-200.76759258368159
 21
-266.73241413375871
 31
0.0
  0
LINE
  8
DETAIL
  6
CONTINUOUS
 62
     5
 10
-200.7675867424291
 20
-263.26759156146232
 30
0.0
 11
-204.2324132575709
 21
-266.73240843853762
 31
0.0
  0
CIRCLE
  8
DETAIL
  6
CONTINUOUS
 62
     5
 10
-202.5
 20
-264.99999999999989
 30
0.0
 40
5.8999996185302734
  0
LINE
  8
DETAIL
  6
CONTINUOUS
 62
     5
 10
-1.732407416318438
 20
-263.26758586624118
 30
0.0
 11
1.732407416318438
 21
-266.73241413375871
 31
0.0
  0
LINE
  8
DETAIL
  6
CONTINUOUS
 62
     5
 10
1.732413257570897
 20
-263.26759156146232
 30
0.0
 11
-1.732413257570897
 21
-266.73240843853762
 31
0.0
  0
CIRCLE
  8
DETAIL
  6
CONTINUOUS
 62
     5
 10
0.0
 20
-264.99999999999989
 30
0.0
 40
5.8999996185302734
  0
LINE
  8
DETAIL
  6
CONTINUOUS
 62
     5
 10
93.938450674953856
 20
-229.23746899406299
 30
0.0
 11
97.403265507590731
 21
-232.7022972615805
 31
0.0
  0
LINE
  8
DETAIL
  6
CONTINUOUS
 62
     5
 10
97.403271348843191
 20
-229.23747468928411
 30
0.0
 11
93.938444833701396
 21
-232.70229156635929
 31
0.0
  0
CIRCLE
  8
DETAIL
  6
CONTINUOUS
 62
     5
 10
95.670858091272294
 20
-230.9698831278217
 30
0.0
 40
5.8999996185302734
  0
LINE
  8
DETAIL
  6
CONTINUOUS
 62
     5
 10
229.23747571150309
 20
-93.938443957513755
 30
0.0
 11
232.70229054413991
 21
-97.403272225031344
 31
0.0
  0
LINE
  8
DETAIL
  6
CONTINUOUS
 62
     5
 10
232.7022963853924
 20
-93.93844965273496
 30
0.0
 11
229.23746987025061
 21
-97.403266529810196
 31
0.0
  0
CIRCLE
  8
DETAIL
  6
CONTINUOUS
 62
     5
 10
230.9698831278215
 20
-95.670858091272578
 30
0.0
 40
5.8999996185302734
  0
LINE
  8
DETAIL
  6
CONTINUOUS
 62
     5
 10
229.23747571150309
 20
97.403272225031174
 30
0.0
 11
232.70229054413991
 21
93.938443957513641
 31
0.0
  0
LINE
  8
DETAIL
  6
CONTINUOUS
 62
     5
 10
232.7022963853924
 20
97.403266529810026
 30
0.0
 11
229.23746987025061
 21
93.938449652734789
 31
0.0
  0
CIRCLE
  8
DETAIL
  6
CONTINUOUS
 62
     5
 10
230.9698831278215
 20
95.670858091272407
 30
0.0
 40
5.8999996185302734
  0
LINE
  8
DETAIL
  6
CONTINUOUS
 62
     5
 10
93.938450674953856
 20
232.70229726158041
 30
0.0
 11
97.403265507590731
 21
229.23746899406291
 31
0.0
  0
LINE
  8
DETAIL
  6
CONTINUOUS
 62
     5
 10
97.403271348843191
 20
232.70229156635921
 30
0.0
 11
93.938444833701396
 21
229.23747468928411
 31
0.0
  0
CIRCLE
  8
DETAIL
  6
CONTINUOUS
 62
     5
 10
95.670858091272294
 20
230.9698831278217
 30
0.0
 40
5.8999996185302734
  0
LINE
  8
DETAIL
  6
CONTINUOUS
 62
     5
 10
-97.403265507590731
 20
232.70229726158041
 30
0.0
 11
-93.938450674953856
 21
229.23746899406291
 31
0.0
  0
LINE
  8
DETAIL
  6
CONTINUOUS
 62
     5
 10
-93.938444833701396
 20
232.70229156635921
 30
0.0
 11
-97.403271348843191
 21
229.23747468928411
 31
0.0
  0
CIRCLE
  8
DETAIL
  6
CONTINUOUS
 62
     5
 10
-95.670858091272294
 20
230.9698831278217
 30
0.0
 40
5.8999996185302734
  0
LINE
  8
DETAIL
  6
CONTINUOUS
 62
     5
 10
-232.7022905441404
 20
97.403272225031287
 30
0.0
 11
-229.23747571150349
 21
93.938443957513755
 31
0.0
  0
LINE
  8
DETAIL
  6
CONTINUOUS
 62
     5
 10
-229.23746987025109
 20
97.403266529810139
 30
0.0
 11
-232.70229638539291
 21
93.938449652734903
 31
0.0
  0
CIRCLE
  8
DETAIL
  6
CONTINUOUS
 62
     5
 10
-230.96988312782199
 20
95.670858091272521
 30
0.0
 40
5.8999996185302734
  0
LINE
  8
DETAIL
  6
CONTINUOUS
 62
     5
 10
-232.7022905441404
 20
-93.938443957513584
 30
0.0
 11
-229.23747571150349
 21
-97.403272225031117
 31
0.0
  0
LINE
  8
DETAIL
  6
CONTINUOUS
 62
     5
 10
-229.23746987025109
 20
-93.938449652734732
 30
0.0
 11
-232.70229638539291
 21
-97.403266529809969
 31
0.0
  0
CIRCLE
  8
DETAIL
  6
CONTINUOUS
 62
     5
 10
-230.96988312782199
 20
-95.670858091272351
 30
0.0
 40
5.8999996185302734
  0
LINE
  8
DETAIL
  6
CONTINUOUS
 62
     5
 10
-97.403265507590731
 20
-229.23746899406291
 30
0.0
 11
-93.938450674953856
 21
-232.70229726158041
 31
0.0
  0
LINE
  8
DETAIL
  6
CONTINUOUS
 62
     5
 10
-93.938444833701396
 20
-229.237474689284
 30
0.0
 11
-97.403271348843191
 21
-232.70229156635921
 31
0.0
  0
CIRCLE
  8
DETAIL
  6
CONTINUOUS
 62
     5
 10
-95.670858091272294
 20
-230.96988312782159
 30
0.0
 40
5.8999996185302734
  0
LINE
  8
DETAIL
  6
CONTINUOUS
 62
     5
 10
188.55043398445559
 20
-263.55042921906602
 30
0.0
 11
191.44956601554441
 21
-266.44957078093393
 31
0.0
  0
LINE
  8
DETAIL
  6
CONTINUOUS
 62
     5
 10
191.44957078093381
 20
-263.55043398445542
 30
0.0
 11
188.5504292190661
 21
-266.44956601554429
 31
0.0
  0
CIRCLE
  8
DETAIL
  6
CONTINUOUS
 62
     5
 10
190.0
 20
-264.99999999999989
 30
0.0
 40
3.5
  0
LINE
  8
DETAIL
  6
CONTINUOUS
 62
     5
 10
-336.44062723754593
 20
383.87401086640239
 30
0.0
 11
-333.54149520645711
 21
380.97486930453448
 31
0.0
  0
LINE
  8
DETAIL
  6
CONTINUOUS
 62
     5
 10
-333.54149044106748
 20
383.87400610101281
 30
0.0
 11
-336.44063200293539
 21
380.97487406992411
 31
0.0
  0
CIRCLE
  8
DETAIL
  6
CONTINUOUS
 62
     5
 10
-334.99106122200152
 20
382.42444008546852
 30
0.0
 40
3.5
  0
LINE
  8
DETAIL
  6
CONTINUOUS
 62
     5
 10
-1.4495660155444059
 20
421.54957078093412
 30
0.0
 11
1.4495660155444059
 21
418.65042921906621
 31
0.0
  0
LINE
  8
DETAIL
  6
CONTINUOUS
 62
     5
 10
1.449570780933755
 20
421.54956601554449
 30
0.0
 11
-1.449570780933755
 21
418.65043398445567
 31
0.0
  0
CIRCLE
  8
DETAIL
  6
CONTINUOUS
 62
     5
 10
0.0
 20
420.10000000000008
 30
0.0
 40
3.5
  0
LINE
  8
DETAIL
  6
CONTINUOUS
 62
     5
 10
-75.639013441963925
 20
422.1988351778698
 30
0.0
 11
-72.739881410875114
 21
419.29969361600172
 31
0.0
  0
LINE
  8
DETAIL
  6
CONTINUOUS
 62
     5
 10
-72.739876645485765
 20
422.19883041248022
 30
0.0
 11
-75.639018207353274
 21
419.29969838139141
 31
0.0
  0
CIRCLE
  8
DETAIL
  6
CONTINUOUS
 62
     5
 10
-74.18944742641952
 20
420.74926439693581
 30
0.0
 40
3.5
  0
LINE
  8
DETAIL
  6
CONTINUOUS
 62
     5
 10
199.0404339844558
 20
348.70843719041812
 30
0.0
 11
201.93956601554461
 21
345.80929562855022
 31
0.0
  0
LINE
  8
DETAIL
  6
CONTINUOUS
 62
     5
 10
201.93957078093399
 20
348.7084324250286
 30
0.0
 11
199.04042921906651
 21
345.80930039393968
 31
0.0
  0
CIRCLE
  8
DETAIL
  6
CONTINUOUS
 62
     5
 10
200.49000000000021
 20
347.25886640948409
 30
0.0
 40
3.5
  0
LINE
  8
DETAIL
  6
CONTINUOUS
 62
     5
 10
329.79649067796532
 20
192.6945707809339
 30
0.0
 11
332.69562270905408
 21
189.79542921906599
 31
0.0
  0
LINE
  8
DETAIL
  6
CONTINUOUS
 62
     5
 10
332.69562747444343
 20
192.69456601554441
 30
0.0
 11
329.79648591257592
 21
189.79543398445551
 31
0.0
  0
CIRCLE
  8
DETAIL
  6
CONTINUOUS
 62
     5
 10
331.24605669350967
 20
191.24499999999989
 30
0.0
 40
3.5
  0
LINE
  8
DETAIL
  6
CONTINUOUS
 62
     5
 10
364.90388251630571
 20
1.449570780933982
 30
0.0
 11
367.80301454739453
 21
-1.449570780933982
 31
0.0
  0
LINE
  8
DETAIL
  6
CONTINUOUS
 62
     5
 10
367.80301931278382
 20
1.4495660155444059
 30
0.0
 11
364.90387775091631
 21
-1.4495660155444059
 31
0.0
  0
CIRCLE
  8
DETAIL
  6
CONTINUOUS
 62
     5
 10
366.35344853185012
 20
0.0
 30
0.0
 40
3.5
  0
LINE
  8
DETAIL
  6
CONTINUOUS
 62
     5
 10
299.80603094491022
 20
-172.480429219066
 30
0.0
 11
302.70516297599897
 21
-175.3795707809339
 31
0.0
  0
LINE
  8
DETAIL
  6
CONTINUOUS
 62
     5
 10
302.70516774138832
 20
-172.4804339844554
 30
0.0
 11
299.80602617952081
 21
-175.37956601554441
 31
0.0
  0
CIRCLE
  8
DETAIL
  6
CONTINUOUS
 62
     5
 10
301.25559696045462
 20
-173.92999999999989
 30
0.0
 40
3.5
  0
LINE
  8
DETAIL
  6
CONTINUOUS
 62
     5
 10
164.46543398445559
 20
-285.92363895685622
 30
0.0
 11
167.3645660155444
 21
-288.8227805187243
 31
0.0
  0
LINE
  8
DETAIL
  6
CONTINUOUS
 62
     5
 10
167.36457078093369
 20
-285.92364372224591
 30
0.0
 11
164.46542921906621
 21
-288.82277575333472
 31
0.0
  0
CIRCLE
  8
DETAIL
  6
CONTINUOUS
 62
     5
 10
165.91499999999999
 20
-287.37320973779032
 30
0.0
 40
3.5
  0
LINE
  8
DETAIL
  6
CONTINUOUS
 62
     5
 10
-1.4495660155444059
 20
-314.90042921906598
 30
0.0
 11
1.4495660155444059
 21
-317.79957078093389
 31
0.0
  0
LINE
  8
DETAIL
  6
CONTINUOUS
 62
     5
 10
1.449570780933755
 20
-314.90043398445562
 30
0.0
 11
-1.449570780933755
 21
-317.79956601554443
 31
0.0
  0
CIRCLE
  8
DETAIL
  6
CONTINUOUS
 62
     5
 10
0.0
 20
-316.35000000000002
 30
0.0
 40
3.5
  0
LINE
  8
DETAIL
  6
CONTINUOUS
 62
     5
 10
-147.22743252516651
 20
-263.26758586624118
 30
0.0
 11
-143.7626176925296
 21
-266.73241413375871
 31
0.0
  0
LINE
  8
DETAIL
  6
CONTINUOUS
 62
     5
 10
-143.76261185127709
 20
-263.26759156146232
 30
0.0
 11
-147.22743836641891
 21
-266.73240843853762
 31
0.0
  0
CIRCLE
  8
DETAIL
  6
CONTINUOUS
 62
     5
 10
-145.49502510884801
 20
-264.99999999999989
 30
0.0
 40
5.8999996185302734
  0
LINE
  8
DETAIL
  6
CONTINUOUS
 62
     5
 10
-243.44956601554441
 20
-157.01143244734359
 30
0.0
 11
-240.55043398445559
 21
-159.91057400921159
 31
0.0
  0
LINE
  8
DETAIL
  6
CONTINUOUS
 62
     5
 10
-240.55042921906599
 20
-157.0114372127332
 30
0.0
 11
-243.44957078093401
 21
-159.91056924382201
 31
0.0
  0
CIRCLE
  8
DETAIL
  6
CONTINUOUS
 62
     5
 10
-242.0
 20
-158.4610032282776
 30
0.0
 40
3.5
  0
LINE
  8
DETAIL
  6
CONTINUOUS
 62
     5
 10
-400.22346863831979
 20
56.227308724609877
 30
0.0
 11
-396.75865380568308
 21
52.762480457092352
 31
0.0
  0
LINE
  8
DETAIL
  6
CONTINUOUS
 62
     5
 10
-396.75864796443062
 20
56.227303029388743
 30
0.0
 11
-400.22347447957242
 21
52.7624861523135
 31
0.0
  0
CIRCLE
  8
DETAIL
  6
CONTINUOUS
 62
     5
 10
-398.49106122200152
 20
54.494894590851118
 30
0.0
 40
5.8999996185302734
  0
LINE
  8
DETAIL
  6
CONTINUOUS
 62
     5
 10
-266.73240741631838
 20
1.732414133758766
 30
0.0
 11
-263.26759258368162
 21
-1.732414133758766
 31
0.0
  0
LINE
  8
DETAIL
  6
CONTINUOUS
 62
     5
 10
-263.2675867424291
 20
1.7324084385376179
 30
0.0
 11
-266.7324132575709
 21
-1.7324084385376179
 31
0.0
  0
CIRCLE
  8
DETAIL
  6
CONTINUOUS
 62
     5
 10
-265.0
 20
0.0
 30
0.0
 40
5.8999996185302734
  0
LINE
  8
SIZE
  6
CONTINUOUS
 62
    30
 10
-249.0014601039355
 20
265.40001072883871
 30
0.0
 11
-249.0014601039355
 21
560.65257721825219
 31
0.0
  0
LINE
  8
SIZE
  6
CONTINUOUS
 62
    30
 10
249.00146010393561
 20
268.19999999999982
 30
0.0
 11
249.00146010393561
 21
560.65257721825219
 31
0.0
  0
LINE
  8
SIZE
  6
CONTINUOUS
 62
    30
 10
-237.0014601039355
 20
540.65257721825219
 30
0.0
 11
237.00146010393561
 21
540.65257721825219
 31
0.0
  0
CIRCLE
  8
SIZE
  6
CONTINUOUS
 62
    30
 10
-249.0014601039355
 20
540.65257721825219
 30
0.0
 40
6.0
  0
LINE
  8
SIZE
  6
CONTINUOUS
 62
    30
 10
-249.0014601039355
 20
540.65257721825219
 30
0.0
 11
-237.0014601039355
 21
540.65257721825219
 31
0.0
  0
CIRCLE
  8
SIZE
  6
CONTINUOUS
 62
    30
 10
249.00146010393561
 20
540.65257721825219
 30
0.0
 40
6.0
  0
LINE
  8
SIZE
  6
CONTINUOUS
 62
    30
 10
249.00146010393561
 20
540.65257721825219
 30
0.0
 11
237.00146010393561
 21
540.65257721825219
 31
0.0
  0
TEXT
  8
SIZE
  6
CONTINUOUS
 62
    30
 10
-110.5371428571429
 20
565.65257721825219
 30
0.0
 40
64.0
  1
□498
 41
0.9
 72
     1
 11
0.0
 21
565.65257721825219
 31
0.0
  0
ENDSEC
  0
EOF
