  0
SECTION
  2
HEADER
  9
$ACADVER
  1
AC1009
  9
$DWGCODEPAGE
  3
dos932
  9
$INSBASE
 10
0.0
 20
0.0
 30
0.0
  9
$EXTMIN
 10
-783.558638
 20
-1113.510121
 30
-0.001526
  9
$EXTMAX
 10
752.28883
 20
167.266853
 30
50.001526
  9
$LIMMIN
 10
-2970.0
 20
-2100.0
  9
$LIMMAX
 10
2970.0
 20
2100.0
  9
$ORTHOMODE
 70
     1
  9
$REGENMODE
 70
     0
  9
$FILLMODE
 70
     1
  9
$QTEXTMODE
 70
     0
  9
$MIRRTEXT
 70
     0
  9
$DRAGMODE
 70
     2
  9
$LTSCALE
 40
20.0
  9
$OSMODE
 70
    33
  9
$ATTMODE
 70
     1
  9
$TEXTSIZE
 40
64.0
  9
$TRACEWID
 40
0.05
  9
$TEXTSTYLE
  7
STANDARD
  9
$CLAYER
  8
DETAIL
  9
$CELTYPE
  6
CONTINUOUS
  9
$CECOLOR
 62
     5
  9
$DIMSCALE
 40
1.0
  9
$DIMASZ
 40
12.0
  9
$DIMEXO
 40
20.0
  9
$DIMDLI
 40
200.0
  9
$DIMRND
 40
0.0
  9
$DIMDLE
 40
0.0
  9
$DIMEXE
 40
20.0
  9
$DIMTP
 40
0.0
  9
$DIMTM
 40
0.0
  9
$DIMTXT
 40
64.0
  9
$DIMCEN
 40
0.09
  9
$DIMTSZ
 40
0.0
  9
$DIMTOL
 70
     0
  9
$DIMLIM
 70
     0
  9
$DIMTIH
 70
     0
  9
$DIMTOH
 70
     0
  9
$DIMSE1
 70
     0
  9
$DIMSE2
 70
     0
  9
$DIMTAD
 70
     1
  9
$DIMZIN
 70
     8
  9
$DIMBLK
  1
DOT1
  9
$DIMASO
 70
     1
  9
$DIMSHO
 70
     0
  9
$DIMPOST
  1

  9
$DIMAPOST
  1

  9
$DIMALT
 70
     0
  9
$DIMALTD
 70
     2
  9
$DIMALTF
 40
25.4
  9
$DIMLFAC
 40
1.0
  9
$DIMTOFL
 70
     1
  9
$DIMTVP
 40
0.0
  9
$DIMTIX
 70
     1
  9
$DIMSOXD
 70
     0
  9
$DIMSAH
 70
     1
  9
$DIMBLK1
  1
_ORIGIN
  9
$DIMBLK2
  1
_ORIGIN
  9
$DIMSTYLE
  2
STANDARD
  9
$DIMCLRD
 70
     7
  9
$DIMCLRE
 70
     7
  9
$DIMCLRT
 70
     7
  9
$DIMTFAC
 40
1.0
  9
$DIMGAP
 40
25.0
  9
$LUNITS
 70
     2
  9
$LUPREC
 70
     4
  9
$SKETCHINC
 40
0.1
  9
$FILLETRAD
 40
4.0
  9
$AUNITS
 70
     1
  9
$AUPREC
 70
     3
  9
$MENU
  1
ACAD
  9
$ELEVATION
 40
0.0
  9
$PELEVATION
 40
0.0
  9
$THICKNESS
 40
50.0
  9
$LIMCHECK
 70
     0
  9
$BLIPMODE
 70
     0
  9
$CHAMFERA
 40
0.0
  9
$CHAMFERB
 40
0.0
  9
$SKPOLY
 70
     0
  9
$TDCREATE
 40
2452321.396199653
  9
$TDUPDATE
 40
2453488.687866203
  9
$TDINDWG
 40
0.1111217708
  9
$TDUSRTIMER
 40
0.1111217708
  9
$USRTIMER
 70
     1
  9
$ANGBASE
 50
0.0
  9
$ANGDIR
 70
     0
  9
$PDMODE
 70
     3
  9
$PDSIZE
 40
-2.0
  9
$PLINEWID
 40
0.0
  9
$COORDS
 70
     2
  9
$SPLFRAME
 70
     0
  9
$SPLINETYPE
 70
     6
  9
$SPLINESEGS
 70
     8
  9
$ATTDIA
 70
     0
  9
$ATTREQ
 70
     1
  9
$HANDLING
 70
     0
  9
$HANDSEED
  5
272D
  9
$SURFTAB1
 70
     6
  9
$SURFTAB2
 70
     6
  9
$SURFTYPE
 70
     6
  9
$SURFU
 70
     6
  9
$SURFV
 70
     6
  9
$UCSNAME
  2

  9
$UCSORG
 10
0.0
 20
0.0
 30
0.0
  9
$UCSXDIR
 10
1.0
 20
0.0
 30
0.0
  9
$UCSYDIR
 10
0.0
 20
1.0
 30
0.0
  9
$PUCSNAME
  2

  9
$PUCSORG
 10
0.0
 20
0.0
 30
0.0
  9
$PUCSXDIR
 10
1.0
 20
0.0
 30
0.0
  9
$PUCSYDIR
 10
0.0
 20
1.0
 30
0.0
  9
$USERI1
 70
     0
  9
$USERI2
 70
     0
  9
$USERI3
 70
     0
  9
$USERI4
 70
     0
  9
$USERI5
 70
     0
  9
$USERR1
 40
20.0
  9
$USERR2
 40
0.0
  9
$USERR3
 40
0.0
  9
$USERR4
 40
0.0
  9
$USERR5
 40
0.0
  9
$WORLDVIEW
 70
     1
  9
$SHADEDGE
 70
     3
  9
$SHADEDIF
 70
    70
  9
$TILEMODE
 70
     1
  9
$MAXACTVP
 70
    48
  9
$PINSBASE
 10
0.0
 20
0.0
 30
0.0
  9
$PLIMCHECK
 70
     0
  9
$PEXTMIN
 10
-100000000000000000000.0
 20
-100000000000000000000.0
 30
-100000000000000000000.0
  9
$PEXTMAX
 10
100000000000000000000.0
 20
100000000000000000000.0
 30
100000000000000000000.0
  9
$PLIMMIN
 10
0.0
 20
0.0
  9
$PLIMMAX
 10
12.0
 20
9.0
  9
$UNITMODE
 70
     0
  9
$VISRETAIN
 70
     0
  9
$PLINEGEN
 70
     0
  9
$PSLTSCALE
 70
     0
  9
$TREEDEPTH
 70
  3020
  0
ENDSEC
  0
SECTION
  2
TABLES
  0
TABLE
  2
LTYPE
 70
     2
  0
LTYPE
  2
CONTINUOUS
 70
     0
  3
実線
 72
    65
 73
     0
 40
0.0
  0
LTYPE
  2
DASHDOT
 70
     0
  3
____ _ ____ _ ____ _ ____ _ ____ _ ____ _ ____
 72
    65
 73
     4
 40
5.5
 49
4.0
 49
-0.6
 49
0.3
 49
-0.6
  0
ENDTAB
  0
TABLE
  2
LAYER
 70
    12
  0
LAYER
  2
0
 70
     0
 62
     7
  6
CONTINUOUS
  0
LAYER
  2
BASIS
 70
     0
 62
     6
  6
DASHDOT
  0
LAYER
  2
OUTLINE
 70
     0
 62
     3
  6
CONTINUOUS
  0
LAYER
  2
DETAIL
 70
     0
 62
     5
  6
CONTINUOUS
  0
LAYER
  2
SIZE
 70
     0
 62
    30
  6
CONTINUOUS
  0
LAYER
  2
ARRANGE
 70
     0
 62
     1
  6
CONTINUOUS
  0
LAYER
  2
DEFPOINTS
 70
     0
 62
     7
  6
CONTINUOUS
  0
LAYER
  2
ETC
 70
     0
 62
    61
  6
CONTINUOUS
  0
LAYER
  2
FIX
 70
    64
 62
    11
  6
CONTINUOUS
  0
LAYER
  2
NOTE
 70
    64
 62
     4
  6
CONTINUOUS
  0
LAYER
  2
SERVICESPACE
 70
    64
 62
     2
  6
DASHDOT
  0
LAYER
  2
SYMBOLLINE
 70
    64
 62
    15
  6
CONTINUOUS
  0
ENDTAB
  0
TABLE
  2
STYLE
 70
     1
  0
STYLE
  2
STANDARD
 70
     0
 40
64.0
 41
0.9
 50
0.0
 71
     0
 42
64.0
  3
SIMPLEX.shx
  4
BIGFONT.shx
  0
ENDTAB
  0
TABLE
  2
APPID
 70
     2
  0
APPID
  2
ACAD
 70
     0
  0
APPID
  2
AUTOCAD_POSTSCRIPT_FIGURE
 70
     0
  0
ENDTAB
  0
TABLE
  2
DIMSTYLE
 70
     1
  0
DIMSTYLE
  2
STANDARD
 70
     0
  3

  4

  5

  6

  7

 40
1.0
 41
0.18
 42
0.0625
 43
0.38
 44
0.18
 45
0.0
 46
0.0
 47
0.0
 48
0.0
140
0.18
141
0.09
142
0.0
143
25.4
144
1.0
145
0.0
146
1.0
147
0.09
 71
     0
 72
     0
 73
     1
 74
     1
 75
     0
 76
     0
 77
     0
 78
     0
170
     0
171
     2
172
     0
173
     0
174
     0
175
     0
176
     7
177
     7
178
     7
  0
ENDTAB
  0
TABLE
  2
VIEW
 70
     1
  0
VIEW
  2
ALL
 70
     0
 40
4282.619808
 10
0.0
 20
41.309904
 41
5940.0
 11
0.0
 21
0.0
 31
1.0
 12
0.0
 22
0.0
 32
0.0
 42
50.0
 43
0.0
 44
0.0
 50
0.0
 71
     0
  0
ENDTAB
  0
TABLE
  2
UCS
 70
     0
  0
ENDTAB
  0
TABLE
  2
VPORT
 70
     1
  0
VPORT
  2
*ACTIVE
 70
     0
 10
0.0
 20
0.0
 11
1.0
 21
1.0
 12
-15.634904
 22
-473.121634
 13
0.0
 23
0.0
 14
1.0
 24
1.0
 15
0.0
 25
0.0
 16
0.0
 26
0.0
 36
1.0
 17
0.0
 27
0.0
 37
0.0
 40
1291.064339
 41
1.571046
 42
50.0
 43
0.0
 44
0.0
 50
0.0
 51
0.0
 71
     0
 72
   100
 73
     1
 74
     0
 75
     0
 76
     0
 77
     0
 78
     0
  0
ENDTAB
  0
ENDSEC
  0
SECTION
  2
BLOCKS
  0
BLOCK
  8
0
  2
DOT1
 70
     0
 10
0.0
 20
0.0
 30
0.0
  3
DOT1
  1

  0
CIRCLE
  8
SIZE
  6
CONTINUOUS
 62
     7
 10
0.0
 20
0.0
 30
0.0
 40
3.0
  0
ENDBLK
  8
0
  0
BLOCK
  8
0
  2
_ORIGIN
 70
     0
 10
0.0
 20
0.0
 30
0.0
  3
_ORIGIN
  1

  0
CIRCLE
  8
0
  6
CONTINUOUS
 62
     7
 10
0.0
 20
0.0
 30
0.0
 40
0.5
  0
LINE
  8
0
  6
CONTINUOUS
 62
     7
 10
0.0
 20
0.0
 30
0.0
 11
-1.0
 21
0.0
 31
0.0
  0
ENDBLK
  8
0
  0
ENDSEC
  0
SECTION
  2
ENTITIES
  0
LINE
  8
BASIS
  6
DASHDOT
 62
     6
 10
0.0
 20
64.225871
 30
0.0
 11
0.0
 21
-921.118555
 31
0.0
  0
TEXT
  8
ETC
  6
CONTINUOUS
 62
    61
 10
343.947225
 20
6.402217
 30
0.0
 40
40.0
  1
C90-WC_5
 41
0.9
  0
CIRCLE
  8
ARRANGE
  6
CONTINUOUS
 62
     1
 10
0.0
 20
0.0
 30
0.0
 40
40.0
  0
POINT
  8
ARRANGE
  6
CONTINUOUS
 62
     1
 10
0.0
 20
0.0
 30
0.0
  0
LINE
  8
DETAIL
  6
CONTINUOUS
 62
     5
 10
18.700011
 20
-758.323204
 30
0.0
 11
48.999998
 21
-758.323204
 31
0.0
  0
LINE
  8
DETAIL
  6
CONTINUOUS
 62
     5
 10
61.0
 20
0.0
 30
0.0
 11
-61.0
 21
0.0
 31
0.0
  0
LINE
  8
DETAIL
  6
CONTINUOUS
 62
     5
 10
61.0
 20
-8.033895
 30
0.0
 11
-61.0
 21
-8.033895
 31
0.0
  0
LINE
  8
DETAIL
  6
CONTINUOUS
 62
     5
 10
-11.100002
 20
-143.0
 30
0.0
 11
-11.100002
 21
-615.323204
 31
0.0
  0
LINE
  8
DETAIL
  6
CONTINUOUS
 62
     5
 10
11.099998
 20
-143.0
 30
0.0
 11
11.099998
 21
-615.323204
 31
0.0
  0
LINE
  8
DETAIL
  6
CONTINUOUS
 62
     5
 10
-449.40786
 20
-781.588072
 30
0.0
 11
-449.429992
 21
-771.585181
 31
0.0
  0
TEXT
  8
ETC
  6
CONTINUOUS
 62
    61
 10
337.288405
 20
-151.027172
 30
0.0
 40
40.0
  1
換気扇
 41
0.9
  0
LINE
  8
OUTLINE
  6
CONTINUOUS
 62
     3
 10
-61.0
 20
-758.323204
 30
0.0
 11
49.206618
 21
-758.323204
 31
0.0
  0
LINE
  8
OUTLINE
  6
CONTINUOUS
 62
     3
 10
-49.205668
 20
-758.323204
 30
0.0
 11
49.205664
 21
-758.323204
 31
0.0
  0
LINE
  8
OUTLINE
  6
CONTINUOUS
 62
     3
 10
-11.100002
 20
-143.0
 30
0.0
 11
-11.100002
 21
-615.323204
 31
0.0
  0
LINE
  8
OUTLINE
  6
CONTINUOUS
 62
     3
 10
-449.40786
 20
-781.588072
 30
0.0
 11
-449.429992
 21
-771.585181
 31
0.0
  0
LINE
  8
OUTLINE
  6
CONTINUOUS
 62
     3
 10
-49.000002
 20
-758.323204
 30
0.0
 11
-18.69999
 21
-758.323204
 31
0.0
  0
LINE
  8
OUTLINE
  6
CONTINUOUS
 62
     3
 10
11.099998
 20
-143.0
 30
0.0
 11
11.099998
 21
-615.323204
 31
0.0
  0
LINE
  8
OUTLINE
  6
CONTINUOUS
 62
     3
 10
18.700011
 20
-758.323204
 30
0.0
 11
48.999998
 21
-758.323204
 31
0.0
  0
TEXT
  8
ETC
  6
CONTINUOUS
 62
    61
 10
343.947225
 20
-72.004548
 30
0.0
 40
40.0
  1
C90-WC-BK_5
 41
0.9
  0
LINE
  8
BASIS
  6
DASHDOT
 62
     6
 10
530.988862
 20
-776.0
 30
0.0
 11
-519.007199
 21
-776.0
 31
0.0
  0
LINE
  8
DETAIL
  6
CONTINUOUS
 62
     5
 10
25.0
 20
-143.0
 30
0.0
 11
-25.0
 21
-143.0
 31
0.0
  0
LINE
  8
DETAIL
  6
CONTINUOUS
 62
     5
 10
61.0
 20
0.0
 30
0.0
 11
61.0
 21
-8.033895
 31
0.0
  0
LINE
  8
DETAIL
  6
CONTINUOUS
 62
     5
 10
-61.0
 20
0.0
 30
0.0
 11
-61.0
 21
-8.033895
 31
0.0
  0
LINE
  8
DETAIL
  6
CONTINUOUS
 62
     5
 39
50.0
 10
56.0
 20
-8.033895
 30
0.0
 11
25.0
 21
-143.0
 31
0.0
  0
LINE
  8
DETAIL
  6
CONTINUOUS
 62
     5
 39
50.0
 10
-56.0
 20
-8.033895
 30
0.0
 11
-25.0
 21
-143.0
 31
0.0
  0
LINE
  8
DETAIL
  6
CONTINUOUS
 62
     5
 10
-25.0
 20
-615.323204
 30
0.0
 11
25.0
 21
-615.323204
 31
0.0
  0
LINE
  8
DETAIL
  6
CONTINUOUS
 62
     5
 10
-61.0
 20
-750.289308
 30
0.0
 11
61.0
 21
-750.289308
 31
0.0
  0
LINE
  8
DETAIL
  6
CONTINUOUS
 62
     5
 10
-61.0
 20
-758.323204
 30
0.0
 11
61.0
 21
-758.323204
 31
0.0
  0
LINE
  8
DETAIL
  6
CONTINUOUS
 62
     5
 39
50.0
 10
56.0
 20
-750.289308
 30
0.0
 11
25.0
 21
-615.323204
 31
0.0
  0
LINE
  8
DETAIL
  6
CONTINUOUS
 62
     5
 10
61.0
 20
-758.323204
 30
0.0
 11
61.0
 21
-750.289308
 31
0.0
  0
LINE
  8
DETAIL
  6
CONTINUOUS
 62
     5
 39
50.0
 10
-56.0
 20
-750.289308
 30
0.0
 11
-25.0
 21
-615.323204
 31
0.0
  0
LINE
  8
DETAIL
  6
CONTINUOUS
 62
     5
 10
-61.0
 20
-758.323204
 30
0.0
 11
-61.0
 21
-750.289308
 31
0.0
  0
LINE
  8
OUTLINE
  6
CONTINUOUS
 62
     3
 10
25.0
 20
-143.0
 30
0.0
 11
-25.0
 21
-143.0
 31
0.0
  0
LINE
  8
OUTLINE
  6
CONTINUOUS
 62
     3
 10
61.0
 20
-8.033895
 30
0.0
 11
-61.0
 21
-8.033895
 31
0.0
  0
LINE
  8
OUTLINE
  6
CONTINUOUS
 62
     3
 10
61.0
 20
0.0
 30
0.0
 11
-61.0
 21
0.0
 31
0.0
  0
LINE
  8
OUTLINE
  6
CONTINUOUS
 62
     3
 39
50.0
 10
-56.0
 20
-8.033895
 30
0.0
 11
-25.0
 21
-143.0
 31
0.0
  0
LINE
  8
OUTLINE
  6
CONTINUOUS
 62
     3
 10
-61.0
 20
0.0
 30
0.0
 11
-61.0
 21
-8.033895
 31
0.0
  0
LINE
  8
OUTLINE
  6
CONTINUOUS
 62
     3
 39
50.0
 10
56.0
 20
-8.033895
 30
0.0
 11
25.0
 21
-143.0
 31
0.0
  0
LINE
  8
OUTLINE
  6
CONTINUOUS
 62
     3
 10
61.0
 20
0.0
 30
0.0
 11
61.0
 21
-8.033895
 31
0.0
  0
LINE
  8
OUTLINE
  6
CONTINUOUS
 62
     3
 39
50.0
 10
-56.0
 20
-750.289308
 30
0.0
 11
-25.0
 21
-615.323204
 31
0.0
  0
LINE
  8
OUTLINE
  6
CONTINUOUS
 62
     3
 10
-25.0
 20
-615.323204
 30
0.0
 11
25.0
 21
-615.323204
 31
0.0
  0
LINE
  8
OUTLINE
  6
CONTINUOUS
 62
     3
 39
50.0
 10
56.0
 20
-750.289308
 30
0.0
 11
25.0
 21
-615.323204
 31
0.0
  0
LINE
  8
OUTLINE
  6
CONTINUOUS
 62
     3
 10
61.0
 20
-758.323204
 30
0.0
 11
61.0
 21
-750.289308
 31
0.0
  0
LINE
  8
OUTLINE
  6
CONTINUOUS
 62
     3
 10
-61.0
 20
-750.289308
 30
0.0
 11
61.0
 21
-750.289308
 31
0.0
  0
LINE
  8
OUTLINE
  6
CONTINUOUS
 62
     3
 10
-61.0
 20
-758.323204
 30
0.0
 11
-61.0
 21
-750.289308
 31
0.0
  0
LINE
  8
OUTLINE
  6
CONTINUOUS
 62
     3
 10
-18.676681
 20
-758.323204
 30
0.0
 11
61.0
 21
-758.323204
 31
0.0
  0
LINE
  8
SIZE
  6
CONTINUOUS
 62
    30
 10
-61.0
 20
20.0
 30
0.0
 11
-61.0
 21
98.08317
 31
0.0
  0
LINE
  8
SIZE
  6
CONTINUOUS
 62
    30
 10
61.0
 20
20.0
 30
0.0
 11
61.0
 21
98.08317
 31
0.0
  0
LINE
  8
SIZE
  6
CONTINUOUS
 62
    30
 10
-73.0
 20
78.08317
 30
0.0
 11
-85.0
 21
78.08317
 31
0.0
  0
LINE
  8
SIZE
  6
CONTINUOUS
 62
    30
 10
73.0
 20
78.08317
 30
0.0
 11
85.0
 21
78.08317
 31
0.0
  0
LINE
  8
SIZE
  6
CONTINUOUS
 62
    30
 10
-61.0
 20
78.08317
 30
0.0
 11
61.0
 21
78.08317
 31
0.0
  0
CIRCLE
  8
SIZE
  6
CONTINUOUS
 62
    30
 10
-61.0
 20
78.08317
 30
0.0
 40
6.0
  0
LINE
  8
SIZE
  6
CONTINUOUS
 62
    30
 10
-61.0
 20
78.08317
 30
0.0
 11
-73.0
 21
78.08317
 31
0.0
  0
CIRCLE
  8
SIZE
  6
CONTINUOUS
 62
    30
 10
61.0
 20
78.08317
 30
0.0
 40
6.0
  0
LINE
  8
SIZE
  6
CONTINUOUS
 62
    30
 10
61.0
 20
78.08317
 30
0.0
 11
73.0
 21
78.08317
 31
0.0
  0
TEXT
  8
SIZE
  6
CONTINUOUS
 62
    30
 10
-109.152
 20
103.08317
 30
0.0
 40
64.0
  1
φ122
 50
0.0
 41
0.9
 51
0.0
  7
STANDARD
 71
     0
 72
     1
 11
0.0
 21
103.08317
 31
0.0
210
0.0
220
0.0
230
1.0
  0
POINT
  8
DEFPOINTS
  6
CONTINUOUS
 62
    30
 10
-61.0
 20
0.0
 30
0.0
  0
POINT
  8
DEFPOINTS
  6
CONTINUOUS
 62
    30
 10
61.0
 20
0.0
 30
0.0
  0
POINT
  8
DEFPOINTS
  6
CONTINUOUS
 62
    30
 10
61.0
 20
78.08317
 30
0.0
  0
LINE
  8
SIZE
  6
CONTINUOUS
 62
    30
 10
-11.100002
 20
-635.323204
 30
0.0
 11
-11.100002
 21
-999.319214
 31
0.0
  0
LINE
  8
SIZE
  6
CONTINUOUS
 62
    30
 10
11.099998
 20
-635.323204
 30
0.0
 11
11.099998
 21
-999.319214
 31
0.0
  0
LINE
  8
SIZE
  6
CONTINUOUS
 62
    30
 10
-23.100002
 20
-979.319214
 30
0.0
 11
-35.100002
 21
-979.319214
 31
0.0
  0
LINE
  8
SIZE
  6
CONTINUOUS
 62
    30
 10
23.099998
 20
-979.319214
 30
0.0
 11
35.099998
 21
-979.319214
 31
0.0
  0
LINE
  8
SIZE
  6
CONTINUOUS
 62
    30
 10
-336.594554
 20
-979.319214
 30
0.0
 11
-11.100002
 21
-979.319214
 31
0.0
  0
TEXT
  8
SIZE
  6
CONTINUOUS
 62
    30
 10
-326.501983
 20
-954.319214
 30
0.0
 40
64.0
  1
φ22.2
 50
0.0
 41
0.9
 51
0.0
  7
STANDARD
 71
     0
 72
     1
 11
-197.765983
 21
-954.319214
 31
0.0
210
0.0
220
0.0
230
1.0
  0
LINE
  8
SIZE
  6
CONTINUOUS
 62
    30
 10
-11.100002
 20
-979.319214
 30
0.0
 11
11.099998
 21
-979.319214
 31
0.0
  0
LINE
  8
SIZE
  6
CONTINUOUS
 62
    30
 10
-11.100002
 20
-979.319214
 30
0.0
 11
11.099998
 21
-979.319214
 31
0.0
  0
CIRCLE
  8
SIZE
  6
CONTINUOUS
 62
    30
 10
-11.100002
 20
-979.319214
 30
0.0
 40
6.0
  0
LINE
  8
SIZE
  6
CONTINUOUS
 62
    30
 10
-11.100002
 20
-979.319214
 30
0.0
 11
-23.100002
 21
-979.319214
 31
0.0
  0
CIRCLE
  8
SIZE
  6
CONTINUOUS
 62
    30
 10
11.099998
 20
-979.319214
 30
0.0
 40
6.0
  0
LINE
  8
SIZE
  6
CONTINUOUS
 62
    30
 10
11.099998
 20
-979.319214
 30
0.0
 11
23.099998
 21
-979.319214
 31
0.0
  0
POINT
  8
DEFPOINTS
  6
CONTINUOUS
 62
    30
 10
-11.100002
 20
-615.323204
 30
0.0
  0
POINT
  8
DEFPOINTS
  6
CONTINUOUS
 62
    30
 10
11.099998
 20
-615.323204
 30
0.0
  0
POINT
  8
DEFPOINTS
  6
CONTINUOUS
 62
    30
 10
11.099998
 20
-979.319214
 30
0.0
  0
LINE
  8
SIZE
  6
CONTINUOUS
 62
    30
 39
50.0
 10
-446.477075
 20
-818.391257
 30
0.0
 11
-446.477075
 21
-1110.31838
 31
0.0
  0
LINE
  8
SIZE
  6
CONTINUOUS
 62
    30
 39
50.0
 10
-446.477075
 20
-1102.927815
 30
0.0
 11
252.353381
 21
-1102.927815
 31
0.0
  0
LINE
  8
SIZE
  6
CONTINUOUS
 62
    30
 10
-407.840042
 20
-1092.575054
 30
0.0
 11
-446.477075
 21
-1102.927815
 31
0.0
  0
LINE
  8
SIZE
  6
CONTINUOUS
 62
    30
 10
-446.477075
 20
-1102.927815
 30
0.0
 11
-407.840042
 21
-1113.280577
 31
0.0
  0
TEXT
  8
SIZE
  6
CONTINUOUS
 62
    30
 10
-191.296094
 20
-1085.631656
 30
0.0
 40
64.0
  1
φ900
 50
0.0
 41
0.9
 51
0.0
  7
STANDARD
 71
     0
 11
0.0
 21
0.0
 31
0.0
210
0.0
220
0.0
230
1.0
  0
LINE
  8
SIZE
  6
CONTINUOUS
 62
    30
 10
81.0
 20
0.0
 30
0.0
 11
235.382593
 21
0.0
 31
0.0
  0
LINE
  8
SIZE
  6
CONTINUOUS
 62
    30
 10
45.0
 20
-143.0
 30
0.0
 11
235.382593
 21
-143.0
 31
0.0
  0
LINE
  8
SIZE
  6
CONTINUOUS
 62
    30
 10
215.382593
 20
-12.0
 30
0.0
 11
215.382593
 21
-131.0
 31
0.0
  0
LINE
  8
SIZE
  6
CONTINUOUS
 62
    30
 10
215.382593
 20
-364.87797
 30
0.0
 11
215.382593
 21
-143.0
 31
0.0
  0
TEXT
  8
SIZE
  6
CONTINUOUS
 62
    30
 10
190.382593
 20
-346.474541
 30
0.0
 40
64.0
  1
143
 50
90.0
 41
0.9
 51
0.0
  7
STANDARD
 71
     0
 72
     1
 11
190.382593
 21
-271.306541
 31
0.0
210
0.0
220
0.0
230
1.0
  0
CIRCLE
  8
SIZE
  6
CONTINUOUS
 62
    30
 10
215.382593
 20
0.0
 30
0.0
 40
6.0
  0
LINE
  8
SIZE
  6
CONTINUOUS
 62
    30
 10
215.382593
 20
0.0
 30
0.0
 11
215.382593
 21
-12.0
 31
0.0
  0
CIRCLE
  8
SIZE
  6
CONTINUOUS
 62
    30
 10
215.382593
 20
-143.0
 30
0.0
 40
6.0
  0
LINE
  8
SIZE
  6
CONTINUOUS
 62
    30
 10
215.382593
 20
-143.0
 30
0.0
 11
215.382593
 21
-131.0
 31
0.0
  0
POINT
  8
DEFPOINTS
  6
CONTINUOUS
 62
    30
 10
61.0
 20
0.0
 30
0.0
  0
POINT
  8
DEFPOINTS
  6
CONTINUOUS
 62
    30
 10
25.0
 20
-143.0
 30
0.0
  0
POINT
  8
DEFPOINTS
  6
CONTINUOUS
 62
    30
 10
215.382593
 20
-143.0
 30
0.0
  0
LINE
  8
SIZE
  6
CONTINUOUS
 62
    30
 10
-81.0
 20
0.0
 30
0.0
 11
-595.522343
 21
0.0
 31
0.0
  0
LINE
  8
SIZE
  6
CONTINUOUS
 62
    30
 10
-502.791976
 20
-776.0
 30
0.0
 11
-595.522343
 21
-776.0
 31
0.0
  0
LINE
  8
SIZE
  6
CONTINUOUS
 62
    30
 10
-575.522343
 20
-12.0
 30
0.0
 11
-575.522343
 21
-764.0
 31
0.0
  0
CIRCLE
  8
SIZE
  6
CONTINUOUS
 62
    30
 10
-575.522343
 20
0.0
 30
0.0
 40
6.0
  0
LINE
  8
SIZE
  6
CONTINUOUS
 62
    30
 10
-575.522343
 20
0.0
 30
0.0
 11
-575.522343
 21
-12.0
 31
0.0
  0
CIRCLE
  8
SIZE
  6
CONTINUOUS
 62
    30
 10
-575.522343
 20
-776.0
 30
0.0
 40
6.0
  0
LINE
  8
SIZE
  6
CONTINUOUS
 62
    30
 10
-575.522343
 20
-776.0
 30
0.0
 11
-575.522343
 21
-764.0
 31
0.0
  0
TEXT
  8
SIZE
  6
CONTINUOUS
 62
    30
 10
-600.522343
 20
-468.352
 30
0.0
 40
64.0
  1
776
 50
90.0
 41
0.9
 51
0.0
  7
STANDARD
 71
     0
 72
     1
 11
-600.522343
 21
-388.0
 31
0.0
210
0.0
220
0.0
230
1.0
  0
POINT
  8
DEFPOINTS
  6
CONTINUOUS
 62
    30
 10
-61.0
 20
0.0
 30
0.0
  0
POINT
  8
DEFPOINTS
  6
CONTINUOUS
 62
    30
 10
-482.791976
 20
-776.0
 30
0.0
  0
POINT
  8
DEFPOINTS
  6
CONTINUOUS
 62
    30
 10
-575.522343
 20
-776.0
 30
0.0
  0
LINE
  8
SIZE
  6
CONTINUOUS
 62
    30
 10
-81.0
 20
0.0
 30
0.0
 11
-714.497157
 21
0.0
 31
0.0
  0
LINE
  8
SIZE
  6
CONTINUOUS
 62
    30
 10
-20.0
 20
-857.0
 30
0.0
 11
-714.497157
 21
-857.0
 31
0.0
  0
LINE
  8
SIZE
  6
CONTINUOUS
 62
    30
 10
-694.497157
 20
-12.0
 30
0.0
 11
-694.497157
 21
-845.0
 31
0.0
  0
CIRCLE
  8
SIZE
  6
CONTINUOUS
 62
    30
 10
-694.497157
 20
0.0
 30
0.0
 40
6.0
  0
LINE
  8
SIZE
  6
CONTINUOUS
 62
    30
 10
-694.497157
 20
0.0
 30
0.0
 11
-694.497157
 21
-12.0
 31
0.0
  0
CIRCLE
  8
SIZE
  6
CONTINUOUS
 62
    30
 10
-694.497157
 20
-857.0
 30
0.0
 40
6.0
  0
LINE
  8
SIZE
  6
CONTINUOUS
 62
    30
 10
-694.497157
 20
-857.0
 30
0.0
 11
-694.497157
 21
-845.0
 31
0.0
  0
TEXT
  8
SIZE
  6
CONTINUOUS
 62
    30
 10
-719.497157
 20
-508.852
 30
0.0
 40
64.0
  1
857
 50
90.0
 41
0.9
 51
0.0
  7
STANDARD
 71
     0
 72
     1
 11
-719.497157
 21
-428.5
 31
0.0
210
0.0
220
0.0
230
1.0
  0
POINT
  8
DEFPOINTS
  6
CONTINUOUS
 62
    30
 10
-61.0
 20
0.0
 30
0.0
  0
POINT
  8
DEFPOINTS
  6
CONTINUOUS
 62
    30
 10
0.0
 20
-857.0
 30
0.0
  0
POINT
  8
DEFPOINTS
  6
CONTINUOUS
 62
    30
 10
-694.497157
 20
-857.0
 30
0.0
  0
ARC
  8
OUTLINE
  6
CONTINUOUS
 62
     3
 10
0.0
 20
-557.3741
 30
0.0
 40
299.6259
 50
258.311673
 51
281.688326
  0
LINE
  8
OUTLINE
  6
CONTINUOUS
 62
     3
 10
-90.052009
 20
-796.076067
 30
0.0
 11
48.776532
 21
-796.076067
 31
0.0
  0
LINE
  8
OUTLINE
  6
CONTINUOUS
 62
     3
 10
115.0
 20
-811.806427
 30
0.0
 11
-115.0
 21
-811.806427
 31
0.0
  0
LINE
  8
OUTLINE
  6
CONTINUOUS
 62
     3
 10
83.0
 20
-843.378543
 30
0.0
 11
-83.0
 21
-843.378543
 31
0.0
  0
LINE
  8
OUTLINE
  6
CONTINUOUS
 62
     3
 10
75.248997
 20
-846.814633
 30
0.0
 11
-75.229887
 21
-846.814633
 31
0.0
  0
LINE
  8
OUTLINE
  6
CONTINUOUS
 62
     3
 10
-81.064874
 20
-764.115971
 30
0.0
 11
81.064874
 21
-764.115971
 31
0.0
  0
LINE
  8
OUTLINE
  6
CONTINUOUS
 62
     3
 10
31.460719
 20
-762.617841
 30
0.0
 11
-31.460719
 21
-762.617841
 31
0.0
  0
LINE
  8
DETAIL
  6
CONTINUOUS
 62
     5
 10
75.248997
 20
-846.814633
 30
0.0
 11
-75.229887
 21
-846.814633
 31
0.0
  0
LINE
  8
DETAIL
  6
CONTINUOUS
 62
     5
 10
83.0
 20
-843.378543
 30
0.0
 11
-83.0
 21
-843.378543
 31
0.0
  0
LINE
  8
DETAIL
  6
CONTINUOUS
 62
     5
 10
115.0
 20
-811.806427
 30
0.0
 11
-115.0
 21
-811.806427
 31
0.0
  0
LINE
  8
DETAIL
  6
CONTINUOUS
 62
     5
 10
-90.052009
 20
-796.076067
 30
0.0
 11
48.776532
 21
-796.076067
 31
0.0
  0
LINE
  8
DETAIL
  6
CONTINUOUS
 62
     5
 10
-81.064874
 20
-764.115971
 30
0.0
 11
81.064874
 21
-764.115971
 31
0.0
  0
LINE
  8
DETAIL
  6
CONTINUOUS
 62
     5
 10
31.460719
 20
-762.617841
 30
0.0
 11
-31.460719
 21
-762.617841
 31
0.0
  0
ARC
  8
DETAIL
  6
CONTINUOUS
 62
     5
 10
0.0
 20
-557.3741
 30
0.0
 40
299.6259
 50
258.311673
 51
281.688326
  0
LINE
  8
OUTLINE
  6
CONTINUOUS
 62
     3
 10
446.477047
 20
-783.889562
 30
0.0
 11
139.084289
 21
-783.843999
 31
0.0
  0
LINE
  8
OUTLINE
  6
CONTINUOUS
 62
     3
 10
249.823225
 20
-797.413801
 30
0.0
 11
178.331898
 21
-799.01767
 31
0.0
  0
LINE
  8
OUTLINE
  6
CONTINUOUS
 62
     3
 10
249.823161
 20
-796.672978
 30
0.0
 11
178.325958
 21
-798.276935
 31
0.0
  0
LINE
  8
OUTLINE
  6
CONTINUOUS
 62
     3
 10
369.735228
 20
-760.613516
 30
0.0
 11
114.444853
 21
-760.575675
 31
0.0
  0
LINE
  8
DETAIL
  6
CONTINUOUS
 62
     5
 10
369.735228
 20
-760.613516
 30
0.0
 11
114.444853
 21
-760.575675
 31
0.0
  0
LINE
  8
DETAIL
  6
CONTINUOUS
 62
     5
 10
249.823161
 20
-796.672978
 30
0.0
 11
178.325958
 21
-798.276935
 31
0.0
  0
LINE
  8
DETAIL
  6
CONTINUOUS
 62
     5
 10
249.823225
 20
-797.413801
 30
0.0
 11
178.331898
 21
-799.01767
 31
0.0
  0
LINE
  8
DETAIL
  6
CONTINUOUS
 62
     5
 10
446.477047
 20
-783.889562
 30
0.0
 11
139.084289
 21
-783.843999
 31
0.0
  0
LINE
  8
OUTLINE
  6
CONTINUOUS
 62
     3
 10
449.40786
 20
-781.588072
 30
0.0
 11
449.429992
 21
-771.585181
 31
0.0
  0
LINE
  8
DETAIL
  6
CONTINUOUS
 62
     5
 10
449.40786
 20
-781.588072
 30
0.0
 11
449.429992
 21
-771.585181
 31
0.0
  0
LINE
  8
OUTLINE
  6
CONTINUOUS
 62
     3
 10
392.033855
 20
-790.989086
 30
0.0
 11
321.090763
 21
-794.736467
 31
0.0
  0
LINE
  8
OUTLINE
  6
CONTINUOUS
 62
     3
 10
392.033799
 20
-790.248263
 30
0.0
 11
321.096552
 21
-793.995381
 31
0.0
  0
LINE
  8
DETAIL
  6
CONTINUOUS
 62
     5
 10
392.033799
 20
-790.248263
 30
0.0
 11
321.096552
 21
-793.995381
 31
0.0
  0
LINE
  8
DETAIL
  6
CONTINUOUS
 62
     5
 10
392.033855
 20
-790.989086
 30
0.0
 11
321.090763
 21
-794.736467
 31
0.0
  0
LINE
  8
OUTLINE
  6
CONTINUOUS
 62
     3
 10
407.941321
 20
-789.859397
 30
0.0
 11
392.033855
 21
-790.989086
 31
0.0
  0
LINE
  8
OUTLINE
  6
CONTINUOUS
 62
     3
 10
407.938213
 20
-789.118821
 30
0.0
 11
392.033799
 21
-790.248263
 31
0.0
  0
LINE
  8
DETAIL
  6
CONTINUOUS
 62
     5
 10
407.938213
 20
-789.118821
 30
0.0
 11
392.033799
 21
-790.248263
 31
0.0
  0
LINE
  8
DETAIL
  6
CONTINUOUS
 62
     5
 10
407.941321
 20
-789.859397
 30
0.0
 11
392.033855
 21
-790.989086
 31
0.0
  0
LINE
  8
OUTLINE
  6
CONTINUOUS
 62
     3
 10
446.477075
 20
-784.648691
 30
0.0
 11
444.432576
 21
-785.49163
 31
0.0
  0
LINE
  8
OUTLINE
  6
CONTINUOUS
 62
     3
 10
444.432576
 20
-785.49163
 30
0.0
 11
441.995906
 21
-786.157015
 31
0.0
  0
LINE
  8
OUTLINE
  6
CONTINUOUS
 62
     3
 10
446.477047
 20
-783.889562
 30
0.0
 11
444.413695
 21
-784.744898
 31
0.0
  0
LINE
  8
OUTLINE
  6
CONTINUOUS
 62
     3
 10
444.413695
 20
-784.744898
 30
0.0
 11
441.937171
 21
-785.422868
 31
0.0
  0
LINE
  8
OUTLINE
  6
CONTINUOUS
 62
     3
 10
441.937171
 20
-785.422868
 30
0.0
 11
439.151505
 21
-785.896361
 31
0.0
  0
LINE
  8
OUTLINE
  6
CONTINUOUS
 62
     3
 10
448.095359
 20
-783.936396
 30
0.0
 11
446.477075
 21
-784.648691
 31
0.0
  0
LINE
  8
OUTLINE
  6
CONTINUOUS
 62
     3
 10
449.069902
 20
-782.404796
 30
0.0
 11
448.078236
 21
-783.182813
 31
0.0
  0
LINE
  8
OUTLINE
  6
CONTINUOUS
 62
     3
 10
448.078236
 20
-783.182813
 30
0.0
 11
446.477047
 21
-783.889562
 31
0.0
  0
LINE
  8
OUTLINE
  6
CONTINUOUS
 62
     3
 10
439.151561
 20
-786.637184
 30
0.0
 11
423.656376
 21
-788.407945
 31
0.0
  0
LINE
  8
OUTLINE
  6
CONTINUOUS
 62
     3
 10
423.656376
 20
-788.407945
 30
0.0
 11
407.941321
 21
-789.859397
 31
0.0
  0
LINE
  8
OUTLINE
  6
CONTINUOUS
 62
     3
 10
439.151505
 20
-785.896361
 30
0.0
 11
423.659324
 21
-787.666814
 31
0.0
  0
LINE
  8
OUTLINE
  6
CONTINUOUS
 62
     3
 10
423.659324
 20
-787.666814
 30
0.0
 11
407.938213
 21
-789.118821
 31
0.0
  0
LINE
  8
OUTLINE
  6
CONTINUOUS
 62
     3
 10
441.995906
 20
-786.157015
 30
0.0
 11
439.151561
 21
-786.637184
 31
0.0
  0
LINE
  8
OUTLINE
  6
CONTINUOUS
 62
     3
 10
449.40786
 20
-782.359848
 30
0.0
 11
449.073317
 21
-783.168287
 31
0.0
  0
LINE
  8
OUTLINE
  6
CONTINUOUS
 62
     3
 10
449.073317
 20
-783.168287
 30
0.0
 11
448.095359
 21
-783.936396
 31
0.0
  0
LINE
  8
OUTLINE
  6
CONTINUOUS
 62
     3
 10
449.40786
 20
-781.588072
 30
0.0
 11
449.069902
 21
-782.404796
 31
0.0
  0
LINE
  8
OUTLINE
  6
CONTINUOUS
 62
     3
 10
449.40786
 20
-781.588072
 30
0.0
 11
449.40786
 21
-782.359848
 31
0.0
  0
LINE
  8
DETAIL
  6
CONTINUOUS
 62
     5
 10
449.40786
 20
-781.588072
 30
0.0
 11
449.40786
 21
-782.359848
 31
0.0
  0
LINE
  8
DETAIL
  6
CONTINUOUS
 62
     5
 10
449.40786
 20
-781.588072
 30
0.0
 11
449.069902
 21
-782.404796
 31
0.0
  0
LINE
  8
DETAIL
  6
CONTINUOUS
 62
     5
 10
449.073317
 20
-783.168287
 30
0.0
 11
448.095359
 21
-783.936396
 31
0.0
  0
LINE
  8
DETAIL
  6
CONTINUOUS
 62
     5
 10
449.40786
 20
-782.359848
 30
0.0
 11
449.073317
 21
-783.168287
 31
0.0
  0
LINE
  8
DETAIL
  6
CONTINUOUS
 62
     5
 10
441.995906
 20
-786.157015
 30
0.0
 11
439.151561
 21
-786.637184
 31
0.0
  0
LINE
  8
DETAIL
  6
CONTINUOUS
 62
     5
 10
423.659324
 20
-787.666814
 30
0.0
 11
407.938213
 21
-789.118821
 31
0.0
  0
LINE
  8
DETAIL
  6
CONTINUOUS
 62
     5
 10
439.151505
 20
-785.896361
 30
0.0
 11
423.659324
 21
-787.666814
 31
0.0
  0
LINE
  8
DETAIL
  6
CONTINUOUS
 62
     5
 10
423.656376
 20
-788.407945
 30
0.0
 11
407.941321
 21
-789.859397
 31
0.0
  0
LINE
  8
DETAIL
  6
CONTINUOUS
 62
     5
 10
439.151561
 20
-786.637184
 30
0.0
 11
423.656376
 21
-788.407945
 31
0.0
  0
LINE
  8
DETAIL
  6
CONTINUOUS
 62
     5
 10
448.078236
 20
-783.182813
 30
0.0
 11
446.477047
 21
-783.889562
 31
0.0
  0
LINE
  8
DETAIL
  6
CONTINUOUS
 62
     5
 10
449.069902
 20
-782.404796
 30
0.0
 11
448.078236
 21
-783.182813
 31
0.0
  0
LINE
  8
DETAIL
  6
CONTINUOUS
 62
     5
 10
448.095359
 20
-783.936396
 30
0.0
 11
446.477075
 21
-784.648691
 31
0.0
  0
LINE
  8
DETAIL
  6
CONTINUOUS
 62
     5
 10
441.937171
 20
-785.422868
 30
0.0
 11
439.151505
 21
-785.896361
 31
0.0
  0
LINE
  8
DETAIL
  6
CONTINUOUS
 62
     5
 10
444.413695
 20
-784.744898
 30
0.0
 11
441.937171
 21
-785.422868
 31
0.0
  0
LINE
  8
DETAIL
  6
CONTINUOUS
 62
     5
 10
446.477047
 20
-783.889562
 30
0.0
 11
444.413695
 21
-784.744898
 31
0.0
  0
LINE
  8
DETAIL
  6
CONTINUOUS
 62
     5
 10
444.432576
 20
-785.49163
 30
0.0
 11
441.995906
 21
-786.157015
 31
0.0
  0
LINE
  8
DETAIL
  6
CONTINUOUS
 62
     5
 10
446.477075
 20
-784.648691
 30
0.0
 11
444.432576
 21
-785.49163
 31
0.0
  0
LINE
  8
OUTLINE
  6
CONTINUOUS
 62
     3
 10
321.090763
 20
-794.736467
 30
0.0
 11
249.823225
 21
-797.413801
 31
0.0
  0
LINE
  8
OUTLINE
  6
CONTINUOUS
 62
     3
 10
321.096552
 20
-793.995381
 30
0.0
 11
249.823161
 21
-796.672978
 31
0.0
  0
LINE
  8
DETAIL
  6
CONTINUOUS
 62
     5
 10
321.096552
 20
-793.995381
 30
0.0
 11
249.823161
 21
-796.672978
 31
0.0
  0
LINE
  8
DETAIL
  6
CONTINUOUS
 62
     5
 10
321.090763
 20
-794.736467
 30
0.0
 11
249.823225
 21
-797.413801
 31
0.0
  0
LINE
  8
OUTLINE
  6
CONTINUOUS
 62
     3
 10
405.876863
 20
-761.764267
 30
0.0
 11
423.275012
 21
-763.182676
 31
0.0
  0
LINE
  8
DETAIL
  6
CONTINUOUS
 62
     5
 10
405.876863
 20
-761.764267
 30
0.0
 11
423.275012
 21
-763.182676
 31
0.0
  0
LINE
  8
OUTLINE
  6
CONTINUOUS
 62
     3
 10
423.275012
 20
-763.182676
 30
0.0
 11
429.538464
 21
-763.936551
 31
0.0
  0
LINE
  8
OUTLINE
  6
CONTINUOUS
 62
     3
 10
429.538464
 20
-763.936551
 30
0.0
 11
435.340052
 21
-764.906911
 31
0.0
  0
LINE
  8
OUTLINE
  6
CONTINUOUS
 62
     3
 10
435.340052
 20
-764.906911
 30
0.0
 11
440.56878
 21
-766.075197
 31
0.0
  0
LINE
  8
OUTLINE
  6
CONTINUOUS
 62
     3
 10
449.429964
 20
-771.580683
 30
0.0
 11
449.429992
 21
-771.585181
 31
0.0
  0
LINE
  8
OUTLINE
  6
CONTINUOUS
 62
     3
 10
440.56878
 20
-766.075197
 30
0.0
 11
444.332461
 21
-767.253845
 31
0.0
  0
LINE
  8
OUTLINE
  6
CONTINUOUS
 62
     3
 10
444.332461
 20
-767.253845
 30
0.0
 11
447.129417
 21
-768.600723
 31
0.0
  0
LINE
  8
OUTLINE
  6
CONTINUOUS
 62
     3
 10
447.129417
 20
-768.600723
 30
0.0
 11
448.850903
 21
-770.063457
 31
0.0
  0
LINE
  8
OUTLINE
  6
CONTINUOUS
 62
     3
 10
448.850903
 20
-770.063457
 30
0.0
 11
449.429964
 21
-771.580683
 31
0.0
  0
LINE
  8
DETAIL
  6
CONTINUOUS
 62
     5
 10
448.850903
 20
-770.063457
 30
0.0
 11
449.429964
 21
-771.580683
 31
0.0
  0
LINE
  8
DETAIL
  6
CONTINUOUS
 62
     5
 10
447.129417
 20
-768.600723
 30
0.0
 11
448.850903
 21
-770.063457
 31
0.0
  0
LINE
  8
DETAIL
  6
CONTINUOUS
 62
     5
 10
444.332461
 20
-767.253845
 30
0.0
 11
447.129417
 21
-768.600723
 31
0.0
  0
LINE
  8
DETAIL
  6
CONTINUOUS
 62
     5
 10
440.56878
 20
-766.075197
 30
0.0
 11
444.332461
 21
-767.253845
 31
0.0
  0
LINE
  8
DETAIL
  6
CONTINUOUS
 62
     5
 10
449.429964
 20
-771.580683
 30
0.0
 11
449.429992
 21
-771.585181
 31
0.0
  0
LINE
  8
DETAIL
  6
CONTINUOUS
 62
     5
 10
435.340052
 20
-764.906911
 30
0.0
 11
440.56878
 21
-766.075197
 31
0.0
  0
LINE
  8
DETAIL
  6
CONTINUOUS
 62
     5
 10
429.538464
 20
-763.936551
 30
0.0
 11
435.340052
 21
-764.906911
 31
0.0
  0
LINE
  8
DETAIL
  6
CONTINUOUS
 62
     5
 10
423.275012
 20
-763.182676
 30
0.0
 11
429.538464
 21
-763.936551
 31
0.0
  0
LINE
  8
OUTLINE
  6
CONTINUOUS
 62
     3
 10
369.735228
 20
-760.613516
 30
0.0
 11
387.941644
 21
-760.90363
 31
0.0
  0
LINE
  8
OUTLINE
  6
CONTINUOUS
 62
     3
 10
387.941644
 20
-760.90363
 30
0.0
 11
405.876863
 21
-761.764267
 31
0.0
  0
LINE
  8
DETAIL
  6
CONTINUOUS
 62
     5
 10
387.941644
 20
-760.90363
 30
0.0
 11
405.876863
 21
-761.764267
 31
0.0
  0
LINE
  8
DETAIL
  6
CONTINUOUS
 62
     5
 10
369.735228
 20
-760.613516
 30
0.0
 11
387.941644
 21
-760.90363
 31
0.0
  0
LINE
  8
OUTLINE
  6
CONTINUOUS
 62
     3
 10
141.585834
 20
-783.584024
 30
0.0
 11
196.51116
 21
-776.874517
 31
0.0
  0
LINE
  8
OUTLINE
  6
CONTINUOUS
 62
     3
 10
141.585834
 20
-781.929645
 30
0.0
 11
196.51116
 21
-775.220143
 31
0.0
  0
LINE
  8
OUTLINE
  6
CONTINUOUS
 62
     3
 10
97.834504
 20
-776.866543
 30
0.0
 11
100.155482
 21
-780.103014
 31
0.0
  0
LINE
  8
OUTLINE
  6
CONTINUOUS
 62
     3
 10
101.420874
 20
-778.836631
 30
0.0
 11
100.155482
 21
-777.107406
 31
0.0
  0
LINE
  8
DETAIL
  6
CONTINUOUS
 62
     5
 10
101.420874
 20
-778.836631
 30
0.0
 11
100.155482
 21
-777.107406
 31
0.0
  0
LINE
  8
DETAIL
  6
CONTINUOUS
 62
     5
 10
97.834504
 20
-776.866543
 30
0.0
 11
100.155482
 21
-780.103014
 31
0.0
  0
LINE
  8
DETAIL
  6
CONTINUOUS
 62
     5
 10
141.585834
 20
-781.929645
 30
0.0
 11
196.51116
 21
-775.220143
 31
0.0
  0
LINE
  8
DETAIL
  6
CONTINUOUS
 62
     5
 10
141.585834
 20
-783.584024
 30
0.0
 11
196.51116
 21
-776.874517
 31
0.0
  0
LINE
  8
OUTLINE
  6
CONTINUOUS
 62
     3
 10
178.331898
 20
-799.01767
 30
0.0
 11
106.717637
 21
-799.545603
 31
0.0
  0
LINE
  8
OUTLINE
  6
CONTINUOUS
 62
     3
 10
178.325958
 20
-798.276935
 30
0.0
 11
106.717581
 21
-798.80478
 31
0.0
  0
LINE
  8
OUTLINE
  6
CONTINUOUS
 62
     3
 10
119.718249
 20
-785.476769
 30
0.0
 11
108.391806
 21
-785.903999
 31
0.0
  0
LINE
  8
OUTLINE
  6
CONTINUOUS
 62
     3
 10
119.964949
 20
-783.809099
 30
0.0
 11
108.76681
 21
-784.241115
 31
0.0
  0
LINE
  8
DETAIL
  6
CONTINUOUS
 62
     5
 10
119.964949
 20
-783.809099
 30
0.0
 11
108.76681
 21
-784.241115
 31
0.0
  0
LINE
  8
DETAIL
  6
CONTINUOUS
 62
     5
 10
119.718249
 20
-785.476769
 30
0.0
 11
108.391806
 21
-785.903999
 31
0.0
  0
LINE
  8
DETAIL
  6
CONTINUOUS
 62
     5
 10
178.325958
 20
-798.276935
 30
0.0
 11
106.717581
 21
-798.80478
 31
0.0
  0
LINE
  8
DETAIL
  6
CONTINUOUS
 62
     5
 10
178.331898
 20
-799.01767
 30
0.0
 11
106.717637
 21
-799.545603
 31
0.0
  0
LINE
  8
OUTLINE
  6
CONTINUOUS
 62
     3
 10
141.585834
 20
-783.584024
 30
0.0
 11
130.836619
 21
-784.701145
 31
0.0
  0
LINE
  8
OUTLINE
  6
CONTINUOUS
 62
     3
 10
130.836619
 20
-784.701145
 30
0.0
 11
119.718249
 21
-785.476769
 31
0.0
  0
LINE
  8
OUTLINE
  6
CONTINUOUS
 62
     3
 10
141.585834
 20
-781.929645
 30
0.0
 11
130.956014
 21
-783.03642
 31
0.0
  0
LINE
  8
OUTLINE
  6
CONTINUOUS
 62
     3
 10
130.956014
 20
-783.03642
 30
0.0
 11
119.964949
 21
-783.809099
 31
0.0
  0
LINE
  8
DETAIL
  6
CONTINUOUS
 62
     5
 10
130.956014
 20
-783.03642
 30
0.0
 11
119.964949
 21
-783.809099
 31
0.0
  0
LINE
  8
DETAIL
  6
CONTINUOUS
 62
     5
 10
141.585834
 20
-781.929645
 30
0.0
 11
130.956014
 21
-783.03642
 31
0.0
  0
LINE
  8
DETAIL
  6
CONTINUOUS
 62
     5
 10
130.836619
 20
-784.701145
 30
0.0
 11
119.718249
 21
-785.476769
 31
0.0
  0
LINE
  8
DETAIL
  6
CONTINUOUS
 62
     5
 10
141.585834
 20
-783.584024
 30
0.0
 11
130.836619
 21
-784.701145
 31
0.0
  0
LINE
  8
OUTLINE
  6
CONTINUOUS
 62
     3
 10
48.776532
 20
-796.076067
 30
0.0
 11
90.251213
 21
-796.076067
 31
0.0
  0
LINE
  8
DETAIL
  6
CONTINUOUS
 62
     5
 10
48.776532
 20
-796.076067
 30
0.0
 11
90.251213
 21
-796.076067
 31
0.0
  0
LINE
  8
OUTLINE
  6
CONTINUOUS
 62
     3
 10
115.000935
 20
-811.806427
 30
0.0
 11
115.000935
 21
-810.557985
 31
0.0
  0
LINE
  8
OUTLINE
  6
CONTINUOUS
 62
     3
 10
115.000935
 20
-813.554244
 30
0.0
 11
115.000935
 21
-811.806427
 31
0.0
  0
ARC
  8
OUTLINE
  6
CONTINUOUS
 62
     3
 10
96.892177
 20
-812.62436
 30
0.0
 40
18.226273
 50
6.509816
 51
21.693889
  0
ARC
  8
OUTLINE
  6
CONTINUOUS
 62
     3
 10
96.892177
 20
-812.62436
 30
0.0
 40
18.226273
 50
6.509816
 51
21.693889
  0
LINE
  8
OUTLINE
  6
CONTINUOUS
 62
     3
 10
113.824791
 20
-805.879778
 30
0.0
 11
113.827468
 21
-805.886941
 31
0.0
  0
LINE
  8
OUTLINE
  6
CONTINUOUS
 62
     3
 10
113.807057
 20
-805.833856
 30
0.0
 11
113.824791
 21
-805.879778
 31
0.0
  0
LINE
  8
OUTLINE
  6
CONTINUOUS
 62
     3
 10
113.767954
 20
-805.733697
 30
0.0
 11
113.807057
 21
-805.833856
 31
0.0
  0
LINE
  8
OUTLINE
  6
CONTINUOUS
 62
     3
 10
113.739442
 20
-805.661679
 30
0.0
 11
113.767954
 21
-805.733697
 31
0.0
  0
LINE
  8
OUTLINE
  6
CONTINUOUS
 62
     3
 10
113.705088
 20
-805.576169
 30
0.0
 11
113.739442
 21
-805.661679
 31
0.0
  0
LINE
  8
OUTLINE
  6
CONTINUOUS
 62
     3
 10
113.65074
 20
-805.443599
 30
0.0
 11
113.66521
 21
-805.478579
 31
0.0
  0
LINE
  8
OUTLINE
  6
CONTINUOUS
 62
     3
 10
113.66521
 20
-805.478579
 30
0.0
 11
113.705088
 21
-805.576169
 31
0.0
  0
LINE
  8
OUTLINE
  6
CONTINUOUS
 62
     3
 10
113.587355
 20
-805.292787
 30
0.0
 11
113.65074
 21
-805.443599
 31
0.0
  0
LINE
  8
OUTLINE
  6
CONTINUOUS
 62
     3
 10
113.552523
 20
-805.211481
 30
0.0
 11
113.587355
 21
-805.292787
 31
0.0
  0
LINE
  8
OUTLINE
  6
CONTINUOUS
 62
     3
 10
113.496469
 20
-805.082877
 30
0.0
 11
113.515653
 21
-805.126591
 31
0.0
  0
LINE
  8
OUTLINE
  6
CONTINUOUS
 62
     3
 10
113.515653
 20
-805.126591
 30
0.0
 11
113.552523
 21
-805.211481
 31
0.0
  0
LINE
  8
OUTLINE
  6
CONTINUOUS
 62
     3
 10
113.456623
 20
-804.993081
 30
0.0
 11
113.496469
 21
-805.082877
 31
0.0
  0
LINE
  8
OUTLINE
  6
CONTINUOUS
 62
     3
 10
113.414859
 20
-804.900349
 30
0.0
 11
113.456623
 21
-804.993081
 31
0.0
  0
LINE
  8
OUTLINE
  6
CONTINUOUS
 62
     3
 10
113.371233
 20
-804.804956
 30
0.0
 11
113.414859
 21
-804.900349
 31
0.0
  0
LINE
  8
OUTLINE
  6
CONTINUOUS
 62
     3
 10
113.325818
 20
-804.70719
 30
0.0
 11
113.371233
 21
-804.804956
 31
0.0
  0
LINE
  8
OUTLINE
  6
CONTINUOUS
 62
     3
 10
113.278693
 20
-804.607323
 30
0.0
 11
113.325818
 21
-804.70719
 31
0.0
  0
LINE
  8
OUTLINE
  6
CONTINUOUS
 62
     3
 10
113.229878
 20
-804.50553
 30
0.0
 11
113.278693
 21
-804.607323
 31
0.0
  0
LINE
  8
OUTLINE
  6
CONTINUOUS
 62
     3
 10
113.179361
 20
-804.401868
 30
0.0
 11
113.229878
 21
-804.50553
 31
0.0
  0
LINE
  8
OUTLINE
  6
CONTINUOUS
 62
     3
 10
113.127102
 20
-804.296367
 30
0.0
 11
113.179361
 21
-804.401868
 31
0.0
  0
LINE
  8
OUTLINE
  6
CONTINUOUS
 62
     3
 10
113.073074
 20
-804.189069
 30
0.0
 11
113.127102
 21
-804.296367
 31
0.0
  0
LINE
  8
OUTLINE
  6
CONTINUOUS
 62
     3
 10
113.017239
 20
-804.080009
 30
0.0
 11
113.073074
 21
-804.189069
 31
0.0
  0
LINE
  8
OUTLINE
  6
CONTINUOUS
 62
     3
 10
112.959567
 20
-803.969232
 30
0.0
 11
113.017239
 21
-804.080009
 31
0.0
  0
LINE
  8
OUTLINE
  6
CONTINUOUS
 62
     3
 10
112.900026
 20
-803.856764
 30
0.0
 11
112.959567
 21
-803.969232
 31
0.0
  0
LINE
  8
OUTLINE
  6
CONTINUOUS
 62
     3
 10
112.83855
 20
-803.742599
 30
0.0
 11
112.900026
 21
-803.856764
 31
0.0
  0
LINE
  8
OUTLINE
  6
CONTINUOUS
 62
     3
 10
112.742566
 20
-803.568133
 30
0.0
 11
112.775074
 21
-803.626719
 31
0.0
  0
LINE
  8
OUTLINE
  6
CONTINUOUS
 62
     3
 10
112.775074
 20
-803.626719
 30
0.0
 11
112.83855
 21
-803.742599
 31
0.0
  0
LINE
  8
OUTLINE
  6
CONTINUOUS
 62
     3
 10
112.675969
 20
-803.449656
 30
0.0
 11
112.742566
 21
-803.568133
 31
0.0
  0
LINE
  8
OUTLINE
  6
CONTINUOUS
 62
     3
 10
112.607203
 20
-803.329431
 30
0.0
 11
112.675969
 21
-803.449656
 31
0.0
  0
LINE
  8
OUTLINE
  6
CONTINUOUS
 62
     3
 10
112.536196
 20
-803.207455
 30
0.0
 11
112.607203
 21
-803.329431
 31
0.0
  0
LINE
  8
OUTLINE
  6
CONTINUOUS
 62
     3
 10
112.462875
 20
-803.083721
 30
0.0
 11
112.536196
 21
-803.207455
 31
0.0
  0
LINE
  8
OUTLINE
  6
CONTINUOUS
 62
     3
 10
112.387162
 20
-802.958222
 30
0.0
 11
112.462875
 21
-803.083721
 31
0.0
  0
LINE
  8
OUTLINE
  6
CONTINUOUS
 62
     3
 10
112.308968
 20
-802.830929
 30
0.0
 11
112.387162
 21
-802.958222
 31
0.0
  0
LINE
  8
OUTLINE
  6
CONTINUOUS
 62
     3
 10
112.228192
 20
-802.70181
 30
0.0
 11
112.308968
 21
-802.830929
 31
0.0
  0
LINE
  8
OUTLINE
  6
CONTINUOUS
 62
     3
 10
112.144749
 20
-802.57085
 30
0.0
 11
112.228192
 21
-802.70181
 31
0.0
  0
LINE
  8
OUTLINE
  6
CONTINUOUS
 62
     3
 10
112.058528
 20
-802.438028
 30
0.0
 11
112.144749
 21
-802.57085
 31
0.0
  0
LINE
  8
OUTLINE
  6
CONTINUOUS
 62
     3
 10
111.969432
 20
-802.30332
 30
0.0
 11
112.058528
 21
-802.438028
 31
0.0
  0
ARC
  8
OUTLINE
  6
CONTINUOUS
 62
     3
 10
96.917482
 20
-811.706707
 30
0.0
 40
18.177587
 50
328.660185
 51
354.166488
  0
ARC
  8
OUTLINE
  6
CONTINUOUS
 62
     3
 10
73.689558
 20
-798.398635
 30
0.0
 40
44.943884
 50
299.83761
 51
329.571403
  0
LINE
  8
OUTLINE
  6
CONTINUOUS
 62
     3
 10
83.39895
 20
-843.295403
 30
0.0
 11
96.051095
 21
-837.384715
 31
0.0
  0
ARC
  8
OUTLINE
  6
CONTINUOUS
 62
     3
 10
75.001247
 20
-845.843859
 30
0.0
 40
0.998753
 50
288.89386
 51
0.0
  0
LINE
  8
OUTLINE
  6
CONTINUOUS
 62
     3
 10
76.0
 20
-845.843859
 30
0.0
 11
76.0
 21
-845.539367
 31
0.0
  0
LINE
  8
OUTLINE
  6
CONTINUOUS
 62
     3
 10
71.321587
 20
-846.814633
 30
0.0
 11
76.500365
 21
-845.402975
 31
0.0
  0
LINE
  8
OUTLINE
  6
CONTINUOUS
 62
     3
 10
76.500365
 20
-845.402975
 30
0.0
 11
81.323315
 21
-843.893887
 31
0.0
  0
LINE
  8
OUTLINE
  6
CONTINUOUS
 62
     3
 10
81.323315
 20
-843.378543
 30
0.0
 11
81.323315
 21
-843.893887
 31
0.0
  0
LINE
  8
OUTLINE
  6
CONTINUOUS
 62
     3
 10
76.500365
 20
-845.402975
 30
0.0
 11
81.323315
 21
-843.893887
 31
0.0
  0
LINE
  8
OUTLINE
  6
CONTINUOUS
 62
     3
 10
81.323315
 20
-843.378543
 30
0.0
 11
81.323315
 21
-843.893887
 31
0.0
  0
LINE
  8
OUTLINE
  6
CONTINUOUS
 62
     3
 10
71.321587
 20
-846.814633
 30
0.0
 11
76.500365
 21
-845.402975
 31
0.0
  0
ARC
  8
OUTLINE
  6
CONTINUOUS
 62
     3
 10
36.055102
 20
-731.89748
 30
0.0
 40
121.417105
 50
281.711373
 51
288.870296
  0
LINE
  8
OUTLINE
  6
CONTINUOUS
 62
     3
 10
83.0
 20
-843.378543
 30
0.0
 11
83.39895
 21
-843.295403
 31
0.0
  0
LINE
  8
OUTLINE
  6
CONTINUOUS
 62
     3
 10
108.391806
 20
-785.903999
 30
0.0
 11
106.653924
 21
-785.753923
 31
0.0
  0
LINE
  8
OUTLINE
  6
CONTINUOUS
 62
     3
 10
106.653924
 20
-785.753923
 30
0.0
 11
105.073518
 21
-785.245781
 31
0.0
  0
LINE
  8
OUTLINE
  6
CONTINUOUS
 62
     3
 10
99.035876
 20
-799.544464
 30
0.0
 11
96.623472
 21
-799.419604
 31
0.0
  0
LINE
  8
OUTLINE
  6
CONTINUOUS
 62
     3
 10
96.623472
 20
-799.419604
 30
0.0
 11
94.402125
 21
-799.058112
 31
0.0
  0
LINE
  8
OUTLINE
  6
CONTINUOUS
 62
     3
 10
94.402125
 20
-799.058112
 30
0.0
 11
92.533327
 21
-798.492606
 31
0.0
  0
LINE
  8
OUTLINE
  6
CONTINUOUS
 62
     3
 10
92.533327
 20
-798.492606
 30
0.0
 11
91.130091
 21
-797.763264
 31
0.0
  0
LINE
  8
OUTLINE
  6
CONTINUOUS
 62
     3
 10
91.130091
 20
-797.763264
 30
0.0
 11
90.284586
 21
-796.918851
 31
0.0
  0
LINE
  8
OUTLINE
  6
CONTINUOUS
 62
     3
 10
90.284586
 20
-796.918851
 30
0.0
 11
90.052093
 21
-796.153742
 31
0.0
  0
LINE
  8
OUTLINE
  6
CONTINUOUS
 62
     3
 10
99.03582
 20
-798.803641
 30
0.0
 11
96.65516
 21
-798.682125
 31
0.0
  0
LINE
  8
OUTLINE
  6
CONTINUOUS
 62
     3
 10
96.65516
 20
-798.682125
 30
0.0
 11
94.442451
 21
-798.326397
 31
0.0
  0
LINE
  8
OUTLINE
  6
CONTINUOUS
 62
     3
 10
94.442451
 20
-798.326397
 30
0.0
 11
92.555563
 21
-797.760584
 31
0.0
  0
LINE
  8
OUTLINE
  6
CONTINUOUS
 62
     3
 10
92.555563
 20
-797.760584
 30
0.0
 11
91.132248
 21
-797.023987
 31
0.0
  0
LINE
  8
OUTLINE
  6
CONTINUOUS
 62
     3
 10
99.035876
 20
-799.544464
 30
0.0
 11
106.717637
 21
-799.545603
 31
0.0
  0
LINE
  8
OUTLINE
  6
CONTINUOUS
 62
     3
 10
99.03582
 20
-798.803641
 30
0.0
 11
106.717581
 21
-798.80478
 31
0.0
  0
LINE
  8
OUTLINE
  6
CONTINUOUS
 62
     3
 10
102.698946
 20
-800.09264
 30
0.0
 11
109.637443
 21
-800.09264
 31
0.0
  0
LINE
  8
OUTLINE
  6
CONTINUOUS
 62
     3
 10
103.619249
 20
-784.326433
 30
0.0
 11
100.679839
 21
-787.204859
 31
0.0
  0
LINE
  8
OUTLINE
  6
CONTINUOUS
 62
     3
 10
100.679839
 20
-787.204859
 30
0.0
 11
96.479887
 21
-790.445825
 31
0.0
  0
LINE
  8
OUTLINE
  6
CONTINUOUS
 62
     3
 10
96.479887
 20
-790.445825
 30
0.0
 11
91.549267
 21
-793.536913
 31
0.0
  0
LINE
  8
OUTLINE
  6
CONTINUOUS
 62
     3
 10
109.637443
 20
-800.09264
 30
0.0
 11
109.645645
 21
-800.082385
 31
0.0
  0
LINE
  8
OUTLINE
  6
CONTINUOUS
 62
     3
 10
90.052568
 20
-795.412919
 30
0.0
 11
90.061377
 21
-795.258396
 31
0.0
  0
LINE
  8
OUTLINE
  6
CONTINUOUS
 62
     3
 10
90.061377
 20
-795.258396
 30
0.0
 11
90.495938
 21
-794.358919
 31
0.0
  0
LINE
  8
OUTLINE
  6
CONTINUOUS
 62
     3
 10
90.495938
 20
-794.358919
 30
0.0
 11
91.549267
 21
-793.536913
 31
0.0
  0
LINE
  8
OUTLINE
  6
CONTINUOUS
 62
     3
 10
109.645645
 20
-800.082385
 30
0.0
 11
109.622518
 21
-800.026127
 31
0.0
  0
LINE
  8
OUTLINE
  6
CONTINUOUS
 62
     3
 10
109.622518
 20
-800.026127
 30
0.0
 11
109.49455
 21
-799.835165
 31
0.0
  0
LINE
  8
OUTLINE
  6
CONTINUOUS
 62
     3
 10
109.49455
 20
-799.835165
 30
0.0
 11
109.266522
 21
-799.537781
 31
0.0
  0
LINE
  8
OUTLINE
  6
CONTINUOUS
 62
     3
 10
109.266522
 20
-799.537781
 30
0.0
 11
109.257641
 21
-799.526878
 31
0.0
  0
LINE
  8
OUTLINE
  6
CONTINUOUS
 62
     3
 10
100.155482
 20
-780.103014
 30
0.0
 11
101.398742
 21
-781.75776
 31
0.0
  0
LINE
  8
OUTLINE
  6
CONTINUOUS
 62
     3
 10
101.398742
 20
-781.75776
 30
0.0
 11
102.65149
 21
-783.365361
 31
0.0
  0
LINE
  8
OUTLINE
  6
CONTINUOUS
 62
     3
 10
103.989894
 20
-782.151253
 30
0.0
 11
102.699442
 21
-780.518032
 31
0.0
  0
LINE
  8
OUTLINE
  6
CONTINUOUS
 62
     3
 10
102.699442
 20
-780.518032
 30
0.0
 11
101.420874
 21
-778.836631
 31
0.0
  0
LINE
  8
OUTLINE
  6
CONTINUOUS
 62
     3
 10
110.478789
 20
-800.358728
 30
0.0
 11
110.550232
 21
-800.440845
 31
0.0
  0
LINE
  8
OUTLINE
  6
CONTINUOUS
 62
     3
 10
110.550232
 20
-800.440845
 30
0.0
 11
110.620332
 21
-800.522355
 31
0.0
  0
LINE
  8
OUTLINE
  6
CONTINUOUS
 62
     3
 10
110.620332
 20
-800.522355
 30
0.0
 11
110.689122
 21
-800.603254
 31
0.0
  0
LINE
  8
OUTLINE
  6
CONTINUOUS
 62
     3
 10
110.689122
 20
-800.603254
 30
0.0
 11
110.756626
 21
-800.683538
 31
0.0
  0
LINE
  8
OUTLINE
  6
CONTINUOUS
 62
     3
 10
110.756626
 20
-800.683538
 30
0.0
 11
110.822871
 21
-800.763215
 31
0.0
  0
LINE
  8
OUTLINE
  6
CONTINUOUS
 62
     3
 10
110.822871
 20
-800.763215
 30
0.0
 11
110.88789
 21
-800.842276
 31
0.0
  0
LINE
  8
OUTLINE
  6
CONTINUOUS
 62
     3
 10
110.88789
 20
-800.842276
 30
0.0
 11
110.951702
 21
-800.920734
 31
0.0
  0
LINE
  8
OUTLINE
  6
CONTINUOUS
 62
     3
 10
110.951702
 20
-800.920734
 30
0.0
 11
111.01434
 21
-800.998585
 31
0.0
  0
LINE
  8
OUTLINE
  6
CONTINUOUS
 62
     3
 10
111.01434
 20
-800.998585
 30
0.0
 11
111.075831
 21
-801.075836
 31
0.0
  0
LINE
  8
OUTLINE
  6
CONTINUOUS
 62
     3
 10
111.075831
 20
-801.075836
 30
0.0
 11
111.136196
 21
-801.152489
 31
0.0
  0
LINE
  8
OUTLINE
  6
CONTINUOUS
 62
     3
 10
111.136196
 20
-801.152489
 30
0.0
 11
111.195462
 21
-801.22855
 31
0.0
  0
LINE
  8
OUTLINE
  6
CONTINUOUS
 62
     3
 10
111.195462
 20
-801.22855
 30
0.0
 11
111.253661
 21
-801.304027
 31
0.0
  0
LINE
  8
OUTLINE
  6
CONTINUOUS
 62
     3
 10
111.253661
 20
-801.304027
 30
0.0
 11
111.310814
 21
-801.378926
 31
0.0
  0
LINE
  8
OUTLINE
  6
CONTINUOUS
 62
     3
 10
111.310814
 20
-801.378926
 30
0.0
 11
111.366948
 21
-801.453249
 31
0.0
  0
LINE
  8
OUTLINE
  6
CONTINUOUS
 62
     3
 10
111.366948
 20
-801.453249
 30
0.0
 11
111.422087
 21
-801.527009
 31
0.0
  0
LINE
  8
OUTLINE
  6
CONTINUOUS
 62
     3
 10
111.422087
 20
-801.527009
 30
0.0
 11
111.476251
 21
-801.600214
 31
0.0
  0
LINE
  8
OUTLINE
  6
CONTINUOUS
 62
     3
 10
111.476251
 20
-801.600214
 30
0.0
 11
111.529473
 21
-801.672871
 31
0.0
  0
LINE
  8
OUTLINE
  6
CONTINUOUS
 62
     3
 10
111.529473
 20
-801.672871
 30
0.0
 11
111.581772
 21
-801.744985
 31
0.0
  0
LINE
  8
OUTLINE
  6
CONTINUOUS
 62
     3
 10
111.581772
 20
-801.744985
 30
0.0
 11
111.633167
 21
-801.816563
 31
0.0
  0
LINE
  8
OUTLINE
  6
CONTINUOUS
 62
     3
 10
111.633167
 20
-801.816563
 30
0.0
 11
111.683684
 21
-801.887619
 31
0.0
  0
LINE
  8
OUTLINE
  6
CONTINUOUS
 62
     3
 10
111.683684
 20
-801.887619
 30
0.0
 11
111.733338
 21
-801.958151
 31
0.0
  0
LINE
  8
OUTLINE
  6
CONTINUOUS
 62
     3
 10
109.740155
 20
-799.523323
 30
0.0
 11
110.478789
 21
-800.358728
 31
0.0
  0
LINE
  8
OUTLINE
  6
CONTINUOUS
 62
     3
 10
91.132248
 20
-797.023987
 30
0.0
 11
90.279093
 21
-796.169143
 31
0.0
  0
LINE
  8
OUTLINE
  6
CONTINUOUS
 62
     3
 10
90.279093
 20
-796.169143
 30
0.0
 11
90.052568
 21
-795.412919
 31
0.0
  0
LINE
  8
OUTLINE
  6
CONTINUOUS
 62
     3
 10
103.716468
 20
-784.42298
 30
0.0
 11
102.65149
 21
-783.365361
 31
0.0
  0
LINE
  8
OUTLINE
  6
CONTINUOUS
 62
     3
 10
103.989894
 20
-782.151253
 30
0.0
 11
104.879252
 21
-783.023028
 31
0.0
  0
LINE
  8
OUTLINE
  6
CONTINUOUS
 62
     3
 10
104.879252
 20
-783.023028
 30
0.0
 11
106.00901
 21
-783.700606
 31
0.0
  0
LINE
  8
OUTLINE
  6
CONTINUOUS
 62
     3
 10
106.00901
 20
-783.700606
 30
0.0
 11
107.322725
 21
-784.118664
 31
0.0
  0
LINE
  8
OUTLINE
  6
CONTINUOUS
 62
     3
 10
107.322725
 20
-784.118664
 30
0.0
 11
108.76679
 21
-784.241115
 31
0.0
  0
LINE
  8
OUTLINE
  6
CONTINUOUS
 62
     3
 10
101.894275
 20
-799.544888
 30
0.0
 11
102.20239
 21
-799.816708
 31
0.0
  0
LINE
  8
OUTLINE
  6
CONTINUOUS
 62
     3
 10
102.20239
 20
-799.816708
 30
0.0
 11
102.500606
 21
-800.023079
 31
0.0
  0
LINE
  8
OUTLINE
  6
CONTINUOUS
 62
     3
 10
102.500606
 20
-800.023079
 30
0.0
 11
102.698946
 21
-800.09264
 31
0.0
  0
LINE
  8
OUTLINE
  6
CONTINUOUS
 62
     3
 10
105.073518
 20
-785.245781
 30
0.0
 11
103.716468
 21
-784.42298
 31
0.0
  0
LINE
  8
DETAIL
  6
CONTINUOUS
 62
     5
 10
105.073518
 20
-785.245781
 30
0.0
 11
103.716468
 21
-784.42298
 31
0.0
  0
LINE
  8
DETAIL
  6
CONTINUOUS
 62
     5
 10
102.500606
 20
-800.023079
 30
0.0
 11
102.698946
 21
-800.09264
 31
0.0
  0
LINE
  8
DETAIL
  6
CONTINUOUS
 62
     5
 10
102.20239
 20
-799.816708
 30
0.0
 11
102.500606
 21
-800.023079
 31
0.0
  0
LINE
  8
DETAIL
  6
CONTINUOUS
 62
     5
 10
101.894275
 20
-799.544888
 30
0.0
 11
102.20239
 21
-799.816708
 31
0.0
  0
LINE
  8
DETAIL
  6
CONTINUOUS
 62
     5
 10
107.322725
 20
-784.118664
 30
0.0
 11
108.76679
 21
-784.241115
 31
0.0
  0
LINE
  8
DETAIL
  6
CONTINUOUS
 62
     5
 10
106.00901
 20
-783.700606
 30
0.0
 11
107.322725
 21
-784.118664
 31
0.0
  0
LINE
  8
DETAIL
  6
CONTINUOUS
 62
     5
 10
104.879252
 20
-783.023028
 30
0.0
 11
106.00901
 21
-783.700606
 31
0.0
  0
LINE
  8
DETAIL
  6
CONTINUOUS
 62
     5
 10
103.989894
 20
-782.151253
 30
0.0
 11
104.879252
 21
-783.023028
 31
0.0
  0
LINE
  8
DETAIL
  6
CONTINUOUS
 62
     5
 10
103.716468
 20
-784.42298
 30
0.0
 11
102.65149
 21
-783.365361
 31
0.0
  0
LINE
  8
DETAIL
  6
CONTINUOUS
 62
     5
 10
90.279093
 20
-796.169143
 30
0.0
 11
90.052568
 21
-795.412919
 31
0.0
  0
LINE
  8
DETAIL
  6
CONTINUOUS
 62
     5
 10
91.132248
 20
-797.023987
 30
0.0
 11
90.279093
 21
-796.169143
 31
0.0
  0
LINE
  8
DETAIL
  6
CONTINUOUS
 62
     5
 10
109.740155
 20
-799.523323
 30
0.0
 11
110.478789
 21
-800.358728
 31
0.0
  0
LINE
  8
DETAIL
  6
CONTINUOUS
 62
     5
 10
111.683684
 20
-801.887619
 30
0.0
 11
111.733338
 21
-801.958151
 31
0.0
  0
LINE
  8
DETAIL
  6
CONTINUOUS
 62
     5
 10
111.633167
 20
-801.816563
 30
0.0
 11
111.683684
 21
-801.887619
 31
0.0
  0
LINE
  8
DETAIL
  6
CONTINUOUS
 62
     5
 10
111.581772
 20
-801.744985
 30
0.0
 11
111.633167
 21
-801.816563
 31
0.0
  0
LINE
  8
DETAIL
  6
CONTINUOUS
 62
     5
 10
111.529473
 20
-801.672871
 30
0.0
 11
111.581772
 21
-801.744985
 31
0.0
  0
LINE
  8
DETAIL
  6
CONTINUOUS
 62
     5
 10
111.476251
 20
-801.600214
 30
0.0
 11
111.529473
 21
-801.672871
 31
0.0
  0
LINE
  8
DETAIL
  6
CONTINUOUS
 62
     5
 10
111.422087
 20
-801.527009
 30
0.0
 11
111.476251
 21
-801.600214
 31
0.0
  0
LINE
  8
DETAIL
  6
CONTINUOUS
 62
     5
 10
111.366948
 20
-801.453249
 30
0.0
 11
111.422087
 21
-801.527009
 31
0.0
  0
LINE
  8
DETAIL
  6
CONTINUOUS
 62
     5
 10
111.310814
 20
-801.378926
 30
0.0
 11
111.366948
 21
-801.453249
 31
0.0
  0
LINE
  8
DETAIL
  6
CONTINUOUS
 62
     5
 10
111.253661
 20
-801.304027
 30
0.0
 11
111.310814
 21
-801.378926
 31
0.0
  0
LINE
  8
DETAIL
  6
CONTINUOUS
 62
     5
 10
111.195462
 20
-801.22855
 30
0.0
 11
111.253661
 21
-801.304027
 31
0.0
  0
LINE
  8
DETAIL
  6
CONTINUOUS
 62
     5
 10
111.136196
 20
-801.152489
 30
0.0
 11
111.195462
 21
-801.22855
 31
0.0
  0
LINE
  8
DETAIL
  6
CONTINUOUS
 62
     5
 10
111.075831
 20
-801.075836
 30
0.0
 11
111.136196
 21
-801.152489
 31
0.0
  0
LINE
  8
DETAIL
  6
CONTINUOUS
 62
     5
 10
111.01434
 20
-800.998585
 30
0.0
 11
111.075831
 21
-801.075836
 31
0.0
  0
LINE
  8
DETAIL
  6
CONTINUOUS
 62
     5
 10
110.951702
 20
-800.920734
 30
0.0
 11
111.01434
 21
-800.998585
 31
0.0
  0
LINE
  8
DETAIL
  6
CONTINUOUS
 62
     5
 10
110.88789
 20
-800.842276
 30
0.0
 11
110.951702
 21
-800.920734
 31
0.0
  0
LINE
  8
DETAIL
  6
CONTINUOUS
 62
     5
 10
110.822871
 20
-800.763215
 30
0.0
 11
110.88789
 21
-800.842276
 31
0.0
  0
LINE
  8
DETAIL
  6
CONTINUOUS
 62
     5
 10
110.756626
 20
-800.683538
 30
0.0
 11
110.822871
 21
-800.763215
 31
0.0
  0
LINE
  8
DETAIL
  6
CONTINUOUS
 62
     5
 10
110.689122
 20
-800.603254
 30
0.0
 11
110.756626
 21
-800.683538
 31
0.0
  0
LINE
  8
DETAIL
  6
CONTINUOUS
 62
     5
 10
110.620332
 20
-800.522355
 30
0.0
 11
110.689122
 21
-800.603254
 31
0.0
  0
LINE
  8
DETAIL
  6
CONTINUOUS
 62
     5
 10
110.550232
 20
-800.440845
 30
0.0
 11
110.620332
 21
-800.522355
 31
0.0
  0
LINE
  8
DETAIL
  6
CONTINUOUS
 62
     5
 10
110.478789
 20
-800.358728
 30
0.0
 11
110.550232
 21
-800.440845
 31
0.0
  0
LINE
  8
DETAIL
  6
CONTINUOUS
 62
     5
 10
102.699442
 20
-780.518032
 30
0.0
 11
101.420874
 21
-778.836631
 31
0.0
  0
LINE
  8
DETAIL
  6
CONTINUOUS
 62
     5
 10
103.989894
 20
-782.151253
 30
0.0
 11
102.699442
 21
-780.518032
 31
0.0
  0
LINE
  8
DETAIL
  6
CONTINUOUS
 62
     5
 10
101.398742
 20
-781.75776
 30
0.0
 11
102.65149
 21
-783.365361
 31
0.0
  0
LINE
  8
DETAIL
  6
CONTINUOUS
 62
     5
 10
100.155482
 20
-780.103014
 30
0.0
 11
101.398742
 21
-781.75776
 31
0.0
  0
LINE
  8
DETAIL
  6
CONTINUOUS
 62
     5
 10
109.266522
 20
-799.537781
 30
0.0
 11
109.257641
 21
-799.526878
 31
0.0
  0
LINE
  8
DETAIL
  6
CONTINUOUS
 62
     5
 10
109.49455
 20
-799.835165
 30
0.0
 11
109.266522
 21
-799.537781
 31
0.0
  0
LINE
  8
DETAIL
  6
CONTINUOUS
 62
     5
 10
109.622518
 20
-800.026127
 30
0.0
 11
109.49455
 21
-799.835165
 31
0.0
  0
LINE
  8
DETAIL
  6
CONTINUOUS
 62
     5
 10
109.645645
 20
-800.082385
 30
0.0
 11
109.622518
 21
-800.026127
 31
0.0
  0
LINE
  8
DETAIL
  6
CONTINUOUS
 62
     5
 10
90.495938
 20
-794.358919
 30
0.0
 11
91.549267
 21
-793.536913
 31
0.0
  0
LINE
  8
DETAIL
  6
CONTINUOUS
 62
     5
 10
90.061377
 20
-795.258396
 30
0.0
 11
90.495938
 21
-794.358919
 31
0.0
  0
LINE
  8
DETAIL
  6
CONTINUOUS
 62
     5
 10
90.052568
 20
-795.412919
 30
0.0
 11
90.061377
 21
-795.258396
 31
0.0
  0
LINE
  8
DETAIL
  6
CONTINUOUS
 62
     5
 10
109.637443
 20
-800.09264
 30
0.0
 11
109.645645
 21
-800.082385
 31
0.0
  0
LINE
  8
DETAIL
  6
CONTINUOUS
 62
     5
 10
96.479887
 20
-790.445825
 30
0.0
 11
91.549267
 21
-793.536913
 31
0.0
  0
LINE
  8
DETAIL
  6
CONTINUOUS
 62
     5
 10
100.679839
 20
-787.204859
 30
0.0
 11
96.479887
 21
-790.445825
 31
0.0
  0
LINE
  8
DETAIL
  6
CONTINUOUS
 62
     5
 10
103.619249
 20
-784.326433
 30
0.0
 11
100.679839
 21
-787.204859
 31
0.0
  0
LINE
  8
DETAIL
  6
CONTINUOUS
 62
     5
 10
102.698946
 20
-800.09264
 30
0.0
 11
109.637443
 21
-800.09264
 31
0.0
  0
LINE
  8
DETAIL
  6
CONTINUOUS
 62
     5
 10
99.03582
 20
-798.803641
 30
0.0
 11
106.717581
 21
-798.80478
 31
0.0
  0
LINE
  8
DETAIL
  6
CONTINUOUS
 62
     5
 10
99.035876
 20
-799.544464
 30
0.0
 11
106.717637
 21
-799.545603
 31
0.0
  0
LINE
  8
DETAIL
  6
CONTINUOUS
 62
     5
 10
92.555563
 20
-797.760584
 30
0.0
 11
91.132248
 21
-797.023987
 31
0.0
  0
LINE
  8
DETAIL
  6
CONTINUOUS
 62
     5
 10
94.442451
 20
-798.326397
 30
0.0
 11
92.555563
 21
-797.760584
 31
0.0
  0
LINE
  8
DETAIL
  6
CONTINUOUS
 62
     5
 10
96.65516
 20
-798.682125
 30
0.0
 11
94.442451
 21
-798.326397
 31
0.0
  0
LINE
  8
DETAIL
  6
CONTINUOUS
 62
     5
 10
99.03582
 20
-798.803641
 30
0.0
 11
96.65516
 21
-798.682125
 31
0.0
  0
LINE
  8
DETAIL
  6
CONTINUOUS
 62
     5
 10
90.284586
 20
-796.918851
 30
0.0
 11
90.052093
 21
-796.153742
 31
0.0
  0
LINE
  8
DETAIL
  6
CONTINUOUS
 62
     5
 10
91.130091
 20
-797.763264
 30
0.0
 11
90.284586
 21
-796.918851
 31
0.0
  0
LINE
  8
DETAIL
  6
CONTINUOUS
 62
     5
 10
92.533327
 20
-798.492606
 30
0.0
 11
91.130091
 21
-797.763264
 31
0.0
  0
LINE
  8
DETAIL
  6
CONTINUOUS
 62
     5
 10
94.402125
 20
-799.058112
 30
0.0
 11
92.533327
 21
-798.492606
 31
0.0
  0
LINE
  8
DETAIL
  6
CONTINUOUS
 62
     5
 10
96.623472
 20
-799.419604
 30
0.0
 11
94.402125
 21
-799.058112
 31
0.0
  0
LINE
  8
DETAIL
  6
CONTINUOUS
 62
     5
 10
99.035876
 20
-799.544464
 30
0.0
 11
96.623472
 21
-799.419604
 31
0.0
  0
LINE
  8
DETAIL
  6
CONTINUOUS
 62
     5
 10
106.653924
 20
-785.753923
 30
0.0
 11
105.073518
 21
-785.245781
 31
0.0
  0
LINE
  8
DETAIL
  6
CONTINUOUS
 62
     5
 10
108.391806
 20
-785.903999
 30
0.0
 11
106.653924
 21
-785.753923
 31
0.0
  0
LINE
  8
DETAIL
  6
CONTINUOUS
 62
     5
 10
83.0
 20
-843.378543
 30
0.0
 11
83.39895
 21
-843.295403
 31
0.0
  0
ARC
  8
DETAIL
  6
CONTINUOUS
 62
     5
 10
36.055102
 20
-731.89748
 30
0.0
 40
121.417105
 50
281.711373
 51
288.870296
  0
LINE
  8
DETAIL
  6
CONTINUOUS
 62
     5
 10
71.321587
 20
-846.814633
 30
0.0
 11
76.500365
 21
-845.402975
 31
0.0
  0
LINE
  8
DETAIL
  6
CONTINUOUS
 62
     5
 10
81.323315
 20
-843.378543
 30
0.0
 11
81.323315
 21
-843.893887
 31
0.0
  0
LINE
  8
DETAIL
  6
CONTINUOUS
 62
     5
 10
76.500365
 20
-845.402975
 30
0.0
 11
81.323315
 21
-843.893887
 31
0.0
  0
LINE
  8
DETAIL
  6
CONTINUOUS
 62
     5
 10
81.323315
 20
-843.378543
 30
0.0
 11
81.323315
 21
-843.893887
 31
0.0
  0
LINE
  8
DETAIL
  6
CONTINUOUS
 62
     5
 10
76.500365
 20
-845.402975
 30
0.0
 11
81.323315
 21
-843.893887
 31
0.0
  0
LINE
  8
DETAIL
  6
CONTINUOUS
 62
     5
 10
71.321587
 20
-846.814633
 30
0.0
 11
76.500365
 21
-845.402975
 31
0.0
  0
LINE
  8
DETAIL
  6
CONTINUOUS
 62
     5
 10
76.0
 20
-845.843859
 30
0.0
 11
76.0
 21
-845.539367
 31
0.0
  0
ARC
  8
DETAIL
  6
CONTINUOUS
 62
     5
 10
75.001247
 20
-845.843859
 30
0.0
 40
0.998753
 50
288.89386
 51
0.0
  0
LINE
  8
DETAIL
  6
CONTINUOUS
 62
     5
 10
83.39895
 20
-843.295403
 30
0.0
 11
96.051095
 21
-837.384715
 31
0.0
  0
ARC
  8
DETAIL
  6
CONTINUOUS
 62
     5
 10
73.689558
 20
-798.398635
 30
0.0
 40
44.943884
 50
299.83761
 51
329.571403
  0
ARC
  8
DETAIL
  6
CONTINUOUS
 62
     5
 10
96.917482
 20
-811.706707
 30
0.0
 40
18.177587
 50
328.660185
 51
354.166488
  0
LINE
  8
DETAIL
  6
CONTINUOUS
 62
     5
 10
111.969432
 20
-802.30332
 30
0.0
 11
112.058528
 21
-802.438028
 31
0.0
  0
LINE
  8
DETAIL
  6
CONTINUOUS
 62
     5
 10
112.058528
 20
-802.438028
 30
0.0
 11
112.144749
 21
-802.57085
 31
0.0
  0
LINE
  8
DETAIL
  6
CONTINUOUS
 62
     5
 10
112.144749
 20
-802.57085
 30
0.0
 11
112.228192
 21
-802.70181
 31
0.0
  0
LINE
  8
DETAIL
  6
CONTINUOUS
 62
     5
 10
112.228192
 20
-802.70181
 30
0.0
 11
112.308968
 21
-802.830929
 31
0.0
  0
LINE
  8
DETAIL
  6
CONTINUOUS
 62
     5
 10
112.308968
 20
-802.830929
 30
0.0
 11
112.387162
 21
-802.958222
 31
0.0
  0
LINE
  8
DETAIL
  6
CONTINUOUS
 62
     5
 10
112.387162
 20
-802.958222
 30
0.0
 11
112.462875
 21
-803.083721
 31
0.0
  0
LINE
  8
DETAIL
  6
CONTINUOUS
 62
     5
 10
112.462875
 20
-803.083721
 30
0.0
 11
112.536196
 21
-803.207455
 31
0.0
  0
LINE
  8
DETAIL
  6
CONTINUOUS
 62
     5
 10
112.536196
 20
-803.207455
 30
0.0
 11
112.607203
 21
-803.329431
 31
0.0
  0
LINE
  8
DETAIL
  6
CONTINUOUS
 62
     5
 10
112.607203
 20
-803.329431
 30
0.0
 11
112.675969
 21
-803.449656
 31
0.0
  0
LINE
  8
DETAIL
  6
CONTINUOUS
 62
     5
 10
112.675969
 20
-803.449656
 30
0.0
 11
112.742566
 21
-803.568133
 31
0.0
  0
LINE
  8
DETAIL
  6
CONTINUOUS
 62
     5
 10
112.775074
 20
-803.626719
 30
0.0
 11
112.83855
 21
-803.742599
 31
0.0
  0
LINE
  8
DETAIL
  6
CONTINUOUS
 62
     5
 10
112.742566
 20
-803.568133
 30
0.0
 11
112.775074
 21
-803.626719
 31
0.0
  0
LINE
  8
DETAIL
  6
CONTINUOUS
 62
     5
 10
112.83855
 20
-803.742599
 30
0.0
 11
112.900026
 21
-803.856764
 31
0.0
  0
LINE
  8
DETAIL
  6
CONTINUOUS
 62
     5
 10
112.900026
 20
-803.856764
 30
0.0
 11
112.959567
 21
-803.969232
 31
0.0
  0
LINE
  8
DETAIL
  6
CONTINUOUS
 62
     5
 10
112.959567
 20
-803.969232
 30
0.0
 11
113.017239
 21
-804.080009
 31
0.0
  0
LINE
  8
DETAIL
  6
CONTINUOUS
 62
     5
 10
113.017239
 20
-804.080009
 30
0.0
 11
113.073074
 21
-804.189069
 31
0.0
  0
LINE
  8
DETAIL
  6
CONTINUOUS
 62
     5
 10
113.073074
 20
-804.189069
 30
0.0
 11
113.127102
 21
-804.296367
 31
0.0
  0
LINE
  8
DETAIL
  6
CONTINUOUS
 62
     5
 10
113.127102
 20
-804.296367
 30
0.0
 11
113.179361
 21
-804.401868
 31
0.0
  0
LINE
  8
DETAIL
  6
CONTINUOUS
 62
     5
 10
113.179361
 20
-804.401868
 30
0.0
 11
113.229878
 21
-804.50553
 31
0.0
  0
LINE
  8
DETAIL
  6
CONTINUOUS
 62
     5
 10
113.229878
 20
-804.50553
 30
0.0
 11
113.278693
 21
-804.607323
 31
0.0
  0
LINE
  8
DETAIL
  6
CONTINUOUS
 62
     5
 10
113.278693
 20
-804.607323
 30
0.0
 11
113.325818
 21
-804.70719
 31
0.0
  0
LINE
  8
DETAIL
  6
CONTINUOUS
 62
     5
 10
113.325818
 20
-804.70719
 30
0.0
 11
113.371233
 21
-804.804956
 31
0.0
  0
LINE
  8
DETAIL
  6
CONTINUOUS
 62
     5
 10
113.371233
 20
-804.804956
 30
0.0
 11
113.414859
 21
-804.900349
 31
0.0
  0
LINE
  8
DETAIL
  6
CONTINUOUS
 62
     5
 10
113.414859
 20
-804.900349
 30
0.0
 11
113.456623
 21
-804.993081
 31
0.0
  0
LINE
  8
DETAIL
  6
CONTINUOUS
 62
     5
 10
113.456623
 20
-804.993081
 30
0.0
 11
113.496469
 21
-805.082877
 31
0.0
  0
LINE
  8
DETAIL
  6
CONTINUOUS
 62
     5
 10
113.515653
 20
-805.126591
 30
0.0
 11
113.552523
 21
-805.211481
 31
0.0
  0
LINE
  8
DETAIL
  6
CONTINUOUS
 62
     5
 10
113.496469
 20
-805.082877
 30
0.0
 11
113.515653
 21
-805.126591
 31
0.0
  0
LINE
  8
DETAIL
  6
CONTINUOUS
 62
     5
 10
113.552523
 20
-805.211481
 30
0.0
 11
113.587355
 21
-805.292787
 31
0.0
  0
LINE
  8
DETAIL
  6
CONTINUOUS
 62
     5
 10
113.587355
 20
-805.292787
 30
0.0
 11
113.65074
 21
-805.443599
 31
0.0
  0
LINE
  8
DETAIL
  6
CONTINUOUS
 62
     5
 10
113.66521
 20
-805.478579
 30
0.0
 11
113.705088
 21
-805.576169
 31
0.0
  0
LINE
  8
DETAIL
  6
CONTINUOUS
 62
     5
 10
113.65074
 20
-805.443599
 30
0.0
 11
113.66521
 21
-805.478579
 31
0.0
  0
LINE
  8
DETAIL
  6
CONTINUOUS
 62
     5
 10
113.705088
 20
-805.576169
 30
0.0
 11
113.739442
 21
-805.661679
 31
0.0
  0
LINE
  8
DETAIL
  6
CONTINUOUS
 62
     5
 10
113.739442
 20
-805.661679
 30
0.0
 11
113.767954
 21
-805.733697
 31
0.0
  0
LINE
  8
DETAIL
  6
CONTINUOUS
 62
     5
 10
113.767954
 20
-805.733697
 30
0.0
 11
113.807057
 21
-805.833856
 31
0.0
  0
LINE
  8
DETAIL
  6
CONTINUOUS
 62
     5
 10
113.807057
 20
-805.833856
 30
0.0
 11
113.824791
 21
-805.879778
 31
0.0
  0
LINE
  8
DETAIL
  6
CONTINUOUS
 62
     5
 10
113.824791
 20
-805.879778
 30
0.0
 11
113.827468
 21
-805.886941
 31
0.0
  0
ARC
  8
DETAIL
  6
CONTINUOUS
 62
     5
 10
96.892177
 20
-812.62436
 30
0.0
 40
18.226273
 50
6.509816
 51
21.693889
  0
ARC
  8
DETAIL
  6
CONTINUOUS
 62
     5
 10
96.892177
 20
-812.62436
 30
0.0
 40
18.226273
 50
6.509816
 51
21.693889
  0
LINE
  8
DETAIL
  6
CONTINUOUS
 62
     5
 10
115.000935
 20
-813.554244
 30
0.0
 11
115.000935
 21
-811.806427
 31
0.0
  0
LINE
  8
DETAIL
  6
CONTINUOUS
 62
     5
 10
115.000935
 20
-811.806427
 30
0.0
 11
115.000935
 21
-810.557985
 31
0.0
  0
LINE
  8
OUTLINE
  6
CONTINUOUS
 62
     3
 10
107.595065
 20
-760.329766
 30
0.0
 11
119.196216
 21
-760.74625
 31
0.0
  0
LINE
  8
DETAIL
  6
CONTINUOUS
 62
     5
 10
107.595065
 20
-760.329766
 30
0.0
 11
119.196216
 21
-760.74625
 31
0.0
  0
LINE
  8
OUTLINE
  6
CONTINUOUS
 62
     3
 10
196.51116
 20
-769.376051
 30
0.0
 11
141.585834
 21
-762.666549
 31
0.0
  0
LINE
  8
DETAIL
  6
CONTINUOUS
 62
     5
 10
196.51116
 20
-769.376051
 30
0.0
 11
141.585834
 21
-762.666549
 31
0.0
  0
LINE
  8
OUTLINE
  6
CONTINUOUS
 62
     3
 10
196.51116
 20
-769.376051
 30
0.0
 11
199.344519
 21
-769.861042
 31
0.0
  0
LINE
  8
OUTLINE
  6
CONTINUOUS
 62
     3
 10
199.344519
 20
-769.861042
 30
0.0
 11
201.584382
 21
-770.546322
 31
0.0
  0
LINE
  8
OUTLINE
  6
CONTINUOUS
 62
     3
 10
201.584382
 20
-770.546322
 30
0.0
 11
203.02617
 21
-771.381651
 31
0.0
  0
LINE
  8
OUTLINE
  6
CONTINUOUS
 62
     3
 10
203.02617
 20
-771.381651
 30
0.0
 11
203.524552
 21
-772.298095
 31
0.0
  0
LINE
  8
OUTLINE
  6
CONTINUOUS
 62
     3
 10
203.524552
 20
-773.952473
 30
0.0
 11
203.026402
 21
-774.868709
 31
0.0
  0
LINE
  8
OUTLINE
  6
CONTINUOUS
 62
     3
 10
203.026402
 20
-774.868709
 30
0.0
 11
201.584682
 21
-775.704126
 31
0.0
  0
LINE
  8
OUTLINE
  6
CONTINUOUS
 62
     3
 10
201.584682
 20
-775.704126
 30
0.0
 11
199.344654
 21
-776.389499
 31
0.0
  0
LINE
  8
OUTLINE
  6
CONTINUOUS
 62
     3
 10
199.344654
 20
-776.389499
 30
0.0
 11
196.51116
 21
-776.874517
 31
0.0
  0
LINE
  8
OUTLINE
  6
CONTINUOUS
 62
     3
 10
203.524552
 20
-772.298095
 30
0.0
 11
203.026402
 21
-773.214335
 31
0.0
  0
LINE
  8
OUTLINE
  6
CONTINUOUS
 62
     3
 10
203.026402
 20
-773.214335
 30
0.0
 11
201.584682
 21
-774.049752
 31
0.0
  0
LINE
  8
OUTLINE
  6
CONTINUOUS
 62
     3
 10
201.584682
 20
-774.049752
 30
0.0
 11
199.344654
 21
-774.735124
 31
0.0
  0
LINE
  8
OUTLINE
  6
CONTINUOUS
 62
     3
 10
199.344654
 20
-774.735124
 30
0.0
 11
196.51116
 21
-775.220143
 31
0.0
  0
LINE
  8
OUTLINE
  6
CONTINUOUS
 62
     3
 10
203.524552
 20
-773.952473
 30
0.0
 11
203.524552
 21
-772.298095
 31
0.0
  0
LINE
  8
DETAIL
  6
CONTINUOUS
 62
     5
 10
203.524552
 20
-773.952473
 30
0.0
 11
203.524552
 21
-772.298095
 31
0.0
  0
LINE
  8
DETAIL
  6
CONTINUOUS
 62
     5
 10
199.344654
 20
-774.735124
 30
0.0
 11
196.51116
 21
-775.220143
 31
0.0
  0
LINE
  8
DETAIL
  6
CONTINUOUS
 62
     5
 10
201.584682
 20
-774.049752
 30
0.0
 11
199.344654
 21
-774.735124
 31
0.0
  0
LINE
  8
DETAIL
  6
CONTINUOUS
 62
     5
 10
203.026402
 20
-773.214335
 30
0.0
 11
201.584682
 21
-774.049752
 31
0.0
  0
LINE
  8
DETAIL
  6
CONTINUOUS
 62
     5
 10
203.524552
 20
-772.298095
 30
0.0
 11
203.026402
 21
-773.214335
 31
0.0
  0
LINE
  8
DETAIL
  6
CONTINUOUS
 62
     5
 10
199.344654
 20
-776.389499
 30
0.0
 11
196.51116
 21
-776.874517
 31
0.0
  0
LINE
  8
DETAIL
  6
CONTINUOUS
 62
     5
 10
201.584682
 20
-775.704126
 30
0.0
 11
199.344654
 21
-776.389499
 31
0.0
  0
LINE
  8
DETAIL
  6
CONTINUOUS
 62
     5
 10
203.026402
 20
-774.868709
 30
0.0
 11
201.584682
 21
-775.704126
 31
0.0
  0
LINE
  8
DETAIL
  6
CONTINUOUS
 62
     5
 10
203.524552
 20
-773.952473
 30
0.0
 11
203.026402
 21
-774.868709
 31
0.0
  0
LINE
  8
DETAIL
  6
CONTINUOUS
 62
     5
 10
203.02617
 20
-771.381651
 30
0.0
 11
203.524552
 21
-772.298095
 31
0.0
  0
LINE
  8
DETAIL
  6
CONTINUOUS
 62
     5
 10
201.584382
 20
-770.546322
 30
0.0
 11
203.02617
 21
-771.381651
 31
0.0
  0
LINE
  8
DETAIL
  6
CONTINUOUS
 62
     5
 10
199.344519
 20
-769.861042
 30
0.0
 11
201.584382
 21
-770.546322
 31
0.0
  0
LINE
  8
DETAIL
  6
CONTINUOUS
 62
     5
 10
196.51116
 20
-769.376051
 30
0.0
 11
199.344519
 21
-769.861042
 31
0.0
  0
LINE
  8
OUTLINE
  6
CONTINUOUS
 62
     3
 10
119.196216
 20
-760.74625
 30
0.0
 11
130.5824
 21
-761.527535
 31
0.0
  0
LINE
  8
OUTLINE
  6
CONTINUOUS
 62
     3
 10
130.5824
 20
-761.527535
 30
0.0
 11
141.585834
 21
-762.666549
 31
0.0
  0
LINE
  8
DETAIL
  6
CONTINUOUS
 62
     5
 10
130.5824
 20
-761.527535
 30
0.0
 11
141.585834
 21
-762.666549
 31
0.0
  0
LINE
  8
DETAIL
  6
CONTINUOUS
 62
     5
 10
119.196216
 20
-760.74625
 30
0.0
 11
130.5824
 21
-761.527535
 31
0.0
  0
LINE
  8
OUTLINE
  6
CONTINUOUS
 62
     3
 10
87.92836
 20
-766.38368
 30
0.0
 11
89.52277
 21
-767.960806
 31
0.0
  0
LINE
  8
OUTLINE
  6
CONTINUOUS
 62
     3
 10
89.52277
 20
-767.960806
 30
0.0
 11
90.644745
 21
-769.80671
 31
0.0
  0
LINE
  8
OUTLINE
  6
CONTINUOUS
 62
     3
 10
90.644745
 20
-769.80671
 30
0.0
 11
91.231604
 21
-771.717088
 31
0.0
  0
LINE
  8
OUTLINE
  6
CONTINUOUS
 62
     3
 10
90.169031
 20
-769.024051
 30
0.0
 11
91.778034
 21
-769.178334
 31
0.0
  0
LINE
  8
OUTLINE
  6
CONTINUOUS
 62
     3
 10
91.778034
 20
-769.178334
 30
0.0
 11
93.408694
 21
-769.660544
 31
0.0
  0
LINE
  8
OUTLINE
  6
CONTINUOUS
 62
     3
 10
94.193262
 20
-772.105995
 30
0.0
 11
91.300242
 21
-772.105995
 31
0.0
  0
LINE
  8
OUTLINE
  6
CONTINUOUS
 62
     3
 10
107.595021
 20
-760.329766
 30
0.0
 11
106.35338
 21
-760.422043
 31
0.0
  0
LINE
  8
OUTLINE
  6
CONTINUOUS
 62
     3
 10
106.35338
 20
-760.422043
 30
0.0
 11
105.215221
 21
-760.733055
 31
0.0
  0
LINE
  8
OUTLINE
  6
CONTINUOUS
 62
     3
 10
105.215221
 20
-760.733055
 30
0.0
 11
104.207431
 21
-761.236051
 31
0.0
  0
LINE
  8
OUTLINE
  6
CONTINUOUS
 62
     3
 10
97.02396
 20
-766.788718
 30
0.0
 11
95.814226
 21
-767.704962
 31
0.0
  0
LINE
  8
OUTLINE
  6
CONTINUOUS
 62
     3
 10
95.814226
 20
-767.704962
 30
0.0
 11
94.392114
 21
-768.407493
 31
0.0
  0
LINE
  8
OUTLINE
  6
CONTINUOUS
 62
     3
 10
94.392114
 20
-768.407493
 30
0.0
 11
92.805615
 21
-768.853548
 31
0.0
  0
LINE
  8
OUTLINE
  6
CONTINUOUS
 62
     3
 10
92.805615
 20
-768.853548
 30
0.0
 11
91.097104
 21
-769.009861
 31
0.0
  0
LINE
  8
OUTLINE
  6
CONTINUOUS
 62
     3
 10
100.155482
 20
-764.109739
 30
0.0
 11
101.268919
 21
-763.259463
 31
0.0
  0
LINE
  8
OUTLINE
  6
CONTINUOUS
 62
     3
 10
101.041404
 20
-763.433207
 30
0.0
 11
101.496436
 21
-763.085721
 31
0.0
  0
LINE
  8
OUTLINE
  6
CONTINUOUS
 62
     3
 10
101.496436
 20
-763.085721
 30
0.0
 11
102.848496
 21
-762.127637
 31
0.0
  0
LINE
  8
OUTLINE
  6
CONTINUOUS
 62
     3
 10
102.848496
 20
-762.127637
 30
0.0
 11
104.207431
 21
-761.236051
 31
0.0
  0
LINE
  8
OUTLINE
  6
CONTINUOUS
 62
     3
 10
97.02396
 20
-766.788718
 30
0.0
 11
98.570381
 21
-765.414705
 31
0.0
  0
LINE
  8
OUTLINE
  6
CONTINUOUS
 62
     3
 10
98.570381
 20
-765.414705
 30
0.0
 11
100.155482
 21
-764.109739
 31
0.0
  0
LINE
  8
OUTLINE
  6
CONTINUOUS
 62
     3
 10
91.300242
 20
-772.105995
 30
0.0
 11
91.231604
 21
-771.717088
 31
0.0
  0
LINE
  8
OUTLINE
  6
CONTINUOUS
 62
     3
 10
95.607956
 20
-773.577154
 30
0.0
 11
97.834504
 21
-776.866543
 31
0.0
  0
LINE
  8
OUTLINE
  6
CONTINUOUS
 62
     3
 10
100.155482
 20
-777.107406
 30
0.0
 11
98.561268
 21
-774.840812
 31
0.0
  0
LINE
  8
OUTLINE
  6
CONTINUOUS
 62
     3
 10
98.561268
 20
-774.840812
 30
0.0
 11
97.01426
 21
-772.54847
 31
0.0
  0
LINE
  8
OUTLINE
  6
CONTINUOUS
 62
     3
 10
95.607956
 20
-773.577154
 30
0.0
 11
94.819332
 21
-772.613078
 31
0.0
  0
LINE
  8
OUTLINE
  6
CONTINUOUS
 62
     3
 10
94.819332
 20
-772.613078
 30
0.0
 11
93.797452
 21
-771.785411
 31
0.0
  0
LINE
  8
OUTLINE
  6
CONTINUOUS
 62
     3
 10
93.797452
 20
-771.785411
 30
0.0
 11
92.592461
 21
-771.154954
 31
0.0
  0
LINE
  8
OUTLINE
  6
CONTINUOUS
 62
     3
 10
92.592461
 20
-771.154954
 30
0.0
 11
91.225591
 21
-770.749656
 31
0.0
  0
LINE
  8
OUTLINE
  6
CONTINUOUS
 62
     3
 10
91.225591
 20
-770.749656
 30
0.0
 11
90.925546
 21
-770.720792
 31
0.0
  0
LINE
  8
OUTLINE
  6
CONTINUOUS
 62
     3
 10
93.408694
 20
-769.660544
 30
0.0
 11
94.847541
 21
-770.411471
 31
0.0
  0
LINE
  8
OUTLINE
  6
CONTINUOUS
 62
     3
 10
94.847541
 20
-770.411471
 30
0.0
 11
96.069244
 21
-771.398131
 31
0.0
  0
LINE
  8
OUTLINE
  6
CONTINUOUS
 62
     3
 10
96.069244
 20
-771.398131
 30
0.0
 11
97.01426
 21
-772.54847
 31
0.0
  0
LINE
  8
OUTLINE
  6
CONTINUOUS
 62
     3
 10
83.602633
 20
-764.387596
 30
0.0
 11
85.946906
 21
-765.17538
 31
0.0
  0
LINE
  8
OUTLINE
  6
CONTINUOUS
 62
     3
 10
81.064874
 20
-764.115971
 30
0.0
 11
83.602633
 21
-764.387596
 31
0.0
  0
LINE
  8
OUTLINE
  6
CONTINUOUS
 62
     3
 10
85.946906
 20
-765.17538
 30
0.0
 11
87.92836
 21
-766.38368
 31
0.0
  0
LINE
  8
DETAIL
  6
CONTINUOUS
 62
     5
 10
85.946906
 20
-765.17538
 30
0.0
 11
87.92836
 21
-766.38368
 31
0.0
  0
LINE
  8
DETAIL
  6
CONTINUOUS
 62
     5
 10
81.064874
 20
-764.115971
 30
0.0
 11
83.602633
 21
-764.387596
 31
0.0
  0
LINE
  8
DETAIL
  6
CONTINUOUS
 62
     5
 10
83.602633
 20
-764.387596
 30
0.0
 11
85.946906
 21
-765.17538
 31
0.0
  0
LINE
  8
DETAIL
  6
CONTINUOUS
 62
     5
 10
96.069244
 20
-771.398131
 30
0.0
 11
97.01426
 21
-772.54847
 31
0.0
  0
LINE
  8
DETAIL
  6
CONTINUOUS
 62
     5
 10
94.847541
 20
-770.411471
 30
0.0
 11
96.069244
 21
-771.398131
 31
0.0
  0
LINE
  8
DETAIL
  6
CONTINUOUS
 62
     5
 10
93.408694
 20
-769.660544
 30
0.0
 11
94.847541
 21
-770.411471
 31
0.0
  0
LINE
  8
DETAIL
  6
CONTINUOUS
 62
     5
 10
91.225591
 20
-770.749656
 30
0.0
 11
90.925546
 21
-770.720792
 31
0.0
  0
LINE
  8
DETAIL
  6
CONTINUOUS
 62
     5
 10
92.592461
 20
-771.154954
 30
0.0
 11
91.225591
 21
-770.749656
 31
0.0
  0
LINE
  8
DETAIL
  6
CONTINUOUS
 62
     5
 10
93.797452
 20
-771.785411
 30
0.0
 11
92.592461
 21
-771.154954
 31
0.0
  0
LINE
  8
DETAIL
  6
CONTINUOUS
 62
     5
 10
94.819332
 20
-772.613078
 30
0.0
 11
93.797452
 21
-771.785411
 31
0.0
  0
LINE
  8
DETAIL
  6
CONTINUOUS
 62
     5
 10
95.607956
 20
-773.577154
 30
0.0
 11
94.819332
 21
-772.613078
 31
0.0
  0
LINE
  8
DETAIL
  6
CONTINUOUS
 62
     5
 10
98.561268
 20
-774.840812
 30
0.0
 11
97.01426
 21
-772.54847
 31
0.0
  0
LINE
  8
DETAIL
  6
CONTINUOUS
 62
     5
 10
100.155482
 20
-777.107406
 30
0.0
 11
98.561268
 21
-774.840812
 31
0.0
  0
LINE
  8
DETAIL
  6
CONTINUOUS
 62
     5
 10
95.607956
 20
-773.577154
 30
0.0
 11
97.834504
 21
-776.866543
 31
0.0
  0
LINE
  8
DETAIL
  6
CONTINUOUS
 62
     5
 10
91.300242
 20
-772.105995
 30
0.0
 11
91.231604
 21
-771.717088
 31
0.0
  0
LINE
  8
DETAIL
  6
CONTINUOUS
 62
     5
 10
98.570381
 20
-765.414705
 30
0.0
 11
100.155482
 21
-764.109739
 31
0.0
  0
LINE
  8
DETAIL
  6
CONTINUOUS
 62
     5
 10
97.02396
 20
-766.788718
 30
0.0
 11
98.570381
 21
-765.414705
 31
0.0
  0
LINE
  8
DETAIL
  6
CONTINUOUS
 62
     5
 10
102.848496
 20
-762.127637
 30
0.0
 11
104.207431
 21
-761.236051
 31
0.0
  0
LINE
  8
DETAIL
  6
CONTINUOUS
 62
     5
 10
101.496436
 20
-763.085721
 30
0.0
 11
102.848496
 21
-762.127637
 31
0.0
  0
LINE
  8
DETAIL
  6
CONTINUOUS
 62
     5
 10
101.041404
 20
-763.433207
 30
0.0
 11
101.496436
 21
-763.085721
 31
0.0
  0
LINE
  8
DETAIL
  6
CONTINUOUS
 62
     5
 10
100.155482
 20
-764.109739
 30
0.0
 11
101.268919
 21
-763.259463
 31
0.0
  0
LINE
  8
DETAIL
  6
CONTINUOUS
 62
     5
 10
92.805615
 20
-768.853548
 30
0.0
 11
91.097104
 21
-769.009861
 31
0.0
  0
LINE
  8
DETAIL
  6
CONTINUOUS
 62
     5
 10
94.392114
 20
-768.407493
 30
0.0
 11
92.805615
 21
-768.853548
 31
0.0
  0
LINE
  8
DETAIL
  6
CONTINUOUS
 62
     5
 10
95.814226
 20
-767.704962
 30
0.0
 11
94.392114
 21
-768.407493
 31
0.0
  0
LINE
  8
DETAIL
  6
CONTINUOUS
 62
     5
 10
97.02396
 20
-766.788718
 30
0.0
 11
95.814226
 21
-767.704962
 31
0.0
  0
LINE
  8
DETAIL
  6
CONTINUOUS
 62
     5
 10
105.215221
 20
-760.733055
 30
0.0
 11
104.207431
 21
-761.236051
 31
0.0
  0
LINE
  8
DETAIL
  6
CONTINUOUS
 62
     5
 10
106.35338
 20
-760.422043
 30
0.0
 11
105.215221
 21
-760.733055
 31
0.0
  0
LINE
  8
DETAIL
  6
CONTINUOUS
 62
     5
 10
107.595021
 20
-760.329766
 30
0.0
 11
106.35338
 21
-760.422043
 31
0.0
  0
LINE
  8
DETAIL
  6
CONTINUOUS
 62
     5
 10
94.193262
 20
-772.105995
 30
0.0
 11
91.300242
 21
-772.105995
 31
0.0
  0
LINE
  8
DETAIL
  6
CONTINUOUS
 62
     5
 10
91.778034
 20
-769.178334
 30
0.0
 11
93.408694
 21
-769.660544
 31
0.0
  0
LINE
  8
DETAIL
  6
CONTINUOUS
 62
     5
 10
90.169031
 20
-769.024051
 30
0.0
 11
91.778034
 21
-769.178334
 31
0.0
  0
LINE
  8
DETAIL
  6
CONTINUOUS
 62
     5
 10
90.644745
 20
-769.80671
 30
0.0
 11
91.231604
 21
-771.717088
 31
0.0
  0
LINE
  8
DETAIL
  6
CONTINUOUS
 62
     5
 10
89.52277
 20
-767.960806
 30
0.0
 11
90.644745
 21
-769.80671
 31
0.0
  0
LINE
  8
DETAIL
  6
CONTINUOUS
 62
     5
 10
87.92836
 20
-766.38368
 30
0.0
 11
89.52277
 21
-767.960806
 31
0.0
  0
ARC
  8
OUTLINE
  6
CONTINUOUS
 62
     3
 10
33.394797
 20
-763.616594
 30
0.0
 40
0.499376
 50
194.477481
 51
270.0
  0
ARC
  8
OUTLINE
  6
CONTINUOUS
 62
     3
 10
31.460719
 20
-764.115971
 30
0.0
 40
1.498129
 50
14.477519
 51
90.0
  0
LINE
  8
OUTLINE
  6
CONTINUOUS
 62
     3
 10
18.676681
 20
-762.617841
 30
0.0
 11
18.676681
 21
-758.323204
 31
0.0
  0
ARC
  8
DETAIL
  6
CONTINUOUS
 62
     5
 10
31.460719
 20
-764.115971
 30
0.0
 40
1.498129
 50
14.477519
 51
90.0
  0
ARC
  8
DETAIL
  6
CONTINUOUS
 62
     5
 10
33.394797
 20
-763.616594
 30
0.0
 40
0.499376
 50
194.477481
 51
270.0
  0
LINE
  8
DETAIL
  6
CONTINUOUS
 62
     5
 10
18.676681
 20
-762.617841
 30
0.0
 11
18.676681
 21
-758.323204
 31
0.0
  0
LINE
  8
OUTLINE
  6
CONTINUOUS
 62
     3
 10
-369.735228
 20
-760.613516
 30
0.0
 11
-114.444853
 21
-760.575675
 31
0.0
  0
LINE
  8
OUTLINE
  6
CONTINUOUS
 62
     3
 10
-249.823225
 20
-797.413801
 30
0.0
 11
-178.331898
 21
-799.01767
 31
0.0
  0
LINE
  8
DETAIL
  6
CONTINUOUS
 62
     5
 10
-249.823225
 20
-797.413801
 30
0.0
 11
-178.331898
 21
-799.01767
 31
0.0
  0
LINE
  8
DETAIL
  6
CONTINUOUS
 62
     5
 10
-369.735228
 20
-760.613516
 30
0.0
 11
-114.444853
 21
-760.575675
 31
0.0
  0
LINE
  8
OUTLINE
  6
CONTINUOUS
 62
     3
 10
-97.834504
 20
-776.866543
 30
0.0
 11
-100.155482
 21
-780.103014
 31
0.0
  0
LINE
  8
DETAIL
  6
CONTINUOUS
 62
     5
 10
-97.834504
 20
-776.866543
 30
0.0
 11
-100.155482
 21
-780.103014
 31
0.0
  0
LINE
  8
OUTLINE
  6
CONTINUOUS
 62
     3
 10
-178.331898
 20
-799.01767
 30
0.0
 11
-106.717637
 21
-799.545603
 31
0.0
  0
LINE
  8
DETAIL
  6
CONTINUOUS
 62
     5
 10
-178.331898
 20
-799.01767
 30
0.0
 11
-106.717637
 21
-799.545603
 31
0.0
  0
ARC
  8
OUTLINE
  6
CONTINUOUS
 62
     3
 10
-96.892177
 20
-812.62436
 30
0.0
 40
18.226273
 50
158.306111
 51
173.490184
  0
ARC
  8
OUTLINE
  6
CONTINUOUS
 62
     3
 10
-96.917482
 20
-811.706707
 30
0.0
 40
18.177587
 50
185.833512
 51
211.339815
  0
ARC
  8
OUTLINE
  6
CONTINUOUS
 62
     3
 10
-73.689558
 20
-798.398635
 30
0.0
 40
44.943884
 50
210.428597
 51
240.16239
  0
ARC
  8
OUTLINE
  6
CONTINUOUS
 62
     3
 10
-36.055102
 20
-731.89748
 30
0.0
 40
121.417105
 50
251.129704
 51
258.288627
  0
ARC
  8
OUTLINE
  6
CONTINUOUS
 62
     3
 10
-75.001247
 20
-845.843859
 30
0.0
 40
0.998753
 50
180.0
 51
251.10614
  0
LINE
  8
OUTLINE
  6
CONTINUOUS
 62
     3
 10
-109.740155
 20
-799.523323
 30
0.0
 11
-110.478789
 21
-800.358728
 31
0.0
  0
LINE
  8
OUTLINE
  6
CONTINUOUS
 62
     3
 10
-111.969432
 20
-802.30332
 30
0.0
 11
-112.058528
 21
-802.438028
 31
0.0
  0
LINE
  8
OUTLINE
  6
CONTINUOUS
 62
     3
 10
-111.923773
 20
-802.235257
 30
0.0
 11
-111.969432
 21
-802.30332
 31
0.0
  0
LINE
  8
OUTLINE
  6
CONTINUOUS
 62
     3
 10
-111.877351
 20
-802.166718
 30
0.0
 11
-111.923773
 21
-802.235257
 31
0.0
  0
LINE
  8
OUTLINE
  6
CONTINUOUS
 62
     3
 10
-111.830153
 20
-802.097692
 30
0.0
 11
-111.877351
 21
-802.166718
 31
0.0
  0
LINE
  8
OUTLINE
  6
CONTINUOUS
 62
     3
 10
-111.782153
 20
-802.028171
 30
0.0
 11
-111.830153
 21
-802.097692
 31
0.0
  0
LINE
  8
OUTLINE
  6
CONTINUOUS
 62
     3
 10
-111.733338
 20
-801.958151
 30
0.0
 11
-111.782153
 21
-802.028171
 31
0.0
  0
LINE
  8
OUTLINE
  6
CONTINUOUS
 62
     3
 10
-111.683684
 20
-801.887619
 30
0.0
 11
-111.733338
 21
-801.958151
 31
0.0
  0
LINE
  8
OUTLINE
  6
CONTINUOUS
 62
     3
 10
-111.633167
 20
-801.816563
 30
0.0
 11
-111.683684
 21
-801.887619
 31
0.0
  0
LINE
  8
OUTLINE
  6
CONTINUOUS
 62
     3
 10
-111.581772
 20
-801.744985
 30
0.0
 11
-111.633167
 21
-801.816563
 31
0.0
  0
LINE
  8
OUTLINE
  6
CONTINUOUS
 62
     3
 10
-111.529473
 20
-801.672871
 30
0.0
 11
-111.581772
 21
-801.744985
 31
0.0
  0
LINE
  8
OUTLINE
  6
CONTINUOUS
 62
     3
 10
-111.476251
 20
-801.600214
 30
0.0
 11
-111.529473
 21
-801.672871
 31
0.0
  0
LINE
  8
OUTLINE
  6
CONTINUOUS
 62
     3
 10
-111.422087
 20
-801.527009
 30
0.0
 11
-111.476251
 21
-801.600214
 31
0.0
  0
LINE
  8
OUTLINE
  6
CONTINUOUS
 62
     3
 10
-111.366948
 20
-801.453249
 30
0.0
 11
-111.422087
 21
-801.527009
 31
0.0
  0
LINE
  8
OUTLINE
  6
CONTINUOUS
 62
     3
 10
-111.310814
 20
-801.378926
 30
0.0
 11
-111.366948
 21
-801.453249
 31
0.0
  0
LINE
  8
OUTLINE
  6
CONTINUOUS
 62
     3
 10
-111.253661
 20
-801.304027
 30
0.0
 11
-111.310814
 21
-801.378926
 31
0.0
  0
LINE
  8
OUTLINE
  6
CONTINUOUS
 62
     3
 10
-111.195462
 20
-801.22855
 30
0.0
 11
-111.253661
 21
-801.304027
 31
0.0
  0
LINE
  8
OUTLINE
  6
CONTINUOUS
 62
     3
 10
-111.136196
 20
-801.152489
 30
0.0
 11
-111.195462
 21
-801.22855
 31
0.0
  0
LINE
  8
OUTLINE
  6
CONTINUOUS
 62
     3
 10
-111.075831
 20
-801.075836
 30
0.0
 11
-111.136196
 21
-801.152489
 31
0.0
  0
LINE
  8
OUTLINE
  6
CONTINUOUS
 62
     3
 10
-111.01434
 20
-800.998585
 30
0.0
 11
-111.075831
 21
-801.075836
 31
0.0
  0
LINE
  8
OUTLINE
  6
CONTINUOUS
 62
     3
 10
-110.951702
 20
-800.920734
 30
0.0
 11
-111.01434
 21
-800.998585
 31
0.0
  0
LINE
  8
OUTLINE
  6
CONTINUOUS
 62
     3
 10
-110.88789
 20
-800.842276
 30
0.0
 11
-110.951702
 21
-800.920734
 31
0.0
  0
LINE
  8
OUTLINE
  6
CONTINUOUS
 62
     3
 10
-110.822871
 20
-800.763215
 30
0.0
 11
-110.88789
 21
-800.842276
 31
0.0
  0
LINE
  8
OUTLINE
  6
CONTINUOUS
 62
     3
 10
-110.756626
 20
-800.683538
 30
0.0
 11
-110.822871
 21
-800.763215
 31
0.0
  0
LINE
  8
OUTLINE
  6
CONTINUOUS
 62
     3
 10
-110.689122
 20
-800.603254
 30
0.0
 11
-110.756626
 21
-800.683538
 31
0.0
  0
LINE
  8
OUTLINE
  6
CONTINUOUS
 62
     3
 10
-110.620332
 20
-800.522355
 30
0.0
 11
-110.689122
 21
-800.603254
 31
0.0
  0
LINE
  8
OUTLINE
  6
CONTINUOUS
 62
     3
 10
-110.550232
 20
-800.440845
 30
0.0
 11
-110.620332
 21
-800.522355
 31
0.0
  0
LINE
  8
OUTLINE
  6
CONTINUOUS
 62
     3
 10
-110.478789
 20
-800.358728
 30
0.0
 11
-110.550232
 21
-800.440845
 31
0.0
  0
LINE
  8
OUTLINE
  6
CONTINUOUS
 62
     3
 10
-101.398742
 20
-781.75776
 30
0.0
 11
-102.65149
 21
-783.365361
 31
0.0
  0
LINE
  8
OUTLINE
  6
CONTINUOUS
 62
     3
 10
-100.155482
 20
-780.103014
 30
0.0
 11
-101.398742
 21
-781.75776
 31
0.0
  0
LINE
  8
OUTLINE
  6
CONTINUOUS
 62
     3
 10
-112.058528
 20
-802.438028
 30
0.0
 11
-112.144749
 21
-802.57085
 31
0.0
  0
LINE
  8
OUTLINE
  6
CONTINUOUS
 62
     3
 10
-112.144749
 20
-802.57085
 30
0.0
 11
-112.228192
 21
-802.70181
 31
0.0
  0
LINE
  8
OUTLINE
  6
CONTINUOUS
 62
     3
 10
-112.228192
 20
-802.70181
 30
0.0
 11
-112.308968
 21
-802.830929
 31
0.0
  0
LINE
  8
OUTLINE
  6
CONTINUOUS
 62
     3
 10
-112.308968
 20
-802.830929
 30
0.0
 11
-112.387162
 21
-802.958222
 31
0.0
  0
LINE
  8
OUTLINE
  6
CONTINUOUS
 62
     3
 10
-112.387162
 20
-802.958222
 30
0.0
 11
-112.462875
 21
-803.083721
 31
0.0
  0
LINE
  8
OUTLINE
  6
CONTINUOUS
 62
     3
 10
-112.462875
 20
-803.083721
 30
0.0
 11
-112.536196
 21
-803.207455
 31
0.0
  0
LINE
  8
OUTLINE
  6
CONTINUOUS
 62
     3
 10
-112.536196
 20
-803.207455
 30
0.0
 11
-112.607203
 21
-803.329431
 31
0.0
  0
LINE
  8
OUTLINE
  6
CONTINUOUS
 62
     3
 10
-112.607203
 20
-803.329431
 30
0.0
 11
-112.675969
 21
-803.449656
 31
0.0
  0
LINE
  8
OUTLINE
  6
CONTINUOUS
 62
     3
 10
-112.675969
 20
-803.449656
 30
0.0
 11
-112.742566
 21
-803.568133
 31
0.0
  0
LINE
  8
OUTLINE
  6
CONTINUOUS
 62
     3
 10
-112.775074
 20
-803.626719
 30
0.0
 11
-112.83855
 21
-803.742599
 31
0.0
  0
LINE
  8
OUTLINE
  6
CONTINUOUS
 62
     3
 10
-112.742566
 20
-803.568133
 30
0.0
 11
-112.775074
 21
-803.626719
 31
0.0
  0
LINE
  8
OUTLINE
  6
CONTINUOUS
 62
     3
 10
-112.83855
 20
-803.742599
 30
0.0
 11
-112.900026
 21
-803.856764
 31
0.0
  0
LINE
  8
OUTLINE
  6
CONTINUOUS
 62
     3
 10
-112.900026
 20
-803.856764
 30
0.0
 11
-112.959567
 21
-803.969232
 31
0.0
  0
LINE
  8
OUTLINE
  6
CONTINUOUS
 62
     3
 10
-112.959567
 20
-803.969232
 30
0.0
 11
-113.017239
 21
-804.080009
 31
0.0
  0
LINE
  8
OUTLINE
  6
CONTINUOUS
 62
     3
 10
-113.017239
 20
-804.080009
 30
0.0
 11
-113.073074
 21
-804.189069
 31
0.0
  0
LINE
  8
OUTLINE
  6
CONTINUOUS
 62
     3
 10
-113.073074
 20
-804.189069
 30
0.0
 11
-113.127102
 21
-804.296367
 31
0.0
  0
LINE
  8
OUTLINE
  6
CONTINUOUS
 62
     3
 10
-113.127102
 20
-804.296367
 30
0.0
 11
-113.179361
 21
-804.401868
 31
0.0
  0
LINE
  8
OUTLINE
  6
CONTINUOUS
 62
     3
 10
-113.179361
 20
-804.401868
 30
0.0
 11
-113.229878
 21
-804.50553
 31
0.0
  0
LINE
  8
OUTLINE
  6
CONTINUOUS
 62
     3
 10
-113.229878
 20
-804.50553
 30
0.0
 11
-113.278693
 21
-804.607323
 31
0.0
  0
LINE
  8
OUTLINE
  6
CONTINUOUS
 62
     3
 10
-113.278693
 20
-804.607323
 30
0.0
 11
-113.325818
 21
-804.70719
 31
0.0
  0
LINE
  8
OUTLINE
  6
CONTINUOUS
 62
     3
 10
-113.325818
 20
-804.70719
 30
0.0
 11
-113.371233
 21
-804.804956
 31
0.0
  0
LINE
  8
OUTLINE
  6
CONTINUOUS
 62
     3
 10
-113.371233
 20
-804.804956
 30
0.0
 11
-113.414859
 21
-804.900349
 31
0.0
  0
LINE
  8
OUTLINE
  6
CONTINUOUS
 62
     3
 10
-113.414859
 20
-804.900349
 30
0.0
 11
-113.456623
 21
-804.993081
 31
0.0
  0
LINE
  8
OUTLINE
  6
CONTINUOUS
 62
     3
 10
-113.456623
 20
-804.993081
 30
0.0
 11
-113.496469
 21
-805.082877
 31
0.0
  0
LINE
  8
OUTLINE
  6
CONTINUOUS
 62
     3
 10
-113.515653
 20
-805.126591
 30
0.0
 11
-113.552523
 21
-805.211481
 31
0.0
  0
LINE
  8
OUTLINE
  6
CONTINUOUS
 62
     3
 10
-113.496469
 20
-805.082877
 30
0.0
 11
-113.515653
 21
-805.126591
 31
0.0
  0
LINE
  8
OUTLINE
  6
CONTINUOUS
 62
     3
 10
-113.552523
 20
-805.211481
 30
0.0
 11
-113.587355
 21
-805.292787
 31
0.0
  0
LINE
  8
OUTLINE
  6
CONTINUOUS
 62
     3
 10
-113.587355
 20
-805.292787
 30
0.0
 11
-113.65074
 21
-805.443599
 31
0.0
  0
LINE
  8
OUTLINE
  6
CONTINUOUS
 62
     3
 10
-113.66521
 20
-805.478579
 30
0.0
 11
-113.705088
 21
-805.576169
 31
0.0
  0
LINE
  8
OUTLINE
  6
CONTINUOUS
 62
     3
 10
-113.65074
 20
-805.443599
 30
0.0
 11
-113.66521
 21
-805.478579
 31
0.0
  0
LINE
  8
OUTLINE
  6
CONTINUOUS
 62
     3
 10
-113.705088
 20
-805.576169
 30
0.0
 11
-113.739442
 21
-805.661679
 31
0.0
  0
LINE
  8
OUTLINE
  6
CONTINUOUS
 62
     3
 10
-113.739442
 20
-805.661679
 30
0.0
 11
-113.767954
 21
-805.733697
 31
0.0
  0
LINE
  8
OUTLINE
  6
CONTINUOUS
 62
     3
 10
-113.767954
 20
-805.733697
 30
0.0
 11
-113.807057
 21
-805.833856
 31
0.0
  0
LINE
  8
OUTLINE
  6
CONTINUOUS
 62
     3
 10
-113.807057
 20
-805.833856
 30
0.0
 11
-113.824791
 21
-805.879778
 31
0.0
  0
LINE
  8
OUTLINE
  6
CONTINUOUS
 62
     3
 10
-113.824791
 20
-805.879778
 30
0.0
 11
-113.827468
 21
-805.886941
 31
0.0
  0
LINE
  8
OUTLINE
  6
CONTINUOUS
 62
     3
 10
-76.0
 20
-845.843859
 30
0.0
 11
-76.0
 21
-845.539367
 31
0.0
  0
LINE
  8
OUTLINE
  6
CONTINUOUS
 62
     3
 10
-81.323315
 20
-843.378543
 30
0.0
 11
-81.323315
 21
-843.893887
 31
0.0
  0
LINE
  8
OUTLINE
  6
CONTINUOUS
 62
     3
 10
-115.000935
 20
-811.806427
 30
0.0
 11
-115.000935
 21
-810.557985
 31
0.0
  0
LINE
  8
OUTLINE
  6
CONTINUOUS
 62
     3
 10
-115.000935
 20
-813.554244
 30
0.0
 11
-115.000935
 21
-811.806427
 31
0.0
  0
LINE
  8
OUTLINE
  6
CONTINUOUS
 62
     3
 10
-90.495938
 20
-794.358919
 30
0.0
 11
-91.549267
 21
-793.536913
 31
0.0
  0
LINE
  8
OUTLINE
  6
CONTINUOUS
 62
     3
 10
-90.061377
 20
-795.258396
 30
0.0
 11
-90.495938
 21
-794.358919
 31
0.0
  0
LINE
  8
OUTLINE
  6
CONTINUOUS
 62
     3
 10
-90.052568
 20
-795.412919
 30
0.0
 11
-90.061377
 21
-795.258396
 31
0.0
  0
LINE
  8
OUTLINE
  6
CONTINUOUS
 62
     3
 10
-96.479887
 20
-790.445825
 30
0.0
 11
-91.549267
 21
-793.536913
 31
0.0
  0
LINE
  8
OUTLINE
  6
CONTINUOUS
 62
     3
 10
-100.679839
 20
-787.204859
 30
0.0
 11
-96.479887
 21
-790.445825
 31
0.0
  0
LINE
  8
OUTLINE
  6
CONTINUOUS
 62
     3
 10
-103.619249
 20
-784.326433
 30
0.0
 11
-100.679839
 21
-787.204859
 31
0.0
  0
LINE
  8
OUTLINE
  6
CONTINUOUS
 62
     3
 10
-83.39895
 20
-843.295403
 30
0.0
 11
-96.051095
 21
-837.384715
 31
0.0
  0
LINE
  8
OUTLINE
  6
CONTINUOUS
 62
     3
 10
-76.500365
 20
-845.402975
 30
0.0
 11
-81.323315
 21
-843.893887
 31
0.0
  0
LINE
  8
OUTLINE
  6
CONTINUOUS
 62
     3
 10
-99.035876
 20
-799.544464
 30
0.0
 11
-106.717637
 21
-799.545603
 31
0.0
  0
LINE
  8
OUTLINE
  6
CONTINUOUS
 62
     3
 10
-90.284586
 20
-796.918851
 30
0.0
 11
-90.052093
 21
-796.153742
 31
0.0
  0
LINE
  8
OUTLINE
  6
CONTINUOUS
 62
     3
 10
-91.130091
 20
-797.763264
 30
0.0
 11
-90.284586
 21
-796.918851
 31
0.0
  0
LINE
  8
OUTLINE
  6
CONTINUOUS
 62
     3
 10
-92.533327
 20
-798.492606
 30
0.0
 11
-91.130091
 21
-797.763264
 31
0.0
  0
LINE
  8
OUTLINE
  6
CONTINUOUS
 62
     3
 10
-94.402125
 20
-799.058112
 30
0.0
 11
-92.533327
 21
-798.492606
 31
0.0
  0
LINE
  8
OUTLINE
  6
CONTINUOUS
 62
     3
 10
-96.623472
 20
-799.419604
 30
0.0
 11
-94.402125
 21
-799.058112
 31
0.0
  0
LINE
  8
OUTLINE
  6
CONTINUOUS
 62
     3
 10
-71.321587
 20
-846.814633
 30
0.0
 11
-76.500365
 21
-845.402975
 31
0.0
  0
LINE
  8
OUTLINE
  6
CONTINUOUS
 62
     3
 10
-83.0
 20
-843.378543
 30
0.0
 11
-83.39895
 21
-843.295403
 31
0.0
  0
LINE
  8
OUTLINE
  6
CONTINUOUS
 62
     3
 10
-71.321587
 20
-846.814633
 30
0.0
 11
-76.500365
 21
-845.402975
 31
0.0
  0
LINE
  8
OUTLINE
  6
CONTINUOUS
 62
     3
 10
-81.323315
 20
-843.378543
 30
0.0
 11
-81.323315
 21
-843.893887
 31
0.0
  0
LINE
  8
OUTLINE
  6
CONTINUOUS
 62
     3
 10
-76.500365
 20
-845.402975
 30
0.0
 11
-81.323315
 21
-843.893887
 31
0.0
  0
LINE
  8
OUTLINE
  6
CONTINUOUS
 62
     3
 10
-99.035876
 20
-799.544464
 30
0.0
 11
-96.623472
 21
-799.419604
 31
0.0
  0
LINE
  8
OUTLINE
  6
CONTINUOUS
 62
     3
 10
-103.619249
 20
-784.326433
 30
0.0
 11
-102.65149
 21
-783.365361
 31
0.0
  0
LINE
  8
OUTLINE
  6
CONTINUOUS
 62
     3
 10
-90.052568
 20
-795.412919
 30
0.0
 11
-90.052093
 21
-796.153742
 31
0.0
  0
LINE
  8
DETAIL
  6
CONTINUOUS
 62
     5
 10
-90.052568
 20
-795.412919
 30
0.0
 11
-90.052093
 21
-796.153742
 31
0.0
  0
LINE
  8
DETAIL
  6
CONTINUOUS
 62
     5
 10
-76.500365
 20
-845.402975
 30
0.0
 11
-81.323315
 21
-843.893887
 31
0.0
  0
LINE
  8
DETAIL
  6
CONTINUOUS
 62
     5
 10
-81.323315
 20
-843.378543
 30
0.0
 11
-81.323315
 21
-843.893887
 31
0.0
  0
LINE
  8
DETAIL
  6
CONTINUOUS
 62
     5
 10
-71.321587
 20
-846.814633
 30
0.0
 11
-76.500365
 21
-845.402975
 31
0.0
  0
LINE
  8
DETAIL
  6
CONTINUOUS
 62
     5
 10
-83.0
 20
-843.378543
 30
0.0
 11
-83.39895
 21
-843.295403
 31
0.0
  0
LINE
  8
DETAIL
  6
CONTINUOUS
 62
     5
 10
-71.321587
 20
-846.814633
 30
0.0
 11
-76.500365
 21
-845.402975
 31
0.0
  0
LINE
  8
DETAIL
  6
CONTINUOUS
 62
     5
 10
-99.035876
 20
-799.544464
 30
0.0
 11
-96.623472
 21
-799.419604
 31
0.0
  0
LINE
  8
DETAIL
  6
CONTINUOUS
 62
     5
 10
-96.623472
 20
-799.419604
 30
0.0
 11
-94.402125
 21
-799.058112
 31
0.0
  0
LINE
  8
DETAIL
  6
CONTINUOUS
 62
     5
 10
-94.402125
 20
-799.058112
 30
0.0
 11
-92.533327
 21
-798.492606
 31
0.0
  0
LINE
  8
DETAIL
  6
CONTINUOUS
 62
     5
 10
-92.533327
 20
-798.492606
 30
0.0
 11
-91.130091
 21
-797.763264
 31
0.0
  0
LINE
  8
DETAIL
  6
CONTINUOUS
 62
     5
 10
-91.130091
 20
-797.763264
 30
0.0
 11
-90.284586
 21
-796.918851
 31
0.0
  0
LINE
  8
DETAIL
  6
CONTINUOUS
 62
     5
 10
-90.284586
 20
-796.918851
 30
0.0
 11
-90.052093
 21
-796.153742
 31
0.0
  0
LINE
  8
DETAIL
  6
CONTINUOUS
 62
     5
 10
-99.035876
 20
-799.544464
 30
0.0
 11
-106.717637
 21
-799.545603
 31
0.0
  0
LINE
  8
DETAIL
  6
CONTINUOUS
 62
     5
 10
-76.500365
 20
-845.402975
 30
0.0
 11
-81.323315
 21
-843.893887
 31
0.0
  0
LINE
  8
DETAIL
  6
CONTINUOUS
 62
     5
 10
-83.39895
 20
-843.295403
 30
0.0
 11
-96.051095
 21
-837.384715
 31
0.0
  0
LINE
  8
DETAIL
  6
CONTINUOUS
 62
     5
 10
-103.619249
 20
-784.326433
 30
0.0
 11
-100.679839
 21
-787.204859
 31
0.0
  0
LINE
  8
DETAIL
  6
CONTINUOUS
 62
     5
 10
-100.679839
 20
-787.204859
 30
0.0
 11
-96.479887
 21
-790.445825
 31
0.0
  0
LINE
  8
DETAIL
  6
CONTINUOUS
 62
     5
 10
-96.479887
 20
-790.445825
 30
0.0
 11
-91.549267
 21
-793.536913
 31
0.0
  0
LINE
  8
DETAIL
  6
CONTINUOUS
 62
     5
 10
-90.052568
 20
-795.412919
 30
0.0
 11
-90.061377
 21
-795.258396
 31
0.0
  0
LINE
  8
DETAIL
  6
CONTINUOUS
 62
     5
 10
-90.061377
 20
-795.258396
 30
0.0
 11
-90.495938
 21
-794.358919
 31
0.0
  0
LINE
  8
DETAIL
  6
CONTINUOUS
 62
     5
 10
-90.495938
 20
-794.358919
 30
0.0
 11
-91.549267
 21
-793.536913
 31
0.0
  0
LINE
  8
DETAIL
  6
CONTINUOUS
 62
     5
 10
-115.000935
 20
-813.554244
 30
0.0
 11
-115.000935
 21
-811.806427
 31
0.0
  0
LINE
  8
DETAIL
  6
CONTINUOUS
 62
     5
 10
-115.000935
 20
-811.806427
 30
0.0
 11
-115.000935
 21
-810.557985
 31
0.0
  0
LINE
  8
DETAIL
  6
CONTINUOUS
 62
     5
 10
-81.323315
 20
-843.378543
 30
0.0
 11
-81.323315
 21
-843.893887
 31
0.0
  0
LINE
  8
DETAIL
  6
CONTINUOUS
 62
     5
 10
-76.0
 20
-845.843859
 30
0.0
 11
-76.0
 21
-845.539367
 31
0.0
  0
LINE
  8
DETAIL
  6
CONTINUOUS
 62
     5
 10
-113.824791
 20
-805.879778
 30
0.0
 11
-113.827468
 21
-805.886941
 31
0.0
  0
LINE
  8
DETAIL
  6
CONTINUOUS
 62
     5
 10
-113.807057
 20
-805.833856
 30
0.0
 11
-113.824791
 21
-805.879778
 31
0.0
  0
LINE
  8
DETAIL
  6
CONTINUOUS
 62
     5
 10
-113.767954
 20
-805.733697
 30
0.0
 11
-113.807057
 21
-805.833856
 31
0.0
  0
LINE
  8
DETAIL
  6
CONTINUOUS
 62
     5
 10
-113.739442
 20
-805.661679
 30
0.0
 11
-113.767954
 21
-805.733697
 31
0.0
  0
LINE
  8
DETAIL
  6
CONTINUOUS
 62
     5
 10
-113.705088
 20
-805.576169
 30
0.0
 11
-113.739442
 21
-805.661679
 31
0.0
  0
LINE
  8
DETAIL
  6
CONTINUOUS
 62
     5
 10
-113.65074
 20
-805.443599
 30
0.0
 11
-113.66521
 21
-805.478579
 31
0.0
  0
LINE
  8
DETAIL
  6
CONTINUOUS
 62
     5
 10
-113.66521
 20
-805.478579
 30
0.0
 11
-113.705088
 21
-805.576169
 31
0.0
  0
LINE
  8
DETAIL
  6
CONTINUOUS
 62
     5
 10
-113.587355
 20
-805.292787
 30
0.0
 11
-113.65074
 21
-805.443599
 31
0.0
  0
LINE
  8
DETAIL
  6
CONTINUOUS
 62
     5
 10
-113.552523
 20
-805.211481
 30
0.0
 11
-113.587355
 21
-805.292787
 31
0.0
  0
LINE
  8
DETAIL
  6
CONTINUOUS
 62
     5
 10
-113.496469
 20
-805.082877
 30
0.0
 11
-113.515653
 21
-805.126591
 31
0.0
  0
LINE
  8
DETAIL
  6
CONTINUOUS
 62
     5
 10
-113.515653
 20
-805.126591
 30
0.0
 11
-113.552523
 21
-805.211481
 31
0.0
  0
LINE
  8
DETAIL
  6
CONTINUOUS
 62
     5
 10
-113.456623
 20
-804.993081
 30
0.0
 11
-113.496469
 21
-805.082877
 31
0.0
  0
LINE
  8
DETAIL
  6
CONTINUOUS
 62
     5
 10
-113.414859
 20
-804.900349
 30
0.0
 11
-113.456623
 21
-804.993081
 31
0.0
  0
LINE
  8
DETAIL
  6
CONTINUOUS
 62
     5
 10
-113.371233
 20
-804.804956
 30
0.0
 11
-113.414859
 21
-804.900349
 31
0.0
  0
LINE
  8
DETAIL
  6
CONTINUOUS
 62
     5
 10
-113.325818
 20
-804.70719
 30
0.0
 11
-113.371233
 21
-804.804956
 31
0.0
  0
LINE
  8
DETAIL
  6
CONTINUOUS
 62
     5
 10
-113.278693
 20
-804.607323
 30
0.0
 11
-113.325818
 21
-804.70719
 31
0.0
  0
LINE
  8
DETAIL
  6
CONTINUOUS
 62
     5
 10
-113.229878
 20
-804.50553
 30
0.0
 11
-113.278693
 21
-804.607323
 31
0.0
  0
LINE
  8
DETAIL
  6
CONTINUOUS
 62
     5
 10
-113.179361
 20
-804.401868
 30
0.0
 11
-113.229878
 21
-804.50553
 31
0.0
  0
LINE
  8
DETAIL
  6
CONTINUOUS
 62
     5
 10
-113.127102
 20
-804.296367
 30
0.0
 11
-113.179361
 21
-804.401868
 31
0.0
  0
LINE
  8
DETAIL
  6
CONTINUOUS
 62
     5
 10
-113.073074
 20
-804.189069
 30
0.0
 11
-113.127102
 21
-804.296367
 31
0.0
  0
LINE
  8
DETAIL
  6
CONTINUOUS
 62
     5
 10
-113.017239
 20
-804.080009
 30
0.0
 11
-113.073074
 21
-804.189069
 31
0.0
  0
LINE
  8
DETAIL
  6
CONTINUOUS
 62
     5
 10
-112.959567
 20
-803.969232
 30
0.0
 11
-113.017239
 21
-804.080009
 31
0.0
  0
LINE
  8
DETAIL
  6
CONTINUOUS
 62
     5
 10
-112.900026
 20
-803.856764
 30
0.0
 11
-112.959567
 21
-803.969232
 31
0.0
  0
LINE
  8
DETAIL
  6
CONTINUOUS
 62
     5
 10
-112.83855
 20
-803.742599
 30
0.0
 11
-112.900026
 21
-803.856764
 31
0.0
  0
LINE
  8
DETAIL
  6
CONTINUOUS
 62
     5
 10
-112.742566
 20
-803.568133
 30
0.0
 11
-112.775074
 21
-803.626719
 31
0.0
  0
LINE
  8
DETAIL
  6
CONTINUOUS
 62
     5
 10
-112.775074
 20
-803.626719
 30
0.0
 11
-112.83855
 21
-803.742599
 31
0.0
  0
LINE
  8
DETAIL
  6
CONTINUOUS
 62
     5
 10
-112.675969
 20
-803.449656
 30
0.0
 11
-112.742566
 21
-803.568133
 31
0.0
  0
LINE
  8
DETAIL
  6
CONTINUOUS
 62
     5
 10
-112.607203
 20
-803.329431
 30
0.0
 11
-112.675969
 21
-803.449656
 31
0.0
  0
LINE
  8
DETAIL
  6
CONTINUOUS
 62
     5
 10
-112.536196
 20
-803.207455
 30
0.0
 11
-112.607203
 21
-803.329431
 31
0.0
  0
LINE
  8
DETAIL
  6
CONTINUOUS
 62
     5
 10
-112.462875
 20
-803.083721
 30
0.0
 11
-112.536196
 21
-803.207455
 31
0.0
  0
LINE
  8
DETAIL
  6
CONTINUOUS
 62
     5
 10
-112.387162
 20
-802.958222
 30
0.0
 11
-112.462875
 21
-803.083721
 31
0.0
  0
LINE
  8
DETAIL
  6
CONTINUOUS
 62
     5
 10
-112.308968
 20
-802.830929
 30
0.0
 11
-112.387162
 21
-802.958222
 31
0.0
  0
LINE
  8
DETAIL
  6
CONTINUOUS
 62
     5
 10
-112.228192
 20
-802.70181
 30
0.0
 11
-112.308968
 21
-802.830929
 31
0.0
  0
LINE
  8
DETAIL
  6
CONTINUOUS
 62
     5
 10
-112.144749
 20
-802.57085
 30
0.0
 11
-112.228192
 21
-802.70181
 31
0.0
  0
LINE
  8
DETAIL
  6
CONTINUOUS
 62
     5
 10
-112.058528
 20
-802.438028
 30
0.0
 11
-112.144749
 21
-802.57085
 31
0.0
  0
LINE
  8
DETAIL
  6
CONTINUOUS
 62
     5
 10
-100.155482
 20
-780.103014
 30
0.0
 11
-101.398742
 21
-781.75776
 31
0.0
  0
LINE
  8
DETAIL
  6
CONTINUOUS
 62
     5
 10
-101.398742
 20
-781.75776
 30
0.0
 11
-102.65149
 21
-783.365361
 31
0.0
  0
LINE
  8
DETAIL
  6
CONTINUOUS
 62
     5
 10
-110.478789
 20
-800.358728
 30
0.0
 11
-110.550232
 21
-800.440845
 31
0.0
  0
LINE
  8
DETAIL
  6
CONTINUOUS
 62
     5
 10
-110.550232
 20
-800.440845
 30
0.0
 11
-110.620332
 21
-800.522355
 31
0.0
  0
LINE
  8
DETAIL
  6
CONTINUOUS
 62
     5
 10
-110.620332
 20
-800.522355
 30
0.0
 11
-110.689122
 21
-800.603254
 31
0.0
  0
LINE
  8
DETAIL
  6
CONTINUOUS
 62
     5
 10
-110.689122
 20
-800.603254
 30
0.0
 11
-110.756626
 21
-800.683538
 31
0.0
  0
LINE
  8
DETAIL
  6
CONTINUOUS
 62
     5
 10
-110.756626
 20
-800.683538
 30
0.0
 11
-110.822871
 21
-800.763215
 31
0.0
  0
LINE
  8
DETAIL
  6
CONTINUOUS
 62
     5
 10
-110.822871
 20
-800.763215
 30
0.0
 11
-110.88789
 21
-800.842276
 31
0.0
  0
LINE
  8
DETAIL
  6
CONTINUOUS
 62
     5
 10
-110.88789
 20
-800.842276
 30
0.0
 11
-110.951702
 21
-800.920734
 31
0.0
  0
LINE
  8
DETAIL
  6
CONTINUOUS
 62
     5
 10
-110.951702
 20
-800.920734
 30
0.0
 11
-111.01434
 21
-800.998585
 31
0.0
  0
LINE
  8
DETAIL
  6
CONTINUOUS
 62
     5
 10
-111.01434
 20
-800.998585
 30
0.0
 11
-111.075831
 21
-801.075836
 31
0.0
  0
LINE
  8
DETAIL
  6
CONTINUOUS
 62
     5
 10
-111.075831
 20
-801.075836
 30
0.0
 11
-111.136196
 21
-801.152489
 31
0.0
  0
LINE
  8
DETAIL
  6
CONTINUOUS
 62
     5
 10
-111.136196
 20
-801.152489
 30
0.0
 11
-111.195462
 21
-801.22855
 31
0.0
  0
LINE
  8
DETAIL
  6
CONTINUOUS
 62
     5
 10
-111.195462
 20
-801.22855
 30
0.0
 11
-111.253661
 21
-801.304027
 31
0.0
  0
LINE
  8
DETAIL
  6
CONTINUOUS
 62
     5
 10
-111.253661
 20
-801.304027
 30
0.0
 11
-111.310814
 21
-801.378926
 31
0.0
  0
LINE
  8
DETAIL
  6
CONTINUOUS
 62
     5
 10
-111.310814
 20
-801.378926
 30
0.0
 11
-111.366948
 21
-801.453249
 31
0.0
  0
LINE
  8
DETAIL
  6
CONTINUOUS
 62
     5
 10
-111.366948
 20
-801.453249
 30
0.0
 11
-111.422087
 21
-801.527009
 31
0.0
  0
LINE
  8
DETAIL
  6
CONTINUOUS
 62
     5
 10
-111.422087
 20
-801.527009
 30
0.0
 11
-111.476251
 21
-801.600214
 31
0.0
  0
LINE
  8
DETAIL
  6
CONTINUOUS
 62
     5
 10
-111.476251
 20
-801.600214
 30
0.0
 11
-111.529473
 21
-801.672871
 31
0.0
  0
LINE
  8
DETAIL
  6
CONTINUOUS
 62
     5
 10
-111.529473
 20
-801.672871
 30
0.0
 11
-111.581772
 21
-801.744985
 31
0.0
  0
LINE
  8
DETAIL
  6
CONTINUOUS
 62
     5
 10
-111.581772
 20
-801.744985
 30
0.0
 11
-111.633167
 21
-801.816563
 31
0.0
  0
LINE
  8
DETAIL
  6
CONTINUOUS
 62
     5
 10
-111.633167
 20
-801.816563
 30
0.0
 11
-111.683684
 21
-801.887619
 31
0.0
  0
LINE
  8
DETAIL
  6
CONTINUOUS
 62
     5
 10
-111.683684
 20
-801.887619
 30
0.0
 11
-111.733338
 21
-801.958151
 31
0.0
  0
LINE
  8
DETAIL
  6
CONTINUOUS
 62
     5
 10
-111.733338
 20
-801.958151
 30
0.0
 11
-111.782153
 21
-802.028171
 31
0.0
  0
LINE
  8
DETAIL
  6
CONTINUOUS
 62
     5
 10
-111.782153
 20
-802.028171
 30
0.0
 11
-111.830153
 21
-802.097692
 31
0.0
  0
LINE
  8
DETAIL
  6
CONTINUOUS
 62
     5
 10
-111.830153
 20
-802.097692
 30
0.0
 11
-111.877351
 21
-802.166718
 31
0.0
  0
LINE
  8
DETAIL
  6
CONTINUOUS
 62
     5
 10
-111.877351
 20
-802.166718
 30
0.0
 11
-111.923773
 21
-802.235257
 31
0.0
  0
LINE
  8
DETAIL
  6
CONTINUOUS
 62
     5
 10
-111.923773
 20
-802.235257
 30
0.0
 11
-111.969432
 21
-802.30332
 31
0.0
  0
LINE
  8
DETAIL
  6
CONTINUOUS
 62
     5
 10
-111.969432
 20
-802.30332
 30
0.0
 11
-112.058528
 21
-802.438028
 31
0.0
  0
LINE
  8
DETAIL
  6
CONTINUOUS
 62
     5
 10
-109.740155
 20
-799.523323
 30
0.0
 11
-110.478789
 21
-800.358728
 31
0.0
  0
LINE
  8
DETAIL
  6
CONTINUOUS
 62
     5
 10
-103.619249
 20
-784.326433
 30
0.0
 11
-102.65149
 21
-783.365361
 31
0.0
  0
ARC
  8
DETAIL
  6
CONTINUOUS
 62
     5
 10
-75.001247
 20
-845.843859
 30
0.0
 40
0.998753
 50
180.0
 51
251.10614
  0
ARC
  8
DETAIL
  6
CONTINUOUS
 62
     5
 10
-36.055102
 20
-731.89748
 30
0.0
 40
121.417105
 50
251.129704
 51
258.288627
  0
ARC
  8
DETAIL
  6
CONTINUOUS
 62
     5
 10
-73.689558
 20
-798.398635
 30
0.0
 40
44.943884
 50
210.428597
 51
240.16239
  0
ARC
  8
DETAIL
  6
CONTINUOUS
 62
     5
 10
-96.917482
 20
-811.706707
 30
0.0
 40
18.177587
 50
185.833512
 51
211.339815
  0
ARC
  8
DETAIL
  6
CONTINUOUS
 62
     5
 10
-96.892177
 20
-812.62436
 30
0.0
 40
18.226273
 50
158.306111
 51
173.490184
  0
ARC
  8
OUTLINE
  6
CONTINUOUS
 62
     3
 10
-31.460719
 20
-764.115971
 30
0.0
 40
1.498129
 50
90.0
 51
165.522481
  0
ARC
  8
OUTLINE
  6
CONTINUOUS
 62
     3
 10
-33.394797
 20
-763.616594
 30
0.0
 40
0.499376
 50
270.0
 51
345.522519
  0
LINE
  8
OUTLINE
  6
CONTINUOUS
 62
     3
 10
-18.676681
 20
-762.617841
 30
0.0
 11
-18.676681
 21
-758.323204
 31
0.0
  0
LINE
  8
OUTLINE
  6
CONTINUOUS
 62
     3
 10
-47.191067
 20
-764.118256
 30
0.0
 11
-48.525609
 21
-764.115971
 31
0.0
  0
LINE
  8
OUTLINE
  6
CONTINUOUS
 62
     3
 10
-46.434672
 20
-764.115971
 30
0.0
 11
-47.191067
 21
-764.118256
 31
0.0
  0
LINE
  8
DETAIL
  6
CONTINUOUS
 62
     5
 10
-46.434672
 20
-764.115971
 30
0.0
 11
-47.191067
 21
-764.118256
 31
0.0
  0
LINE
  8
DETAIL
  6
CONTINUOUS
 62
     5
 10
-47.191067
 20
-764.118256
 30
0.0
 11
-48.525609
 21
-764.115971
 31
0.0
  0
LINE
  8
DETAIL
  6
CONTINUOUS
 62
     5
 10
-18.676681
 20
-762.617841
 30
0.0
 11
-18.676681
 21
-758.323204
 31
0.0
  0
ARC
  8
DETAIL
  6
CONTINUOUS
 62
     5
 10
-33.394797
 20
-763.616594
 30
0.0
 40
0.499376
 50
270.0
 51
345.522519
  0
ARC
  8
DETAIL
  6
CONTINUOUS
 62
     5
 10
-31.460719
 20
-764.115971
 30
0.0
 40
1.498129
 50
90.0
 51
165.522481
  0
LINE
  8
OUTLINE
  6
CONTINUOUS
 62
     3
 10
-91.225591
 20
-770.749656
 30
0.0
 11
-90.925546
 21
-770.720792
 31
0.0
  0
LINE
  8
OUTLINE
  6
CONTINUOUS
 62
     3
 10
-92.592461
 20
-771.154954
 30
0.0
 11
-91.225591
 21
-770.749656
 31
0.0
  0
LINE
  8
OUTLINE
  6
CONTINUOUS
 62
     3
 10
-93.797452
 20
-771.785411
 30
0.0
 11
-92.592461
 21
-771.154954
 31
0.0
  0
LINE
  8
OUTLINE
  6
CONTINUOUS
 62
     3
 10
-94.819332
 20
-772.613078
 30
0.0
 11
-93.797452
 21
-771.785411
 31
0.0
  0
LINE
  8
OUTLINE
  6
CONTINUOUS
 62
     3
 10
-95.607956
 20
-773.577154
 30
0.0
 11
-94.819332
 21
-772.613078
 31
0.0
  0
LINE
  8
OUTLINE
  6
CONTINUOUS
 62
     3
 10
-95.607956
 20
-773.577154
 30
0.0
 11
-97.834504
 21
-776.866543
 31
0.0
  0
LINE
  8
OUTLINE
  6
CONTINUOUS
 62
     3
 10
-91.300242
 20
-772.105995
 30
0.0
 11
-91.231604
 21
-771.717088
 31
0.0
  0
LINE
  8
OUTLINE
  6
CONTINUOUS
 62
     3
 10
-98.570381
 20
-765.414705
 30
0.0
 11
-100.155482
 21
-764.109739
 31
0.0
  0
LINE
  8
OUTLINE
  6
CONTINUOUS
 62
     3
 10
-97.02396
 20
-766.788718
 30
0.0
 11
-98.570381
 21
-765.414705
 31
0.0
  0
LINE
  8
OUTLINE
  6
CONTINUOUS
 62
     3
 10
-102.848496
 20
-762.127637
 30
0.0
 11
-104.207431
 21
-761.236051
 31
0.0
  0
LINE
  8
OUTLINE
  6
CONTINUOUS
 62
     3
 10
-101.496436
 20
-763.085721
 30
0.0
 11
-102.848496
 21
-762.127637
 31
0.0
  0
LINE
  8
OUTLINE
  6
CONTINUOUS
 62
     3
 10
-101.041404
 20
-763.433207
 30
0.0
 11
-101.496436
 21
-763.085721
 31
0.0
  0
LINE
  8
OUTLINE
  6
CONTINUOUS
 62
     3
 10
-100.155482
 20
-764.109739
 30
0.0
 11
-101.268919
 21
-763.259463
 31
0.0
  0
LINE
  8
OUTLINE
  6
CONTINUOUS
 62
     3
 10
-92.805615
 20
-768.853548
 30
0.0
 11
-91.097104
 21
-769.009861
 31
0.0
  0
LINE
  8
OUTLINE
  6
CONTINUOUS
 62
     3
 10
-94.392114
 20
-768.407493
 30
0.0
 11
-92.805615
 21
-768.853548
 31
0.0
  0
LINE
  8
OUTLINE
  6
CONTINUOUS
 62
     3
 10
-95.814226
 20
-767.704962
 30
0.0
 11
-94.392114
 21
-768.407493
 31
0.0
  0
LINE
  8
OUTLINE
  6
CONTINUOUS
 62
     3
 10
-97.02396
 20
-766.788718
 30
0.0
 11
-95.814226
 21
-767.704962
 31
0.0
  0
LINE
  8
OUTLINE
  6
CONTINUOUS
 62
     3
 10
-105.215221
 20
-760.733055
 30
0.0
 11
-104.207431
 21
-761.236051
 31
0.0
  0
LINE
  8
OUTLINE
  6
CONTINUOUS
 62
     3
 10
-106.35338
 20
-760.422043
 30
0.0
 11
-105.215221
 21
-760.733055
 31
0.0
  0
LINE
  8
OUTLINE
  6
CONTINUOUS
 62
     3
 10
-107.595021
 20
-760.329766
 30
0.0
 11
-106.35338
 21
-760.422043
 31
0.0
  0
LINE
  8
OUTLINE
  6
CONTINUOUS
 62
     3
 10
-94.193262
 20
-772.105995
 30
0.0
 11
-91.300242
 21
-772.105995
 31
0.0
  0
LINE
  8
OUTLINE
  6
CONTINUOUS
 62
     3
 10
-90.644745
 20
-769.80671
 30
0.0
 11
-91.231604
 21
-771.717088
 31
0.0
  0
LINE
  8
OUTLINE
  6
CONTINUOUS
 62
     3
 10
-89.52277
 20
-767.960806
 30
0.0
 11
-90.644745
 21
-769.80671
 31
0.0
  0
LINE
  8
OUTLINE
  6
CONTINUOUS
 62
     3
 10
-87.92836
 20
-766.38368
 30
0.0
 11
-89.52277
 21
-767.960806
 31
0.0
  0
LINE
  8
OUTLINE
  6
CONTINUOUS
 62
     3
 10
-85.946906
 20
-765.17538
 30
0.0
 11
-87.92836
 21
-766.38368
 31
0.0
  0
LINE
  8
OUTLINE
  6
CONTINUOUS
 62
     3
 10
-83.602633
 20
-764.387596
 30
0.0
 11
-85.946906
 21
-765.17538
 31
0.0
  0
LINE
  8
OUTLINE
  6
CONTINUOUS
 62
     3
 10
-81.064874
 20
-764.115971
 30
0.0
 11
-83.602633
 21
-764.387596
 31
0.0
  0
LINE
  8
OUTLINE
  6
CONTINUOUS
 62
     3
 10
-107.595065
 20
-760.329766
 30
0.0
 11
-114.444853
 21
-760.575675
 31
0.0
  0
LINE
  8
OUTLINE
  6
CONTINUOUS
 62
     3
 10
-91.097104
 20
-769.009861
 30
0.0
 11
-90.16903
 21
-769.024051
 31
0.0
  0
LINE
  8
DETAIL
  6
CONTINUOUS
 62
     5
 10
-91.097104
 20
-769.009861
 30
0.0
 11
-90.16903
 21
-769.024051
 31
0.0
  0
LINE
  8
DETAIL
  6
CONTINUOUS
 62
     5
 10
-81.064874
 20
-764.115971
 30
0.0
 11
-83.602633
 21
-764.387596
 31
0.0
  0
LINE
  8
DETAIL
  6
CONTINUOUS
 62
     5
 10
-83.602633
 20
-764.387596
 30
0.0
 11
-85.946906
 21
-765.17538
 31
0.0
  0
LINE
  8
DETAIL
  6
CONTINUOUS
 62
     5
 10
-85.946906
 20
-765.17538
 30
0.0
 11
-87.92836
 21
-766.38368
 31
0.0
  0
LINE
  8
DETAIL
  6
CONTINUOUS
 62
     5
 10
-87.92836
 20
-766.38368
 30
0.0
 11
-89.52277
 21
-767.960806
 31
0.0
  0
LINE
  8
DETAIL
  6
CONTINUOUS
 62
     5
 10
-89.52277
 20
-767.960806
 30
0.0
 11
-90.644745
 21
-769.80671
 31
0.0
  0
LINE
  8
DETAIL
  6
CONTINUOUS
 62
     5
 10
-90.644745
 20
-769.80671
 30
0.0
 11
-91.231604
 21
-771.717088
 31
0.0
  0
LINE
  8
DETAIL
  6
CONTINUOUS
 62
     5
 10
-107.595065
 20
-760.329766
 30
0.0
 11
-114.444853
 21
-760.575675
 31
0.0
  0
LINE
  8
DETAIL
  6
CONTINUOUS
 62
     5
 10
-94.193262
 20
-772.105995
 30
0.0
 11
-91.300242
 21
-772.105995
 31
0.0
  0
LINE
  8
DETAIL
  6
CONTINUOUS
 62
     5
 10
-107.595021
 20
-760.329766
 30
0.0
 11
-106.35338
 21
-760.422043
 31
0.0
  0
LINE
  8
DETAIL
  6
CONTINUOUS
 62
     5
 10
-106.35338
 20
-760.422043
 30
0.0
 11
-105.215221
 21
-760.733055
 31
0.0
  0
LINE
  8
DETAIL
  6
CONTINUOUS
 62
     5
 10
-105.215221
 20
-760.733055
 30
0.0
 11
-104.207431
 21
-761.236051
 31
0.0
  0
LINE
  8
DETAIL
  6
CONTINUOUS
 62
     5
 10
-97.02396
 20
-766.788718
 30
0.0
 11
-95.814226
 21
-767.704962
 31
0.0
  0
LINE
  8
DETAIL
  6
CONTINUOUS
 62
     5
 10
-95.814226
 20
-767.704962
 30
0.0
 11
-94.392114
 21
-768.407493
 31
0.0
  0
LINE
  8
DETAIL
  6
CONTINUOUS
 62
     5
 10
-94.392114
 20
-768.407493
 30
0.0
 11
-92.805615
 21
-768.853548
 31
0.0
  0
LINE
  8
DETAIL
  6
CONTINUOUS
 62
     5
 10
-92.805615
 20
-768.853548
 30
0.0
 11
-91.097104
 21
-769.009861
 31
0.0
  0
LINE
  8
DETAIL
  6
CONTINUOUS
 62
     5
 10
-100.155482
 20
-764.109739
 30
0.0
 11
-101.268919
 21
-763.259463
 31
0.0
  0
LINE
  8
DETAIL
  6
CONTINUOUS
 62
     5
 10
-101.041404
 20
-763.433207
 30
0.0
 11
-101.496436
 21
-763.085721
 31
0.0
  0
LINE
  8
DETAIL
  6
CONTINUOUS
 62
     5
 10
-101.496436
 20
-763.085721
 30
0.0
 11
-102.848496
 21
-762.127637
 31
0.0
  0
LINE
  8
DETAIL
  6
CONTINUOUS
 62
     5
 10
-102.848496
 20
-762.127637
 30
0.0
 11
-104.207431
 21
-761.236051
 31
0.0
  0
LINE
  8
DETAIL
  6
CONTINUOUS
 62
     5
 10
-97.02396
 20
-766.788718
 30
0.0
 11
-98.570381
 21
-765.414705
 31
0.0
  0
LINE
  8
DETAIL
  6
CONTINUOUS
 62
     5
 10
-98.570381
 20
-765.414705
 30
0.0
 11
-100.155482
 21
-764.109739
 31
0.0
  0
LINE
  8
DETAIL
  6
CONTINUOUS
 62
     5
 10
-91.300242
 20
-772.105995
 30
0.0
 11
-91.231604
 21
-771.717088
 31
0.0
  0
LINE
  8
DETAIL
  6
CONTINUOUS
 62
     5
 10
-95.607956
 20
-773.577154
 30
0.0
 11
-97.834504
 21
-776.866543
 31
0.0
  0
LINE
  8
DETAIL
  6
CONTINUOUS
 62
     5
 10
-95.607956
 20
-773.577154
 30
0.0
 11
-94.819332
 21
-772.613078
 31
0.0
  0
LINE
  8
DETAIL
  6
CONTINUOUS
 62
     5
 10
-94.819332
 20
-772.613078
 30
0.0
 11
-93.797452
 21
-771.785411
 31
0.0
  0
LINE
  8
DETAIL
  6
CONTINUOUS
 62
     5
 10
-93.797452
 20
-771.785411
 30
0.0
 11
-92.592461
 21
-771.154954
 31
0.0
  0
LINE
  8
DETAIL
  6
CONTINUOUS
 62
     5
 10
-92.592461
 20
-771.154954
 30
0.0
 11
-91.225591
 21
-770.749656
 31
0.0
  0
LINE
  8
DETAIL
  6
CONTINUOUS
 62
     5
 10
-91.225591
 20
-770.749656
 30
0.0
 11
-90.925546
 21
-770.720792
 31
0.0
  0
LINE
  8
OUTLINE
  6
CONTINUOUS
 62
     3
 10
-392.033855
 20
-790.989086
 30
0.0
 11
-321.090763
 21
-794.736467
 31
0.0
  0
LINE
  8
DETAIL
  6
CONTINUOUS
 62
     5
 10
-392.033855
 20
-790.989086
 30
0.0
 11
-321.090763
 21
-794.736467
 31
0.0
  0
LINE
  8
OUTLINE
  6
CONTINUOUS
 62
     3
 10
-321.090763
 20
-794.736467
 30
0.0
 11
-249.823225
 21
-797.413801
 31
0.0
  0
LINE
  8
DETAIL
  6
CONTINUOUS
 62
     5
 10
-321.090763
 20
-794.736467
 30
0.0
 11
-249.823225
 21
-797.413801
 31
0.0
  0
LINE
  8
OUTLINE
  6
CONTINUOUS
 62
     3
 10
-407.941321
 20
-789.859397
 30
0.0
 11
-392.033855
 21
-790.989086
 31
0.0
  0
LINE
  8
DETAIL
  6
CONTINUOUS
 62
     5
 10
-407.941321
 20
-789.859397
 30
0.0
 11
-392.033855
 21
-790.989086
 31
0.0
  0
LINE
  8
OUTLINE
  6
CONTINUOUS
 62
     3
 10
-449.073317
 20
-783.168287
 30
0.0
 11
-448.095359
 21
-783.936396
 31
0.0
  0
LINE
  8
OUTLINE
  6
CONTINUOUS
 62
     3
 10
-449.40786
 20
-782.359848
 30
0.0
 11
-449.073317
 21
-783.168287
 31
0.0
  0
LINE
  8
OUTLINE
  6
CONTINUOUS
 62
     3
 10
-441.995906
 20
-786.157015
 30
0.0
 11
-439.151561
 21
-786.637184
 31
0.0
  0
LINE
  8
OUTLINE
  6
CONTINUOUS
 62
     3
 10
-423.656376
 20
-788.407945
 30
0.0
 11
-407.941321
 21
-789.859397
 31
0.0
  0
LINE
  8
OUTLINE
  6
CONTINUOUS
 62
     3
 10
-439.151561
 20
-786.637184
 30
0.0
 11
-423.656376
 21
-788.407945
 31
0.0
  0
LINE
  8
OUTLINE
  6
CONTINUOUS
 62
     3
 10
-448.095359
 20
-783.936396
 30
0.0
 11
-446.477075
 21
-784.648691
 31
0.0
  0
LINE
  8
OUTLINE
  6
CONTINUOUS
 62
     3
 10
-444.432576
 20
-785.49163
 30
0.0
 11
-441.995906
 21
-786.157015
 31
0.0
  0
LINE
  8
OUTLINE
  6
CONTINUOUS
 62
     3
 10
-446.477075
 20
-784.648691
 30
0.0
 11
-444.432576
 21
-785.49163
 31
0.0
  0
LINE
  8
OUTLINE
  6
CONTINUOUS
 62
     3
 10
-449.40786
 20
-781.588072
 30
0.0
 11
-449.40786
 21
-782.359848
 31
0.0
  0
LINE
  8
DETAIL
  6
CONTINUOUS
 62
     5
 10
-446.477075
 20
-784.648691
 30
0.0
 11
-444.432576
 21
-785.49163
 31
0.0
  0
LINE
  8
DETAIL
  6
CONTINUOUS
 62
     5
 10
-444.432576
 20
-785.49163
 30
0.0
 11
-441.995906
 21
-786.157015
 31
0.0
  0
LINE
  8
DETAIL
  6
CONTINUOUS
 62
     5
 10
-448.095359
 20
-783.936396
 30
0.0
 11
-446.477075
 21
-784.648691
 31
0.0
  0
LINE
  8
DETAIL
  6
CONTINUOUS
 62
     5
 10
-439.151561
 20
-786.637184
 30
0.0
 11
-423.656376
 21
-788.407945
 31
0.0
  0
LINE
  8
DETAIL
  6
CONTINUOUS
 62
     5
 10
-423.656376
 20
-788.407945
 30
0.0
 11
-407.941321
 21
-789.859397
 31
0.0
  0
LINE
  8
DETAIL
  6
CONTINUOUS
 62
     5
 10
-441.995906
 20
-786.157015
 30
0.0
 11
-439.151561
 21
-786.637184
 31
0.0
  0
LINE
  8
DETAIL
  6
CONTINUOUS
 62
     5
 10
-449.40786
 20
-782.359848
 30
0.0
 11
-449.073317
 21
-783.168287
 31
0.0
  0
LINE
  8
DETAIL
  6
CONTINUOUS
 62
     5
 10
-449.073317
 20
-783.168287
 30
0.0
 11
-448.095359
 21
-783.936396
 31
0.0
  0
LINE
  8
DETAIL
  6
CONTINUOUS
 62
     5
 10
-449.40786
 20
-781.588072
 30
0.0
 11
-449.40786
 21
-782.359848
 31
0.0
  0
LINE
  8
OUTLINE
  6
CONTINUOUS
 62
     3
 10
-405.876863
 20
-761.764267
 30
0.0
 11
-423.275012
 21
-763.182676
 31
0.0
  0
LINE
  8
DETAIL
  6
CONTINUOUS
 62
     5
 10
-405.876863
 20
-761.764267
 30
0.0
 11
-423.275012
 21
-763.182676
 31
0.0
  0
LINE
  8
OUTLINE
  6
CONTINUOUS
 62
     3
 10
-387.941644
 20
-760.90363
 30
0.0
 11
-405.876863
 21
-761.764267
 31
0.0
  0
LINE
  8
OUTLINE
  6
CONTINUOUS
 62
     3
 10
-369.735228
 20
-760.613516
 30
0.0
 11
-387.941644
 21
-760.90363
 31
0.0
  0
LINE
  8
DETAIL
  6
CONTINUOUS
 62
     5
 10
-369.735228
 20
-760.613516
 30
0.0
 11
-387.941644
 21
-760.90363
 31
0.0
  0
LINE
  8
DETAIL
  6
CONTINUOUS
 62
     5
 10
-387.941644
 20
-760.90363
 30
0.0
 11
-405.876863
 21
-761.764267
 31
0.0
  0
LINE
  8
OUTLINE
  6
CONTINUOUS
 62
     3
 10
-448.850903
 20
-770.063457
 30
0.0
 11
-449.429964
 21
-771.580683
 31
0.0
  0
LINE
  8
OUTLINE
  6
CONTINUOUS
 62
     3
 10
-447.129417
 20
-768.600723
 30
0.0
 11
-448.850903
 21
-770.063457
 31
0.0
  0
LINE
  8
OUTLINE
  6
CONTINUOUS
 62
     3
 10
-444.332461
 20
-767.253845
 30
0.0
 11
-447.129417
 21
-768.600723
 31
0.0
  0
LINE
  8
OUTLINE
  6
CONTINUOUS
 62
     3
 10
-440.56878
 20
-766.075197
 30
0.0
 11
-444.332461
 21
-767.253845
 31
0.0
  0
LINE
  8
OUTLINE
  6
CONTINUOUS
 62
     3
 10
-449.429964
 20
-771.580683
 30
0.0
 11
-449.429992
 21
-771.585181
 31
0.0
  0
LINE
  8
OUTLINE
  6
CONTINUOUS
 62
     3
 10
-435.340052
 20
-764.906911
 30
0.0
 11
-440.56878
 21
-766.075197
 31
0.0
  0
LINE
  8
OUTLINE
  6
CONTINUOUS
 62
     3
 10
-429.538464
 20
-763.936551
 30
0.0
 11
-435.340052
 21
-764.906911
 31
0.0
  0
LINE
  8
OUTLINE
  6
CONTINUOUS
 62
     3
 10
-423.275012
 20
-763.182676
 30
0.0
 11
-429.538464
 21
-763.936551
 31
0.0
  0
LINE
  8
DETAIL
  6
CONTINUOUS
 62
     5
 10
-423.275012
 20
-763.182676
 30
0.0
 11
-429.538464
 21
-763.936551
 31
0.0
  0
LINE
  8
DETAIL
  6
CONTINUOUS
 62
     5
 10
-429.538464
 20
-763.936551
 30
0.0
 11
-435.340052
 21
-764.906911
 31
0.0
  0
LINE
  8
DETAIL
  6
CONTINUOUS
 62
     5
 10
-435.340052
 20
-764.906911
 30
0.0
 11
-440.56878
 21
-766.075197
 31
0.0
  0
LINE
  8
DETAIL
  6
CONTINUOUS
 62
     5
 10
-449.429964
 20
-771.580683
 30
0.0
 11
-449.429992
 21
-771.585181
 31
0.0
  0
LINE
  8
DETAIL
  6
CONTINUOUS
 62
     5
 10
-440.56878
 20
-766.075197
 30
0.0
 11
-444.332461
 21
-767.253845
 31
0.0
  0
LINE
  8
DETAIL
  6
CONTINUOUS
 62
     5
 10
-444.332461
 20
-767.253845
 30
0.0
 11
-447.129417
 21
-768.600723
 31
0.0
  0
LINE
  8
DETAIL
  6
CONTINUOUS
 62
     5
 10
-447.129417
 20
-768.600723
 30
0.0
 11
-448.850903
 21
-770.063457
 31
0.0
  0
LINE
  8
DETAIL
  6
CONTINUOUS
 62
     5
 10
-448.850903
 20
-770.063457
 30
0.0
 11
-449.429964
 21
-771.580683
 31
0.0
  0
ENDSEC
  0
EOF
