  0
SECTION
  2
HEADER
  9
$ACADVER
  1
AC1009
  9
$INSBASE
 10
0.0
 20
0.0
 30
0.0
  9
$EXTMIN
 10
-421.18292400000001
 20
-290.20695599999999
 30
0.0
  9
$EXTMAX
 10
765.48468555159513
 20
529.57473747929828
 30
0.0
  9
$LIMMIN
 10
-2970.0
 20
-2100.0
  9
$LIMMAX
 10
2970.0
 20
2100.0
  9
$ORTHOMODE
 70
     1
  9
$REGENMODE
 70
     0
  9
$FILLMODE
 70
     1
  9
$QTEXTMODE
 70
     0
  9
$MIRRTEXT
 70
     0
  9
$DRAGMODE
 70
     2
  9
$LTSCALE
 40
20.0
  9
$OSMODE
 70
   171
  9
$ATTMODE
 70
     1
  9
$TEXTSIZE
 40
64.0
  9
$TRACEWID
 40
0.05
  9
$TEXTSTYLE
  7
STANDARD
  9
$CLAYER
  8
SIZE
  9
$CELTYPE
  6
CONTINUOUS
  9
$CECOLOR
 62
     8
  9
$DIMSCALE
 40
1.0
  9
$DIMASZ
 40
12.0
  9
$DIMEXO
 40
20.0
  9
$DIMDLI
 40
200.0
  9
$DIMRND
 40
0.0
  9
$DIMDLE
 40
0.0
  9
$DIMEXE
 40
20.0
  9
$DIMTP
 40
0.0
  9
$DIMTM
 40
0.0
  9
$DIMTXT
 40
64.0
  9
$DIMCEN
 40
0.09
  9
$DIMTSZ
 40
0.0
  9
$DIMTOL
 70
     0
  9
$DIMLIM
 70
     0
  9
$DIMTIH
 70
     0
  9
$DIMTOH
 70
     0
  9
$DIMSE1
 70
     0
  9
$DIMSE2
 70
     0
  9
$DIMTAD
 70
     1
  9
$DIMZIN
 70
     8
  9
$DIMBLK
  1
DOT1
  9
$DIMASO
 70
     1
  9
$DIMSHO
 70
     0
  9
$DIMPOST
  1

  9
$DIMAPOST
  1

  9
$DIMALT
 70
     0
  9
$DIMALTD
 70
     2
  9
$DIMALTF
 40
25.399999999999999
  9
$DIMLFAC
 40
1.0
  9
$DIMTOFL
 70
     1
  9
$DIMTVP
 40
0.0
  9
$DIMTIX
 70
     1
  9
$DIMSOXD
 70
     0
  9
$DIMSAH
 70
     1
  9
$DIMBLK1
  1
ORIGIN
  9
$DIMBLK2
  1
ORIGIN
  9
$DIMSTYLE
  2
STANDARD
  9
$DIMCLRD
 70
     0
  9
$DIMCLRE
 70
     0
  9
$DIMCLRT
 70
     0
  9
$DIMTFAC
 40
1.0
  9
$DIMGAP
 40
0.09
  9
$LUNITS
 70
     2
  9
$LUPREC
 70
     4
  9
$SKETCHINC
 40
0.1
  9
$FILLETRAD
 40
12.300000000000001
  9
$AUNITS
 70
     1
  9
$AUPREC
 70
     3
  9
$MENU
  1
ACAD
  9
$ELEVATION
 40
0.0
  9
$PELEVATION
 40
0.0
  9
$THICKNESS
 40
50.0
  9
$LIMCHECK
 70
     0
  9
$BLIPMODE
 70
     0
  9
$CHAMFERA
 40
0.0
  9
$CHAMFERB
 40
0.0
  9
$SKPOLY
 70
     0
  9
$TDCREATE
 40
2451453.4938508091
  9
$TDUPDATE
 40
2453761.6632371182
  9
$TDINDWG
 40
0.657990463
  9
$TDUSRTIMER
 40
0.657990463
  9
$USRTIMER
 70
     1
  9
$ANGBASE
 50
0.0
  9
$ANGDIR
 70
     0
  9
$PDMODE
 70
     3
  9
$PDSIZE
 40
-2.0
  9
$PLINEWID
 40
0.0
  9
$COORDS
 70
     2
  9
$SPLFRAME
 70
     0
  9
$SPLINETYPE
 70
     6
  9
$SPLINESEGS
 70
     8
  9
$ATTDIA
 70
     0
  9
$ATTREQ
 70
     1
  9
$HANDLING
 70
 22529
  9
$HANDSEED
  5
1AB
  9
$SURFTAB1
 70
     6
  9
$SURFTAB2
 70
     6
  9
$SURFTYPE
 70
     6
  9
$SURFU
 70
     6
  9
$SURFV
 70
     6
  9
$UCSNAME
  2

  9
$UCSORG
 10
0.0
 20
0.0
 30
0.0
  9
$UCSXDIR
 10
1.0
 20
0.0
 30
0.0
  9
$UCSYDIR
 10
0.0
 20
1.0
 30
0.0
  9
$PUCSNAME
  2

  9
$PUCSORG
 10
0.0
 20
0.0
 30
0.0
  9
$PUCSXDIR
 10
1.0
 20
0.0
 30
0.0
  9
$PUCSYDIR
 10
0.0
 20
1.0
 30
0.0
  9
$USERI1
 70
     0
  9
$USERI2
 70
     0
  9
$USERI3
 70
     0
  9
$USERI4
 70
     0
  9
$USERI5
 70
     0
  9
$USERR1
 40
20.0
  9
$USERR2
 40
0.0
  9
$USERR3
 40
0.0
  9
$USERR4
 40
0.0
  9
$USERR5
 40
0.0
  9
$WORLDVIEW
 70
     1
  9
$SHADEDGE
 70
     3
  9
$SHADEDIF
 70
    70
  9
$TILEMODE
 70
     1
  9
$MAXACTVP
 70
    64
  9
$PLIMCHECK
 70
     0
  9
$PEXTMIN
 10
1.0000000000000000E+020
 20
1.0000000000000000E+020
 30
1.0000000000000000E+020
  9
$PEXTMAX
 10
-1.0000000000000000E+020
 20
-1.0000000000000000E+020
 30
-1.0000000000000000E+020
  9
$PLIMMIN
 10
0.0
 20
0.0
  9
$PLIMMAX
 10
12.0
 20
9.0
  9
$UNITMODE
 70
     0
  9
$VISRETAIN
 70
     1
  9
$PLINEGEN
 70
     0
  9
$PSLTSCALE
 70
     1
  0
ENDSEC
  0
SECTION
  2
TABLES
  0
TABLE
  2
VPORT
 70
     3
  0
VPORT
  2
*ACTIVE
 70
     0
 10
0.0
 20
0.0
 11
1.0
 21
1.0
 12
47.18798606499854
 22
92.541654145418434
 13
0.0
 23
0.0
 14
1.0
 24
1.0
 15
0.0
 25
0.0
 16
0.0
 26
0.0
 36
1.0
 17
0.0
 27
0.0
 37
0.0
 40
1843.9533185777921
 41
1.4423558897243101
 42
50.0
 43
0.0
 44
0.0
 50
0.0
 51
0.0
 71
     0
 72
   100
 73
     1
 74
     0
 75
     0
 76
     0
 77
     0
 78
     0
  0
ENDTAB
  0
TABLE
  2
LTYPE
 70
     2
  0
LTYPE
  2
CONTINUOUS
 70
     0
  3
実線
 72
    65
 73
     0
 40
0.0
  0
LTYPE
  2
DASHDOT
 70
     0
  3
____ _ ____ _ ____ _ ____ _ ____ _ ____ _ ____
 72
    65
 73
     4
 40
5.5
 49
4.0
 49
-0.6
 49
0.3
 49
-0.6
  0
ENDTAB
  0
TABLE
  2
LAYER
 70
    12
  0
LAYER
  2
0
 70
     0
 62
     7
  6
CONTINUOUS
  0
LAYER
  2
SIZE
 70
     0
 62
    30
  6
CONTINUOUS
  0
LAYER
  2
BASIS
 70
     0
 62
     6
  6
DASHDOT
  0
LAYER
  2
OUTLINE
 70
     0
 62
     3
  6
CONTINUOUS
  0
LAYER
  2
DETAIL
 70
     0
 62
     5
  6
CONTINUOUS
  0
LAYER
  2
ARRANGE
 70
     0
 62
     1
  6
CONTINUOUS
  0
LAYER
  2
DEFPOINTS
 70
     0
 62
     7
  6
CONTINUOUS
  0
LAYER
  2
ETC
 70
     0
 62
    61
  6
CONTINUOUS
  0
LAYER
  2
NOTE
 70
     0
 62
     4
  6
CONTINUOUS
  0
LAYER
  2
FIX
 70
     0
 62
    11
  6
CONTINUOUS
  0
LAYER
  2
SERVICESPACE
 70
     0
 62
     2
  6
DASHDOT
  0
LAYER
  2
SYMBOLLINE
 70
     0
 62
    15
  6
CONTINUOUS
  0
ENDTAB
  0
TABLE
  2
STYLE
 70
     1
  0
STYLE
  2
STANDARD
 70
     0
 40
64.0
 41
0.9
 50
0.0
 71
     0
 42
64.0
  3
SIMPLEX.shx
  4
BIGFONT.shx
  0
ENDTAB
  0
TABLE
  2
VIEW
 70
     1
  0
VIEW
  2
ALL
 70
     0
 40
4282.6198079999986
 10
0.0
 20
41.309903999999989
 41
5940.0
 11
0.0
 21
0.0
 31
1.0
 12
0.0
 22
0.0
 32
0.0
 42
50.0
 43
0.0
 44
0.0
 50
0.0
 71
     0
  0
ENDTAB
  0
TABLE
  2
UCS
 70
     0
  0
ENDTAB
  0
TABLE
  2
APPID
 70
     1
  0
APPID
  2
ACAD
 70
     0
  0
ENDTAB
  0
TABLE
  2
DIMSTYLE
 70
     1
  0
DIMSTYLE
  2
STANDARD
 70
     0
  3

  4

  5

  6

  7

 40
1.0
 41
0.18
 42
0.0625
 43
0.38
 44
0.18
 45
0.0
 46
0.0
 47
0.0
 48
0.0
140
0.18
141
0.09
142
0.0
143
25.399999999999999
144
1.0
145
0.0
146
1.0
147
0.09
 71
     0
 72
     0
 73
     1
 74
     1
 75
     0
 76
     0
 77
     0
 78
     0
170
     0
171
     2
172
     0
173
     0
174
     0
175
     0
176
     0
177
     0
178
     0
  0
ENDTAB
  0
ENDSEC
  0
SECTION
  2
BLOCKS
  0
BLOCK
  8
0
  2
$MODEL_SPACE
 70
     0
 10
0.0
 20
0.0
 30
0.0
  3
$MODEL_SPACE
  1

  0
ENDBLK
  5
20
  8
0
  0
BLOCK
 67
     1
  8
0
  2
$PAPER_SPACE
 70
     0
 10
0.0
 20
0.0
 30
0.0
  3
$PAPER_SPACE
  1

  0
ENDBLK
  5
1C
 67
     1
  8
0
  0
BLOCK
  8
0
  2
DOT1
 70
     0
 10
0.0
 20
0.0
 30
0.0
  3
DOT1
  1

  0
CIRCLE
  5
34
  8
SIZE
  6
CONTINUOUS
 62
     7
 10
0.0
 20
0.0
 30
0.0
 40
3.0
  0
ENDBLK
  5
35
  8
0
  0
BLOCK
  8
0
  2
_ORIGIN
 70
     0
 10
0.0
 20
0.0
 30
0.0
  3
_ORIGIN
  1

  0
CIRCLE
  5
38
  8
0
  6
CONTINUOUS
 62
     7
 10
0.0
 20
0.0
 30
0.0
 40
0.5
  0
LINE
  5
39
  8
0
  6
CONTINUOUS
 62
     7
 10
0.0
 20
0.0
 30
0.0
 11
-1.0
 21
0.0
 31
0.0
  0
ENDBLK
  5
3A
  8
0
  0
ENDSEC
  0
SECTION
  2
ENTITIES
  0
LINE
  5
3D
  8
BASIS
  6
DASHDOT
 62
     6
 10
0.0
 20
229.19339299999999
 30
0.0
 11
0.0
 21
-221.02624800000001
 31
0.0
  0
POINT
  5
3E
  8
ARRANGE
  6
CONTINUOUS
 62
     1
 10
0.0
 20
0.0
 30
0.0
  0
LINE
  5
3F
  8
BASIS
  6
DASHDOT
 62
     6
 10
-226.49596
 20
0.0
 30
0.0
 11
228.06898799999999
 21
0.0
 31
0.0
  0
LINE
  5
40
  8
DETAIL
  6
CONTINUOUS
 62
     5
 10
-164.0
 20
176.0
 30
0.0
 11
164.0
 21
176.0
 31
0.0
  0
LINE
  5
41
  8
DETAIL
  6
CONTINUOUS
 62
     5
 10
-164.0
 20
-186.0
 30
0.0
 11
164.0
 21
-186.0
 31
0.0
  0
LINE
  5
42
  8
DETAIL
  6
CONTINUOUS
 62
     5
 10
176.0
 20
164.0
 30
0.0
 11
176.0
 21
-174.0
 31
0.0
  0
LINE
  5
43
  8
DETAIL
  6
CONTINUOUS
 62
     5
 10
-176.0
 20
164.0
 30
0.0
 11
-176.0
 21
-174.0
 31
0.0
  0
LINE
  5
44
  8
DETAIL
  6
CONTINUOUS
 62
     5
 10
-170.0
 20
162.0
 30
0.0
 11
-170.0
 21
-172.0
 31
0.0
  0
LINE
  5
45
  8
DETAIL
  6
CONTINUOUS
 62
     5
 10
-162.0
 20
170.0
 30
0.0
 11
162.0
 21
170.0
 31
0.0
  0
LINE
  5
46
  8
DETAIL
  6
CONTINUOUS
 62
     5
 10
170.0
 20
162.0
 30
0.0
 11
170.0
 21
-172.0
 31
0.0
  0
LINE
  5
47
  8
DETAIL
  6
CONTINUOUS
 62
     5
 10
-162.0
 20
-180.0
 30
0.0
 11
162.0
 21
-180.0
 31
0.0
  0
LINE
  5
48
  8
SIZE
  6
CONTINUOUS
 62
    30
 10
176.0
 20
184.0
 30
0.0
 11
176.0
 21
355.20351099999988
 31
0.0
  0
LINE
  5
49
  8
SIZE
  6
CONTINUOUS
 62
    30
 10
-176.0
 20
184.0
 30
0.0
 11
-176.0
 21
355.20351099999988
 31
0.0
  0
LINE
  5
4A
  8
SIZE
  6
CONTINUOUS
 62
    30
 10
164.0
 20
335.20351099999999
 30
0.0
 11
-164.0
 21
335.20351099999999
 31
0.0
  0
CIRCLE
  5
4B
  8
SIZE
  6
CONTINUOUS
 62
    30
 10
176.0
 20
335.20351099999999
 30
0.0
 40
6.0
  0
LINE
  5
4C
  8
SIZE
  6
CONTINUOUS
 62
    30
 10
176.0
 20
335.20351099999999
 30
0.0
 11
164.0
 21
335.20351099999999
 31
0.0
  0
CIRCLE
  5
4D
  8
SIZE
  6
CONTINUOUS
 62
    30
 10
-176.0
 20
335.20351099999999
 30
0.0
 40
6.0
  0
LINE
  5
4E
  8
SIZE
  6
CONTINUOUS
 62
    30
 10
-176.0
 20
335.20351099999999
 30
0.0
 11
-164.0
 21
335.20351099999999
 31
0.0
  0
TEXT
  5
4F
  8
SIZE
  6
CONTINUOUS
 62
    30
 10
-74.057142857142836
 20
360.20351099999999
 30
0.0
 40
64.0
  1
352
 41
0.9
 72
     1
 11
0.0
 21
360.20351099999999
 31
0.0
  0
POINT
  5
50
  8
DEFPOINTS
  6
CONTINUOUS
 62
    30
 10
176.0
 20
164.0
 30
0.0
  0
POINT
  5
51
  8
DEFPOINTS
  6
CONTINUOUS
 62
    30
 10
-176.0
 20
164.0
 30
0.0
  0
POINT
  5
52
  8
DEFPOINTS
  6
CONTINUOUS
 62
    30
 10
-176.0
 20
335.20351099999999
 30
0.0
  0
LINE
  5
53
  8
NOTE
  6
CONTINUOUS
 62
     4
 10
-176.0
 20
-170.0
 30
0.0
 11
-176.0
 21
-130.0
 31
0.0
  0
LINE
  5
54
  8
NOTE
  6
CONTINUOUS
 62
     4
 10
-196.0
 20
-150.0
 30
0.0
 11
-156.0
 21
-150.0
 31
0.0
  0
LINE
  5
55
  8
NOTE
  6
CONTINUOUS
 62
     4
 10
-378.05636600000003
 20
-290.20695599999999
 30
0.0
 11
-254.87661800000001
 21
-290.20695599999999
 31
0.0
  0
TEXT
  5
56
  8
NOTE
  6
CONTINUOUS
 62
     4
 10
-354.90370799999999
 20
-262.7800049999999
 30
0.0
 40
64.0
  1
EL
 41
0.9
  0
LINE
  5
57
  8
SIZE
  6
CONTINUOUS
 62
    30
 10
184.0
 20
176.0
 30
0.0
 11
376.65683300000001
 21
176.0
 31
0.0
  0
LINE
  5
58
  8
SIZE
  6
CONTINUOUS
 62
    30
 10
248.06898799999991
 20
0.0
 30
0.0
 11
376.65683300000001
 21
0.0
 31
0.0
  0
LINE
  5
59
  8
SIZE
  6
CONTINUOUS
 62
    30
 10
356.65683299999989
 20
164.0
 30
0.0
 11
356.65683299999989
 21
12.0
 31
0.0
  0
TEXT
  5
5A
  8
SIZE
  6
CONTINUOUS
 62
    30
 10
331.65683299999989
 20
20.79999999999999
 30
0.0
 40
64.0
  1
176
 50
90.0
 41
0.9
 72
     1
 11
331.65683299999989
 21
88.0
 31
0.0
  0
CIRCLE
  5
5B
  8
SIZE
  6
CONTINUOUS
 62
    30
 10
356.65683299999989
 20
176.0
 30
0.0
 40
6.0
  0
LINE
  5
5C
  8
SIZE
  6
CONTINUOUS
 62
    30
 10
356.65683299999989
 20
176.0
 30
0.0
 11
356.65683299999989
 21
164.0
 31
0.0
  0
CIRCLE
  5
5D
  8
SIZE
  6
CONTINUOUS
 62
    30
 10
356.65683299999989
 20
0.0
 30
0.0
 40
6.0
  0
LINE
  5
5E
  8
SIZE
  6
CONTINUOUS
 62
    30
 10
356.65683299999989
 20
0.0
 30
0.0
 11
356.65683299999989
 21
12.0
 31
0.0
  0
POINT
  5
5F
  8
DEFPOINTS
  6
CONTINUOUS
 62
    30
 10
164.0
 20
176.0
 30
0.0
  0
POINT
  5
60
  8
DEFPOINTS
  6
CONTINUOUS
 62
    30
 10
228.06898799999999
 20
0.0
 30
0.0
  0
POINT
  5
61
  8
DEFPOINTS
  6
CONTINUOUS
 62
    30
 10
356.65683299999989
 20
0.0
 30
0.0
  0
LINE
  5
62
  8
SIZE
  6
CONTINUOUS
 62
    30
 10
248.06898799999991
 20
0.0
 30
0.0
 11
376.65683300000001
 21
0.0
 31
0.0
  0
LINE
  5
63
  8
SIZE
  6
CONTINUOUS
 62
    30
 10
184.0
 20
-186.0
 30
0.0
 11
376.65683300000001
 21
-186.0
 31
0.0
  0
LINE
  5
64
  8
SIZE
  6
CONTINUOUS
 62
    30
 10
356.65683299999989
 20
-12.0
 30
0.0
 11
356.65683299999989
 21
-174.0
 31
0.0
  0
CIRCLE
  5
65
  8
SIZE
  6
CONTINUOUS
 62
    30
 10
356.65683299999989
 20
0.0
 30
0.0
 40
6.0
  0
LINE
  5
66
  8
SIZE
  6
CONTINUOUS
 62
    30
 10
356.65683299999989
 20
0.0
 30
0.0
 11
356.65683299999989
 21
-12.0
 31
0.0
  0
CIRCLE
  5
67
  8
SIZE
  6
CONTINUOUS
 62
    30
 10
356.65683299999989
 20
-186.0
 30
0.0
 40
6.0
  0
LINE
  5
68
  8
SIZE
  6
CONTINUOUS
 62
    30
 10
356.65683299999989
 20
-186.0
 30
0.0
 11
356.65683299999989
 21
-174.0
 31
0.0
  0
TEXT
  5
69
  8
SIZE
  6
CONTINUOUS
 62
    30
 10
331.65683299999989
 20
-160.1999999999999
 30
0.0
 40
64.0
  1
186
 50
90.0
 41
0.9
 72
     1
 11
331.65683299999989
 21
-93.0
 31
0.0
  0
POINT
  5
6A
  8
DEFPOINTS
  6
CONTINUOUS
 62
    30
 10
228.06898799999999
 20
0.0
 30
0.0
  0
POINT
  5
6B
  8
DEFPOINTS
  6
CONTINUOUS
 62
    30
 10
164.0
 20
-186.0
 30
0.0
  0
POINT
  5
6C
  8
DEFPOINTS
  6
CONTINUOUS
 62
    30
 10
356.65683299999989
 20
-186.0
 30
0.0
  0
LINE
  5
6D
  8
SIZE
  6
CONTINUOUS
 62
    30
 10
184.0
 20
176.0
 30
0.0
 11
520.01211899999987
 21
176.0
 31
0.0
  0
LINE
  5
6E
  8
SIZE
  6
CONTINUOUS
 62
    30
 10
184.0
 20
-186.0
 30
0.0
 11
520.01211899999987
 21
-186.0
 31
0.0
  0
LINE
  5
6F
  8
SIZE
  6
CONTINUOUS
 62
    30
 10
500.01211899999998
 20
164.0
 30
0.0
 11
500.01211899999998
 21
-174.0
 31
0.0
  0
CIRCLE
  5
70
  8
SIZE
  6
CONTINUOUS
 62
    30
 10
500.01211899999998
 20
176.0
 30
0.0
 40
6.0
  0
LINE
  5
71
  8
SIZE
  6
CONTINUOUS
 62
    30
 10
500.01211899999998
 20
176.0
 30
0.0
 11
500.01211899999998
 21
164.0
 31
0.0
  0
CIRCLE
  5
72
  8
SIZE
  6
CONTINUOUS
 62
    30
 10
500.01211899999998
 20
-186.0
 30
0.0
 40
6.0
  0
LINE
  5
73
  8
SIZE
  6
CONTINUOUS
 62
    30
 10
500.01211899999998
 20
-186.0
 30
0.0
 11
500.01211899999998
 21
-174.0
 31
0.0
  0
TEXT
  5
74
  8
SIZE
  6
CONTINUOUS
 62
    30
 10
475.01211899999998
 20
-79.057142857142836
 30
0.0
 40
64.0
  1
362
 50
90.0
 41
0.9
 72
     1
 11
475.01211899999998
 21
-5.0
 31
0.0
  0
POINT
  5
75
  8
DEFPOINTS
  6
CONTINUOUS
 62
    30
 10
164.0
 20
176.0
 30
0.0
  0
POINT
  5
76
  8
DEFPOINTS
  6
CONTINUOUS
 62
    30
 10
164.0
 20
-186.0
 30
0.0
  0
POINT
  5
77
  8
DEFPOINTS
  6
CONTINUOUS
 62
    30
 10
500.01211899999998
 20
-186.0
 30
0.0
  0
LINE
  5
78
  8
SIZE
  6
CONTINUOUS
 62
    30
 10
-246.49595999999991
 20
0.0
 30
0.0
 11
-320.61378400000001
 21
0.0
 31
0.0
  0
LINE
  5
79
  8
SIZE
  6
CONTINUOUS
 62
    30
 10
-216.0
 20
-150.0
 30
0.0
 11
-320.61378400000001
 21
-150.0
 31
0.0
  0
LINE
  5
7A
  8
SIZE
  6
CONTINUOUS
 62
    30
 10
-300.61378400000001
 20
-12.0
 30
0.0
 11
-300.61378400000001
 21
-138.0
 31
0.0
  0
TEXT
  5
7B
  8
SIZE
  6
CONTINUOUS
 62
    30
 10
-325.61378400000001
 20
-143.5714285714285
 30
0.0
 40
64.0
  1
150
 50
90.0
 41
0.9
 72
     1
 11
-325.61378400000001
 21
-75.0
 31
0.0
  0
CIRCLE
  5
7C
  8
SIZE
  6
CONTINUOUS
 62
    30
 10
-300.61378400000001
 20
0.0
 30
0.0
 40
6.0
  0
LINE
  5
7D
  8
SIZE
  6
CONTINUOUS
 62
    30
 10
-300.61378400000001
 20
0.0
 30
0.0
 11
-300.61378400000001
 21
-12.0
 31
0.0
  0
CIRCLE
  5
7E
  8
SIZE
  6
CONTINUOUS
 62
    30
 10
-300.61378400000001
 20
-150.0
 30
0.0
 40
6.0
  0
LINE
  5
7F
  8
SIZE
  6
CONTINUOUS
 62
    30
 10
-300.61378400000001
 20
-150.0
 30
0.0
 11
-300.61378400000001
 21
-138.0
 31
0.0
  0
POINT
  5
80
  8
DEFPOINTS
  6
CONTINUOUS
 62
    30
 10
-226.49596
 20
0.0
 30
0.0
  0
POINT
  5
81
  8
DEFPOINTS
  6
CONTINUOUS
 62
    30
 10
-196.0
 20
-150.0
 30
0.0
  0
POINT
  5
82
  8
DEFPOINTS
  6
CONTINUOUS
 62
    30
 10
-300.61378400000001
 20
-150.0
 30
0.0
  0
LINE
  5
83
  8
NOTE
  6
CONTINUOUS
 62
     4
 10
-254.87661800000001
 20
-290.20695599999999
 30
0.0
 11
-176.0
 21
-150.0
 31
0.0
  0
LINE
  5
84
  8
NOTE
  6
CONTINUOUS
 62
     4
 10
-185.97108299999999
 20
-188.73728799999989
 30
0.0
 11
-176.0
 21
-150.0
 31
0.0
  0
LINE
  5
85
  8
NOTE
  6
CONTINUOUS
 62
     4
 10
-176.0
 20
-150.0
 30
0.0
 11
-204.00385600000001
 21
-178.56193400000001
 31
0.0
  0
CIRCLE
  5
86
  8
ARRANGE
  6
CONTINUOUS
 62
     1
 10
0.0
 20
0.0
 30
0.0
 40
40.0
  0
ARC
  5
D5
  8
DETAIL
  6
CONTINUOUS
 62
     5
 10
0.0
 20
0.0
 30
0.0
 40
153.6917629999999
 50
0.0
 51
180.0
  0
ARC
  5
D6
  8
DETAIL
  6
CONTINUOUS
 62
     5
 10
0.0
 20
0.0
 30
0.0
 40
157.79021
 50
0.0
 51
180.0
  0
LINE
  5
D7
  8
DETAIL
  6
CONTINUOUS
 62
     5
 10
55.32903499999999
 20
-160.28022200000001
 30
0.0
 11
49.181364000000002
 21
-160.28022200000001
 31
0.0
  0
LINE
  5
D8
  8
DETAIL
  6
CONTINUOUS
 62
     5
 10
55.32903499999999
 20
-169.95108500000001
 30
0.0
 11
55.32903499999999
 21
-160.28022200000001
 31
0.0
  0
ARC
  5
D9
  8
DETAIL
  6
CONTINUOUS
 62
     5
 10
65.575152000000003
 20
-169.95108500000001
 30
0.0
 40
10.24611799999999
 50
180.0
 51
258.74064199999992
  0
ARC
  5
DA
  8
DETAIL
  6
CONTINUOUS
 62
     5
 10
-65.575152000000003
 20
-169.95108500000001
 30
0.0
 40
10.24611799999999
 50
281.25935800000002
 51
0.0
  0
LINE
  5
DB
  8
DETAIL
  6
CONTINUOUS
 62
     5
 10
-55.32903499999999
 20
-160.28022200000001
 30
0.0
 11
-49.181364000000002
 21
-160.28022200000001
 31
0.0
  0
LINE
  5
DC
  8
DETAIL
  6
CONTINUOUS
 62
     5
 10
49.181364000000002
 20
-160.28022200000001
 30
0.0
 11
0.0
 21
-160.28022200000001
 31
0.0
  0
LINE
  5
DD
  8
DETAIL
  6
CONTINUOUS
 62
     5
 10
49.181364000000002
 20
-156.1817749999999
 30
0.0
 11
0.0
 21
-156.1817749999999
 31
0.0
  0
LINE
  5
DE
  8
DETAIL
  6
CONTINUOUS
 62
     5
 10
49.181364000000002
 20
-176.6740099999999
 30
0.0
 11
49.181364000000002
 21
-156.1817749999999
 31
0.0
  0
LINE
  5
DF
  8
DETAIL
  6
CONTINUOUS
 62
     5
 10
-49.181364000000002
 20
-156.1817749999999
 30
0.0
 11
0.0
 21
-156.1817749999999
 31
0.0
  0
LINE
  5
E0
  8
DETAIL
  6
CONTINUOUS
 62
     5
 10
-49.181364000000002
 20
-160.28022200000001
 30
0.0
 11
0.0
 21
-160.28022200000001
 31
0.0
  0
LINE
  5
E1
  8
DETAIL
  6
CONTINUOUS
 62
     5
 10
-55.32903499999999
 20
-169.95108500000001
 30
0.0
 11
-55.32903499999999
 21
-160.28022200000001
 31
0.0
  0
LINE
  5
E2
  8
DETAIL
  6
CONTINUOUS
 62
     5
 10
49.181364000000002
 20
-176.6740099999999
 30
0.0
 11
0.0
 21
-176.6740099999999
 31
0.0
  0
LINE
  5
E3
  8
DETAIL
  6
CONTINUOUS
 62
     5
 10
-49.181364000000002
 20
-176.6740099999999
 30
0.0
 11
0.0
 21
-176.6740099999999
 31
0.0
  0
LINE
  5
E4
  8
DETAIL
  6
CONTINUOUS
 62
     5
 10
-49.181364000000002
 20
-176.6740099999999
 30
0.0
 11
-49.181364000000002
 21
-156.1817749999999
 31
0.0
  0
LINE
  5
E5
  8
DETAIL
  6
CONTINUOUS
 62
     5
 10
-38.303150000000002
 20
-183.84629199999989
 30
0.0
 11
0.0
 21
-183.84629199999989
 31
0.0
  0
LINE
  5
E6
  8
DETAIL
  6
CONTINUOUS
 62
     5
 10
38.303150000000002
 20
-183.84629199999989
 30
0.0
 11
0.0
 21
-183.84629199999989
 31
0.0
  0
ARC
  5
E7
  8
DETAIL
  6
CONTINUOUS
 62
     5
 10
0.0
 20
0.0
 30
0.0
 40
161.88865699999991
 50
0.0
 51
180.0
  0
CIRCLE
  5
E8
  8
DETAIL
  6
CONTINUOUS
 62
     5
 10
0.0
 20
0.0
 30
0.0
 40
131.15030400000001
  0
CIRCLE
  5
E9
  8
DETAIL
  6
CONTINUOUS
 62
     5
 10
0.0
 20
0.0
 30
0.0
 40
25.615293999999992
  0
CIRCLE
  5
EA
  8
DETAIL
  6
CONTINUOUS
 62
     5
 10
0.0
 20
0.0
 30
0.0
 40
45.082917000000002
  0
ARC
  5
EB
  8
DETAIL
  6
CONTINUOUS
 62
     5
 10
29.203748999999998
 20
94.519960999999995
 30
0.0
 40
75.309381999999999
 50
175.8701879999999
 51
227.12518799999989
  0
ARC
  5
EC
  8
DETAIL
  6
CONTINUOUS
 62
     5
 10
173.3559699999999
 20
-6.6297399999999991
 30
0.0
 40
161.18581399999999
 50
139.90134299999991
 51
162.906656
  0
ARC
  5
ED
  8
DETAIL
  6
CONTINUOUS
 62
     5
 10
98.918280000000024
 20
1.4338589999999991
 30
0.0
 40
75.309381999999999
 50
95.688457999999997
 51
155.12518799999989
  0
ARC
  5
EE
  8
DETAIL
  6
CONTINUOUS
 62
     5
 10
31.93111
 20
-93.633787999999996
 30
0.0
 40
75.309381999999999
 50
23.688458000000001
 51
83.125187999999994
  0
ARC
  5
EF
  8
DETAIL
  6
CONTINUOUS
 62
     5
 10
-79.183768999999998
 20
-59.302722000000003
 30
0.0
 40
75.309381999999999
 50
319.87018799999993
 51
11.125187999999991
  0
ARC
  5
F0
  8
DETAIL
  6
CONTINUOUS
 62
     5
 10
-80.869369999999975
 20
56.982689999999998
 30
0.0
 40
75.309381999999999
 50
247.87018800000001
 51
299.12518799999998
  0
ARC
  5
F1
  8
DETAIL
  6
CONTINUOUS
 62
     5
 10
59.875197999999997
 20
162.82262199999991
 30
0.0
 40
161.18581399999999
 50
211.90134299999991
 51
234.906656
  0
ARC
  5
F2
  8
DETAIL
  6
CONTINUOUS
 62
     5
 10
47.264682999999998
 20
-166.920027
 30
0.0
 40
161.18581399999999
 50
73.539699999999996
 51
90.906656000000012
  0
ARC
  5
F3
  8
DETAIL
  6
CONTINUOUS
 62
     5
 10
-144.144789
 20
-96.532510000000002
 30
0.0
 40
161.18581399999999
 50
1.5397000000000001
 51
18.906656000000002
  0
ARC
  5
F4
  8
DETAIL
  6
CONTINUOUS
 62
     5
 10
-136.35106200000001
 20
107.259655
 30
0.0
 40
161.18581399999999
 50
283.90134299999988
 51
306.90665599999988
  0
LINE
  5
F5
  8
DETAIL
  6
CONTINUOUS
 62
     5
 10
31.754004999999999
 20
-180.77245699999989
 30
0.0
 11
0.0
 21
-180.77245699999989
 31
0.0
  0
LINE
  5
F6
  8
DETAIL
  6
CONTINUOUS
 62
     5
 10
-31.754004999999999
 20
-180.77245699999989
 30
0.0
 11
0.0
 21
-180.77245699999989
 31
0.0
  0
ARC
  5
F7
  8
DETAIL
  6
CONTINUOUS
 62
     5
 10
31.754004999999999
 20
-189.28621200000001
 30
0.0
 40
8.5137549999999997
 50
22.668265000000002
 51
90.0
  0
ARC
  5
F8
  8
DETAIL
  6
CONTINUOUS
 62
     5
 10
-31.754004999999999
 20
-189.28621200000001
 30
0.0
 40
8.5137549999999997
 50
90.0
 51
157.33173500000001
  0
ARC
  5
F9
  8
DETAIL
  6
CONTINUOUS
 62
     5
 10
-164.0
 20
164.0
 30
0.0
 40
12.0
 50
90.0
 51
180.0
  0
ARC
  5
FA
  8
DETAIL
  6
CONTINUOUS
 62
     5
 10
-162.0
 20
162.0
 30
0.0
 40
8.0
 50
90.0
 51
180.0
  0
ARC
  5
FB
  8
DETAIL
  6
CONTINUOUS
 62
     5
 10
162.0
 20
162.0
 30
0.0
 40
8.0
 50
0.0
 51
90.0
  0
ARC
  5
FC
  8
DETAIL
  6
CONTINUOUS
 62
     5
 10
164.0
 20
164.0
 30
0.0
 40
12.0
 50
0.0
 51
90.0
  0
ARC
  5
FD
  8
DETAIL
  6
CONTINUOUS
 62
     5
 10
-162.0
 20
-172.0
 30
0.0
 40
8.0
 50
180.0
 51
270.0
  0
ARC
  5
FE
  8
DETAIL
  6
CONTINUOUS
 62
     5
 10
-164.0
 20
-174.0
 30
0.0
 40
12.0
 50
180.0
 51
270.0
  0
ARC
  5
FF
  8
DETAIL
  6
CONTINUOUS
 62
     5
 10
164.0
 20
-174.0
 30
0.0
 40
12.0
 50
270.0
 51
0.0
  0
ARC
  5
100
  8
DETAIL
  6
CONTINUOUS
 62
     5
 10
162.0
 20
-172.0
 30
0.0
 40
8.0
 50
270.0
 51
0.0
  0
ARC
  5
101
  8
DETAIL
  6
CONTINUOUS
 62
     5
 10
0.0
 20
0.0
 30
0.0
 40
125.0
 50
140.85710800000001
 51
174.337434
  0
ARC
  5
102
  8
DETAIL
  6
CONTINUOUS
 62
     5
 10
0.0
 20
0.0
 30
0.0
 40
125.0
 50
212.8571079999999
 51
246.33743399999989
  0
ARC
  5
103
  8
DETAIL
  6
CONTINUOUS
 62
     5
 10
0.0
 20
0.0
 30
0.0
 40
125.0
 50
294.37307599999991
 51
322.68463600000001
  0
ARC
  5
104
  8
DETAIL
  6
CONTINUOUS
 62
     5
 10
0.0
 20
0.0
 30
0.0
 40
125.0
 50
6.3730760000000011
 51
34.68463599999999
  0
ARC
  5
105
  8
DETAIL
  6
CONTINUOUS
 62
     5
 10
0.0
 20
0.0
 30
0.0
 40
125.0
 50
68.857107999999997
 51
102.3374339999999
  0
ARC
  5
106
  8
DETAIL
  6
CONTINUOUS
 62
     5
 10
-21.47370299999999
 20
98.179070999999993
 30
0.0
 40
24.5
 50
102.3374339999999
 51
175.8701879999999
  0
ARC
  5
107
  8
DETAIL
  6
CONTINUOUS
 62
     5
 10
-100.009585
 20
9.9162960000000009
 30
0.0
 40
24.5
 50
174.337434
 51
247.87018800000001
  0
ARC
  5
108
  8
DETAIL
  6
CONTINUOUS
 62
     5
 10
-40.335619000000001
 20
-92.050462999999993
 30
0.0
 40
24.5
 50
246.33743399999989
 51
319.87018799999993
  0
ARC
  5
109
  8
DETAIL
  6
CONTINUOUS
 62
     5
 10
41.473981999999999
 20
-91.543206999999995
 30
0.0
 40
24.5
 50
181.53970000000001
 51
294.37307599999991
  0
ARC
  5
10A
  8
DETAIL
  6
CONTINUOUS
 62
     5
 10
99.878928999999999
 20
11.155694
 30
0.0
 40
24.5
 50
253.53970000000001
 51
6.3730760000000011
  0
ARC
  5
10B
  8
DETAIL
  6
CONTINUOUS
 62
     5
 10
40.650339000000002
 20
105.113462
 30
0.0
 40
12.300000000000001
 50
319.90134299999988
 51
68.857107999999997
  0
ARC
  5
10C
  8
DETAIL
  6
CONTINUOUS
 62
     5
 10
-87.407196999999996
 20
71.142616000000004
 30
0.0
 40
12.300000000000001
 50
31.901343000000001
 51
140.85710800000001
  0
ARC
  5
10D
  8
DETAIL
  6
CONTINUOUS
 62
     5
 10
-94.670957999999999
 20
-61.144907000000003
 30
0.0
 40
12.300000000000001
 50
103.901343
 51
212.8571079999999
  0
ARC
  5
10E
  8
DETAIL
  6
CONTINUOUS
 62
     5
 10
89.631544999999988
 20
-68.318929999999995
 30
0.0
 40
12.300000000000001
 50
322.68463600000001
 51
23.688458000000001
  0
ARC
  5
10F
  8
DETAIL
  6
CONTINUOUS
 62
     5
 10
92.672833999999995
 20
64.132953999999984
 30
0.0
 40
12.300000000000001
 50
34.68463599999999
 51
95.688457999999997
  0
LINE
  5
110
  8
OUTLINE
  6
CONTINUOUS
 62
     3
 10
-164.0
 20
176.0
 30
0.0
 11
164.0
 21
176.0
 31
0.0
  0
ARC
  5
111
  8
OUTLINE
  6
CONTINUOUS
 62
     3
 10
-164.0
 20
164.0
 30
0.0
 40
12.0
 50
90.0
 51
180.0
  0
LINE
  5
112
  8
OUTLINE
  6
CONTINUOUS
 62
     3
 10
-176.0
 20
164.0
 30
0.0
 11
-176.0
 21
-174.0
 31
0.0
  0
ARC
  5
113
  8
OUTLINE
  6
CONTINUOUS
 62
     3
 10
-164.0
 20
-174.0
 30
0.0
 40
12.0
 50
180.0
 51
270.0
  0
LINE
  5
114
  8
OUTLINE
  6
CONTINUOUS
 62
     3
 10
-164.0
 20
-186.0
 30
0.0
 11
164.0
 21
-186.0
 31
0.0
  0
ARC
  5
115
  8
OUTLINE
  6
CONTINUOUS
 62
     3
 10
164.0
 20
-174.0
 30
0.0
 40
12.0
 50
270.0
 51
0.0
  0
LINE
  5
116
  8
OUTLINE
  6
CONTINUOUS
 62
     3
 10
176.0
 20
164.0
 30
0.0
 11
176.0
 21
-174.0
 31
0.0
  0
ARC
  5
117
  8
OUTLINE
  6
CONTINUOUS
 62
     3
 10
164.0
 20
164.0
 30
0.0
 40
12.0
 50
0.0
 51
90.0
  0
LINE
  5
118
  8
SIZE
  6
CONTINUOUS
 62
    30
 10
-421.18292400000001
 20
320.11303199999992
 30
0.0
 11
-109.072473
 21
82.898706999999987
 31
0.0
  0
LINE
  5
119
  8
SIZE
  6
CONTINUOUS
 62
    30
 10
109.072473
 20
-82.898706999999987
 30
0.0
 11
118.6262659999999
 21
-90.159908000000001
 31
0.0
  0
TEXT
  5
11A
  8
SIZE
  6
CONTINUOUS
 62
    30
 10
-397.50704112321381
 20
333.51974693488791
 30
0.0
 40
64.0
  1
φ250
 50
322.76394499999998
 41
0.9
 72
     1
 11
-306.4457589999999
 21
264.31011099999989
 31
0.0
  0
LINE
  5
11B
  8
SIZE
  6
CONTINUOUS
 62
    30
 10
99.518680000000003
 20
-75.637506999999985
 30
0.0
 11
-99.518680000000003
 21
75.637506999999985
 31
0.0
  0
CIRCLE
  5
11C
  8
SIZE
  6
CONTINUOUS
 62
    30
 10
99.518680000000003
 20
-75.637506999999985
 30
0.0
 40
6.0
  0
LINE
  5
11D
  8
SIZE
  6
CONTINUOUS
 62
    30
 10
99.518680000000003
 20
-75.637506999999985
 30
0.0
 11
109.072473
 21
-82.898707999999999
 31
0.0
  0
CIRCLE
  5
11E
  8
SIZE
  6
CONTINUOUS
 62
    30
 10
-99.518680000000003
 20
75.637506999999985
 30
0.0
 40
6.0
  0
LINE
  5
11F
  8
SIZE
  6
CONTINUOUS
 62
    30
 10
-99.518680000000003
 20
75.637506999999985
 30
0.0
 11
-109.072473
 21
82.898707999999999
 31
0.0
  0
POINT
  5
120
  8
DEFPOINTS
  6
CONTINUOUS
 62
    30
 10
-99.518680000000003
 20
75.637506999999985
 30
0.0
  0
POINT
  5
121
  8
DEFPOINTS
  6
CONTINUOUS
 62
    30
 10
99.518680000000003
 20
-75.637506999999985
 30
0.0
  0
TEXT
  5
12B
  8
ETC
  6
CONTINUOUS
 62
    61
 10
326.62754269445247
 20
465.57473747929839
 30
0.0
 40
64.0
  1
E-25L5_2
 41
0.9
  0
TEXT
  5
12C
  8
ETC
  6
CONTINUOUS
 62
    61
 10
318.55406469445262
 20
371.82690747929843
 30
0.0
 40
64.0
  1
換気扇
 41
0.9
  0
TEXT
  5
12D
  8
ETC
  6
CONTINUOUS
 62
    61
 10
455.38621431878482
 20
286.30675750831261
 30
0.0
 40
50.0
  1
E-25L5
 41
0.9
  0
LINE
  5
12E
  8
DETAIL
  6
CONTINUOUS
 62
     5
 10
-161.88865699999991
 20
0.0
 30
0.0
 11
-159.484948
 21
-32.367320999999997
 31
0.0
  0
LINE
  5
12F
  8
DETAIL
  6
CONTINUOUS
 62
     5
 10
-159.484948
 20
-32.367320999999997
 30
0.0
 11
-152.345203
 21
-63.773466999999997
 31
0.0
  0
LINE
  5
130
  8
DETAIL
  6
CONTINUOUS
 62
     5
 10
-152.345203
 20
-63.773466999999997
 30
0.0
 11
-140.6814399999999
 21
-93.285807999999989
 31
0.0
  0
LINE
  5
131
  8
DETAIL
  6
CONTINUOUS
 62
     5
 10
-140.6814399999999
 20
-93.285807999999989
 30
0.0
 11
-124.8400259999999
 21
-120.02794900000001
 31
0.0
  0
LINE
  5
132
  8
DETAIL
  6
CONTINUOUS
 62
     5
 10
-124.8400259999999
 20
-120.02794900000001
 30
0.0
 11
-105.29138500000001
 21
-143.20576199999999
 31
0.0
  0
LINE
  5
133
  8
DETAIL
  6
CONTINUOUS
 62
     5
 10
-105.29138500000001
 20
-143.20576199999999
 30
0.0
 11
-82.616028999999983
 21
-162.13096100000001
 31
0.0
  0
LINE
  5
134
  8
DETAIL
  6
CONTINUOUS
 62
     5
 10
-82.616028999999983
 20
-162.13096100000001
 30
0.0
 11
-57.487321999999999
 21
-176.24154799999999
 31
0.0
  0
LINE
  5
135
  8
DETAIL
  6
CONTINUOUS
 62
     5
 10
-153.6917629999999
 20
0.0
 30
0.0
 11
-151.2670259999999
 21
-29.368151999999998
 31
0.0
  0
LINE
  5
136
  8
DETAIL
  6
CONTINUOUS
 62
     5
 10
-151.2670259999999
 20
-29.368151999999998
 30
0.0
 11
-144.06932499999991
 21
-57.809643999999992
 31
0.0
  0
LINE
  5
137
  8
DETAIL
  6
CONTINUOUS
 62
     5
 10
-144.06932499999991
 20
-57.809643999999992
 30
0.0
 11
-132.32576900000001
 21
-84.427053999999984
 31
0.0
  0
LINE
  5
138
  8
DETAIL
  6
CONTINUOUS
 62
     5
 10
-132.32576900000001
 20
-84.427053999999984
 30
0.0
 11
-116.40690600000001
 21
-108.3805169999999
 31
0.0
  0
LINE
  5
139
  8
DETAIL
  6
CONTINUOUS
 62
     5
 10
-116.40690600000001
 20
-108.3805169999999
 30
0.0
 11
-96.815027000000015
 21
-128.9142239999999
 31
0.0
  0
LINE
  5
13A
  8
DETAIL
  6
CONTINUOUS
 62
     5
 10
-96.815027000000015
 20
-128.9142239999999
 30
0.0
 11
-74.168320999999992
 21
-145.380268
 31
0.0
  0
LINE
  5
13B
  8
DETAIL
  6
CONTINUOUS
 62
     5
 10
-74.168320999999992
 20
-145.380268
 30
0.0
 11
-49.181364000000002
 21
-157.25909399999989
 31
0.0
  0
LINE
  5
13C
  8
DETAIL
  6
CONTINUOUS
 62
     5
 10
-52.960093000000008
 20
-160.28022200000001
 30
0.0
 11
-64.226295999999991
 21
-155.418474
 31
0.0
  0
LINE
  5
13D
  8
DETAIL
  6
CONTINUOUS
 62
     5
 10
-64.226295999999991
 20
-155.418474
 30
0.0
 11
-75.041639000000004
 21
-149.67155600000001
 31
0.0
  0
LINE
  5
13E
  8
DETAIL
  6
CONTINUOUS
 62
     5
 10
-75.041639000000004
 20
-149.67155600000001
 30
0.0
 11
-85.368038999999996
 21
-143.08183899999989
 31
0.0
  0
LINE
  5
13F
  8
DETAIL
  6
CONTINUOUS
 62
     5
 10
-85.368038999999996
 20
-143.08183899999989
 30
0.0
 11
-95.167413999999994
 21
-135.6916949999999
 31
0.0
  0
LINE
  5
140
  8
DETAIL
  6
CONTINUOUS
 62
     5
 10
-95.167413999999994
 20
-135.6916949999999
 30
0.0
 11
-104.40168299999991
 21
-127.54349499999989
 31
0.0
  0
LINE
  5
141
  8
DETAIL
  6
CONTINUOUS
 62
     5
 10
-104.40168299999991
 20
-127.54349499999989
 30
0.0
 11
-113.0327629999999
 21
-118.67961099999999
 31
0.0
  0
LINE
  5
142
  8
DETAIL
  6
CONTINUOUS
 62
     5
 10
-113.0327629999999
 20
-118.67961099999999
 30
0.0
 11
-121.02257299999989
 21
-109.14241699999999
 31
0.0
  0
LINE
  5
143
  8
DETAIL
  6
CONTINUOUS
 62
     5
 10
-121.02257299999989
 20
-109.14241699999999
 30
0.0
 11
-128.333032
 21
-98.974282000000002
 31
0.0
  0
LINE
  5
144
  8
DETAIL
  6
CONTINUOUS
 62
     5
 10
-128.333032
 20
-98.974282000000002
 30
0.0
 11
-134.92605599999999
 21
-88.217578999999986
 31
0.0
  0
LINE
  5
145
  8
DETAIL
  6
CONTINUOUS
 62
     5
 10
-134.92605599999999
 20
-88.217578999999986
 30
0.0
 11
-140.763565
 21
-76.914681000000002
 31
0.0
  0
LINE
  5
146
  8
DETAIL
  6
CONTINUOUS
 62
     5
 10
-140.763565
 20
-76.914681000000002
 30
0.0
 11
-145.80747700000001
 21
-65.107957999999996
 31
0.0
  0
LINE
  5
147
  8
DETAIL
  6
CONTINUOUS
 62
     5
 10
-145.80747700000001
 20
-65.107957999999996
 30
0.0
 11
-150.01970900000001
 21
-52.839782999999997
 31
0.0
  0
LINE
  5
148
  8
DETAIL
  6
CONTINUOUS
 62
     5
 10
-150.01970900000001
 20
-52.839782999999997
 30
0.0
 11
-153.36218099999991
 21
-40.152527999999997
 31
0.0
  0
LINE
  5
149
  8
DETAIL
  6
CONTINUOUS
 62
     5
 10
-153.36218099999991
 20
-40.152527999999997
 30
0.0
 11
-155.79680899999991
 21
-27.088564999999999
 31
0.0
  0
LINE
  5
14A
  8
DETAIL
  6
CONTINUOUS
 62
     5
 10
-155.79680899999991
 20
-27.088564999999999
 30
0.0
 11
-157.2855129999999
 21
-13.690265
 31
0.0
  0
LINE
  5
14B
  8
DETAIL
  6
CONTINUOUS
 62
     5
 10
-157.2855129999999
 20
-13.690265
 30
0.0
 11
-157.79021
 21
0.0
 31
0.0
  0
LINE
  5
14C
  8
DETAIL
  6
CONTINUOUS
 62
     5
 10
57.487321999999999
 20
-176.24154799999999
 30
0.0
 11
82.616028999999983
 21
-162.13096100000001
 31
0.0
  0
LINE
  5
14D
  8
DETAIL
  6
CONTINUOUS
 62
     5
 10
82.616028999999983
 20
-162.13096100000001
 30
0.0
 11
105.29138500000001
 21
-143.20576199999999
 31
0.0
  0
LINE
  5
14E
  8
DETAIL
  6
CONTINUOUS
 62
     5
 10
105.29138500000001
 20
-143.20576199999999
 30
0.0
 11
124.8400259999999
 21
-120.02794900000001
 31
0.0
  0
LINE
  5
14F
  8
DETAIL
  6
CONTINUOUS
 62
     5
 10
124.8400259999999
 20
-120.02794900000001
 30
0.0
 11
140.6814399999999
 21
-93.285807999999989
 31
0.0
  0
LINE
  5
150
  8
DETAIL
  6
CONTINUOUS
 62
     5
 10
140.6814399999999
 20
-93.285807999999989
 30
0.0
 11
152.345203
 21
-63.773466999999997
 31
0.0
  0
LINE
  5
151
  8
DETAIL
  6
CONTINUOUS
 62
     5
 10
152.345203
 20
-63.773466999999997
 30
0.0
 11
159.484948
 21
-32.367320999999997
 31
0.0
  0
LINE
  5
152
  8
DETAIL
  6
CONTINUOUS
 62
     5
 10
159.484948
 20
-32.367320999999997
 30
0.0
 11
161.88865699999991
 21
0.0
 31
0.0
  0
LINE
  5
153
  8
DETAIL
  6
CONTINUOUS
 62
     5
 10
49.181364000000002
 20
-157.25909399999989
 30
0.0
 11
74.168320999999992
 21
-145.380268
 31
0.0
  0
LINE
  5
154
  8
DETAIL
  6
CONTINUOUS
 62
     5
 10
74.168320999999992
 20
-145.380268
 30
0.0
 11
96.815027000000015
 21
-128.9142239999999
 31
0.0
  0
LINE
  5
155
  8
DETAIL
  6
CONTINUOUS
 62
     5
 10
96.815027000000015
 20
-128.9142239999999
 30
0.0
 11
116.40690600000001
 21
-108.3805169999999
 31
0.0
  0
LINE
  5
156
  8
DETAIL
  6
CONTINUOUS
 62
     5
 10
116.40690600000001
 20
-108.3805169999999
 30
0.0
 11
132.32576900000001
 21
-84.427053999999984
 31
0.0
  0
LINE
  5
157
  8
DETAIL
  6
CONTINUOUS
 62
     5
 10
132.32576900000001
 20
-84.427053999999984
 30
0.0
 11
144.06932499999991
 21
-57.809643999999992
 31
0.0
  0
LINE
  5
158
  8
DETAIL
  6
CONTINUOUS
 62
     5
 10
144.06932499999991
 20
-57.809643999999992
 30
0.0
 11
151.2670259999999
 21
-29.368151999999998
 31
0.0
  0
LINE
  5
159
  8
DETAIL
  6
CONTINUOUS
 62
     5
 10
151.2670259999999
 20
-29.368151999999998
 30
0.0
 11
153.6917629999999
 21
0.0
 31
0.0
  0
LINE
  5
15A
  8
DETAIL
  6
CONTINUOUS
 62
     5
 10
52.960093000000008
 20
-160.28022200000001
 30
0.0
 11
64.226295999999991
 21
-155.418474
 31
0.0
  0
LINE
  5
15B
  8
DETAIL
  6
CONTINUOUS
 62
     5
 10
64.226295999999991
 20
-155.418474
 30
0.0
 11
75.041639000000004
 21
-149.67155600000001
 31
0.0
  0
LINE
  5
15C
  8
DETAIL
  6
CONTINUOUS
 62
     5
 10
75.041639000000004
 20
-149.67155600000001
 30
0.0
 11
85.368038999999996
 21
-143.08183899999989
 31
0.0
  0
LINE
  5
15D
  8
DETAIL
  6
CONTINUOUS
 62
     5
 10
85.368038999999996
 20
-143.08183899999989
 30
0.0
 11
95.167413999999994
 21
-135.6916949999999
 31
0.0
  0
LINE
  5
15E
  8
DETAIL
  6
CONTINUOUS
 62
     5
 10
95.167413999999994
 20
-135.6916949999999
 30
0.0
 11
104.40168299999991
 21
-127.54349499999989
 31
0.0
  0
LINE
  5
15F
  8
DETAIL
  6
CONTINUOUS
 62
     5
 10
104.40168299999991
 20
-127.54349499999989
 30
0.0
 11
113.0327629999999
 21
-118.67961099999999
 31
0.0
  0
LINE
  5
160
  8
DETAIL
  6
CONTINUOUS
 62
     5
 10
113.0327629999999
 20
-118.67961099999999
 30
0.0
 11
121.02257299999989
 21
-109.14241699999999
 31
0.0
  0
LINE
  5
161
  8
DETAIL
  6
CONTINUOUS
 62
     5
 10
121.02257299999989
 20
-109.14241699999999
 30
0.0
 11
128.333032
 21
-98.974282000000002
 31
0.0
  0
LINE
  5
162
  8
DETAIL
  6
CONTINUOUS
 62
     5
 10
128.333032
 20
-98.974282000000002
 30
0.0
 11
134.92605599999999
 21
-88.217578999999986
 31
0.0
  0
LINE
  5
163
  8
DETAIL
  6
CONTINUOUS
 62
     5
 10
134.92605599999999
 20
-88.217578999999986
 30
0.0
 11
140.763565
 21
-76.914681000000002
 31
0.0
  0
LINE
  5
164
  8
DETAIL
  6
CONTINUOUS
 62
     5
 10
140.763565
 20
-76.914681000000002
 30
0.0
 11
145.80747700000001
 21
-65.107957999999996
 31
0.0
  0
LINE
  5
165
  8
DETAIL
  6
CONTINUOUS
 62
     5
 10
145.80747700000001
 20
-65.107957999999996
 30
0.0
 11
150.01970900000001
 21
-52.839782999999997
 31
0.0
  0
LINE
  5
166
  8
DETAIL
  6
CONTINUOUS
 62
     5
 10
150.01970900000001
 20
-52.839782999999997
 30
0.0
 11
153.36218099999991
 21
-40.152527999999997
 31
0.0
  0
LINE
  5
167
  8
DETAIL
  6
CONTINUOUS
 62
     5
 10
153.36218099999991
 20
-40.152527999999997
 30
0.0
 11
155.79680899999991
 21
-27.088564999999999
 31
0.0
  0
LINE
  5
168
  8
DETAIL
  6
CONTINUOUS
 62
     5
 10
155.79680899999991
 20
-27.088564999999999
 30
0.0
 11
157.2855129999999
 21
-13.690265
 31
0.0
  0
LINE
  5
169
  8
DETAIL
  6
CONTINUOUS
 62
     5
 10
157.2855129999999
 20
-13.690265
 30
0.0
 11
157.79021
 21
0.0
 31
0.0
  0
ENDSEC
  0
EOF
