  0
SECTION
  2
HEADER
  9
$ACADVER
  1
AC1009
  9
$DWGCODEPAGE
  3
dos932
  9
$INSBASE
 10
0.0
 20
0.0
 30
0.0
  9
$EXTMIN
 10
-355.75102072413029
 20
-304.412829927649
 30
-0.0015257624927045
  9
$EXTMAX
 10
885.0723380631207
 20
581.26831855772434
 30
0.0022888765696933
  9
$LIMMIN
 10
-2970.0
 20
-2100.0
  9
$LIMMAX
 10
2970.0
 20
2100.0
  9
$ORTHOMODE
 70
     1
  9
$REGENMODE
 70
     1
  9
$FILLMODE
 70
     1
  9
$QTEXTMODE
 70
     0
  9
$MIRRTEXT
 70
     0
  9
$LTSCALE
 40
20.0
  9
$ATTMODE
 70
     1
  9
$TEXTSIZE
 40
64.0
  9
$TRACEWID
 40
0.05
  9
$TEXTSTYLE
  7
STANDARD
  9
$CLAYER
  8
SIZE
  9
$CELTYPE
  6
CONTINUOUS
  9
$CECOLOR
 62
     7
  9
$DIMSCALE
 40
1.0
  9
$DIMASZ
 40
12.0
  9
$DIMEXO
 40
20.0
  9
$DIMDLI
 40
200.0
  9
$DIMRND
 40
0.0
  9
$DIMDLE
 40
0.0
  9
$DIMEXE
 40
20.0
  9
$DIMTP
 40
0.0
  9
$DIMTM
 40
0.0
  9
$DIMTXT
 40
64.0
  9
$DIMCEN
 40
0.09
  9
$DIMTSZ
 40
0.0
  9
$DIMTOL
 70
     0
  9
$DIMLIM
 70
     0
  9
$DIMTIH
 70
     0
  9
$DIMTOH
 70
     0
  9
$DIMSE1
 70
     0
  9
$DIMSE2
 70
     0
  9
$DIMTAD
 70
     1
  9
$DIMZIN
 70
     8
  9
$DIMBLK
  1

  9
$DIMASO
 70
     1
  9
$DIMSHO
 70
     0
  9
$DIMPOST
  1

  9
$DIMAPOST
  1

  9
$DIMALT
 70
     0
  9
$DIMALTD
 70
     2
  9
$DIMALTF
 40
25.399999999999999
  9
$DIMLFAC
 40
1.0
  9
$DIMTOFL
 70
     1
  9
$DIMTVP
 40
0.0
  9
$DIMTIX
 70
     1
  9
$DIMSOXD
 70
     0
  9
$DIMSAH
 70
     0
  9
$DIMBLK1
  1

  9
$DIMBLK2
  1

  9
$DIMSTYLE
  2
STANDARD
  9
$DIMCLRD
 70
     7
  9
$DIMCLRE
 70
     7
  9
$DIMCLRT
 70
     7
  9
$DIMTFAC
 40
1.0
  9
$DIMGAP
 40
25.0
  9
$LUNITS
 70
     2
  9
$LUPREC
 70
     4
  9
$SKETCHINC
 40
0.1
  9
$FILLETRAD
 40
3.0
  9
$AUNITS
 70
     1
  9
$AUPREC
 70
     3
  9
$MENU
  1
ACAD
  9
$ELEVATION
 40
0.0
  9
$PELEVATION
 40
0.0
  9
$THICKNESS
 40
50.0
  9
$LIMCHECK
 70
     0
  9
$CHAMFERA
 40
0.0
  9
$CHAMFERB
 40
0.0
  9
$SKPOLY
 70
     0
  9
$TDCREATE
 40
2453019.62301037
  9
$TDUPDATE
 40
2458949.419349386
  9
$TDINDWG
 40
1.7127358912
  9
$TDUSRTIMER
 40
1.7127358912
  9
$USRTIMER
 70
     1
  9
$ANGBASE
 50
0.0
  9
$ANGDIR
 70
     0
  9
$PDMODE
 70
     3
  9
$PDSIZE
 40
-2.0
  9
$PLINEWID
 40
0.0
  9
$SPLFRAME
 70
     0
  9
$SPLINETYPE
 70
     6
  9
$SPLINESEGS
 70
     8
  9
$SURFTAB1
 70
     6
  9
$SURFTAB2
 70
     6
  9
$SURFTYPE
 70
     6
  9
$SURFU
 70
     6
  9
$SURFV
 70
     6
  9
$UCSNAME
  2

  9
$UCSORG
 10
0.0
 20
0.0
 30
0.0
  9
$UCSXDIR
 10
1.0
 20
0.0
 30
0.0
  9
$UCSYDIR
 10
0.0
 20
1.0
 30
0.0
  9
$PUCSNAME
  2

  9
$PUCSORG
 10
0.0
 20
0.0
 30
0.0
  9
$PUCSXDIR
 10
1.0
 20
0.0
 30
0.0
  9
$PUCSYDIR
 10
0.0
 20
1.0
 30
0.0
  9
$USERI1
 70
     0
  9
$USERI2
 70
     0
  9
$USERI3
 70
     0
  9
$USERI4
 70
     0
  9
$USERI5
 70
     0
  9
$USERR1
 40
20.0
  9
$USERR2
 40
0.0
  9
$USERR3
 40
0.0
  9
$USERR4
 40
0.0
  9
$USERR5
 40
0.0
  9
$WORLDVIEW
 70
     1
  9
$SHADEDGE
 70
     3
  9
$SHADEDIF
 70
    70
  9
$TILEMODE
 70
     1
  9
$MAXACTVP
 70
    48
  9
$PINSBASE
 10
0.0
 20
0.0
 30
0.0
  9
$PLIMCHECK
 70
     0
  9
$PEXTMIN
 10
-100000000000000000000.0
 20
-100000000000000000000.0
 30
-100000000000000000000.0
  9
$PEXTMAX
 10
100000000000000000000.0
 20
100000000000000000000.0
 30
100000000000000000000.0
  9
$PLIMMIN
 10
0.0
 20
0.0
  9
$PLIMMAX
 10
12.0
 20
9.0
  9
$UNITMODE
 70
     0
  9
$VISRETAIN
 70
     0
  9
$PLINEGEN
 70
     0
  9
$PSLTSCALE
 70
     0
  9
$TREEDEPTH
 70
  3020
  9
$ATTDIA
 70
     0
  9
$ATTREQ
 70
     1
  9
$BLIPMODE
 70
     1
  9
$COORDS
 70
     1
  9
$DRAGMODE
 70
     2
  9
$OSMODE
 70
     0
  9
$HANDLING
 70
     0
  9
$HANDSEED
  5
ED4F
  0
ENDSEC
  0
SECTION
  2
TABLES
  0
TABLE
  2
LTYPE
 70
     2
  0
LTYPE
  2
CONTINUOUS
 70
     0
  3
実線
 72
    65
 73
     0
 40
0.0
  0
LTYPE
  2
DASHDOT
 70
     0
  3
____ _ ____ _ ____ _ ____ _ ____ _ ____ _ ____
 72
    65
 73
     4
 40
5.5
 49
4.0
 49
-0.6
 49
0.3
 49
-0.6
  0
ENDTAB
  0
TABLE
  2
LAYER
 70
    12
  0
LAYER
  2
0
 70
     0
 62
     7
  6
CONTINUOUS
  0
LAYER
  2
BASIS
 70
     0
 62
     6
  6
DASHDOT
  0
LAYER
  2
OUTLINE
 70
     0
 62
     3
  6
CONTINUOUS
  0
LAYER
  2
DETAIL
 70
     0
 62
     5
  6
CONTINUOUS
  0
LAYER
  2
SIZE
 70
     0
 62
    30
  6
CONTINUOUS
  0
LAYER
  2
ARRANGE
 70
     0
 62
     1
  6
CONTINUOUS
  0
LAYER
  2
ETC
 70
     0
 62
    61
  6
CONTINUOUS
  0
LAYER
  2
FIX
 70
     0
 62
    11
  6
CONTINUOUS
  0
LAYER
  2
NOTE
 70
     0
 62
     4
  6
CONTINUOUS
  0
LAYER
  2
DEFPOINTS
 70
    64
 62
     7
  6
CONTINUOUS
  0
LAYER
  2
SERVICESPACE
 70
    64
 62
     2
  6
DASHDOT
  0
LAYER
  2
SYMBOLLINE
 70
    64
 62
    15
  6
CONTINUOUS
  0
ENDTAB
  0
TABLE
  2
STYLE
 70
     1
  0
STYLE
  2
STANDARD
 70
     0
 40
64.0
 41
0.9
 50
0.0
 71
     0
 42
64.0
  3
SIMPLEX.shx
  4
BIGFONT.shx
  0
ENDTAB
  0
TABLE
  2
APPID
 70
    19
  0
APPID
  2
ACAD
 70
     0
  0
APPID
  2
AUTOCAD_POSTSCRIPT_FIGURE
 70
     0
  0
APPID
  2
ACAD_EXEMPT_FROM_CAD_STANDARDS
 70
     0
  0
APPID
  2
ACAD_PSEXT
 70
     0
  0
APPID
  2
ACAUTHENVIRON
 70
     0
  0
APPID
  2
GENIUS_GENOENT_13
 70
     0
  0
APPID
  2
GENIUS_GENCFG_13
 70
     0
  0
APPID
  2
GENIUS_GENCFG0_13
 70
     0
  0
APPID
  2
GENIUS_GENCFG1_13
 70
     0
  0
APPID
  2
GENIUS_GENCFG2_13
 70
     0
  0
APPID
  2
GENIUS_GENCFG3_13
 70
     0
  0
APPID
  2
GENIUS_GENCFG4_13
 70
     0
  0
APPID
  2
GENIUS_GEVCFG0_13
 70
     0
  0
APPID
  2
CONTENTBLOCKICON
 70
     0
  0
APPID
  2
CONTENTBLOCKDESCRIPTION
 70
     0
  0
APPID
  2
ACAD_NAV_VCDISPLAY
 70
     0
  0
APPID
  2
ACAD_MLEADERVER
 70
     0
  0
APPID
  2
ACDBDYNAMICBLOCKTRUENAME
 70
     0
  0
APPID
  2
ACDBDYNAMICBLOCKGUID
 70
     0
  0
ENDTAB
  0
TABLE
  2
DIMSTYLE
 70
     1
  0
DIMSTYLE
  2
STANDARD
 70
     0
  3

  4

  5
_ORIGIN
  6

  7

 40
1.0
 41
12.0
 42
20.0
 43
200.0
 44
20.0
 45
0.0
 46
0.0
 47
0.0
 48
0.0
140
64.0
141
0.09
142
0.0
143
25.399999999999999
144
1.0
145
0.0
146
1.0
147
25.0
 71
     0
 72
     0
 73
     0
 74
     0
 75
     0
 76
     0
 77
     1
 78
     8
170
     0
171
     2
172
     1
173
     0
174
     1
175
     0
176
     7
177
     7
178
     7
  0
ENDTAB
  0
TABLE
  2
VIEW
 70
     1
  0
VIEW
  2
ALL
 70
     0
 40
4282.6198079999986
 10
0.0
 20
41.309904000000003
 41
5940.0
 11
0.0
 21
0.0
 31
1.0
 12
0.0
 22
0.0
 32
0.0
 42
50.0
 43
0.0
 44
0.0
 50
0.0
 71
     0
  0
ENDTAB
  0
TABLE
  2
UCS
 70
     0
  0
ENDTAB
  0
TABLE
  2
VPORT
 70
     1
  0
VPORT
  2
*ACTIVE
 70
     0
 10
0.0
 20
0.0
 11
1.0
 21
1.0
 12
264.66065866949509
 22
138.4277443150377
 13
0.0
 23
0.0
 14
1.0
 24
1.0
 15
0.0
 25
0.0
 16
0.0
 26
0.0
 36
1.0
 17
0.0
 27
0.0
 37
0.0
 40
891.55306770185098
 41
1.747787610619469
 42
50.0
 43
0.0
 44
0.0
 50
0.0
 51
0.0
 71
     0
 72
  1000
 73
     1
 74
     3
 75
     0
 76
     0
 77
     0
 78
     0
  0
ENDTAB
  0
ENDSEC
  0
SECTION
  2
BLOCKS
  0
BLOCK
  8
0
  2
_ORIGIN
 70
     0
 10
0.0
 20
0.0
 30
0.0
  3
_ORIGIN
  1
_ORIGIN
  0
CIRCLE
  8
0
  6
CONTINUOUS
 62
     7
 10
0.0
 20
0.0
 30
0.0
 40
0.5
  0
LINE
  8
0
  6
CONTINUOUS
 62
     7
 10
0.0
 20
0.0
 30
0.0
 11
-1.0
 21
0.0
 31
0.0
  0
ENDBLK
  8
0
  0
ENDSEC
  0
SECTION
  2
ENTITIES
  0
TEXT
  8
ETC
  6
CONTINUOUS
 62
    61
 10
223.91345243764451
 20
517.03480745584761
 30
0.0
 40
64.0
  1
EF-20UYS2-K_1
 41
0.9
  0
TEXT
  8
ETC
  6
CONTINUOUS
 62
    61
 10
219.72745843764409
 20
399.07949744101637
 30
0.0
 40
64.0
  1
産業扇
 41
0.9
  0
CIRCLE
  8
ARRANGE
  6
CONTINUOUS
 62
     1
 10
0.0
 20
0.0
 30
0.0
 40
40.0
  0
POINT
  8
ARRANGE
  6
CONTINUOUS
 62
     1
 10
0.0
 20
0.0
 30
0.0
  0
LINE
  8
BASIS
  6
DASHDOT
 62
     6
 10
0.0
 20
-132.47446783846229
 30
0.0
 11
0.0
 21
67.445074417599244
 31
0.0
  0
LINE
  8
BASIS
  6
DASHDOT
 62
     6
 10
200.66933588690969
 20
0.0
 30
0.0
 11
-200.66933588690969
 21
0.0
 31
0.0
  0
TEXT
  8
ETC
  6
CONTINUOUS
 62
    61
 10
270.42885668620011
 20
290.93072455479108
 30
0.0
 40
40.0
  1
EF-20UYS2-K
 41
0.9
  0
TEXT
  8
ETC
  6
CONTINUOUS
 62
    61
 10
270.42885668620011
 20
224.93072455479111
 30
0.0
 40
40.0
  1
EF-20UYSQ2-K
 41
0.9
  0
LINE
  8
DETAIL
  6
CONTINUOUS
 62
     5
 10
159.90098118136211
 20
-1.821556496865355
 30
0.0
 11
159.26739631288731
 21
-4.474693133604319
 31
0.0
  0
LINE
  8
DETAIL
  6
CONTINUOUS
 62
     5
 10
-114.08487537976841
 20
-10.493749384116089
 30
0.0
 11
-125.9249926093937
 21
-10.493749384116089
 31
0.0
  0
LINE
  8
DETAIL
  6
CONTINUOUS
 62
     5
 10
158.5942123901327
 20
-5.1478770563587659
 30
0.0
 11
-158.5942123901327
 21
-5.1478770563587659
 31
0.0
  0
LINE
  8
DETAIL
  6
CONTINUOUS
 62
     5
 10
158.51501428157329
 20
0.0
 30
0.0
 11
-158.47541522729381
 21
0.0
 31
0.0
  0
LINE
  8
DETAIL
  6
CONTINUOUS
 62
     5
 10
-114.08487537976841
 20
-10.493749384116089
 30
0.0
 11
-114.08487537976841
 21
-10.01856073275985
 31
0.0
  0
LINE
  8
DETAIL
  6
CONTINUOUS
 62
     5
 10
-125.9249926093937
 20
-10.493749384116089
 30
0.0
 11
-125.9249926093937
 21
-10.01856073275985
 31
0.0
  0
LINE
  8
DETAIL
  6
CONTINUOUS
 62
     5
 10
-160.01977834420131
 20
-1.821556496865355
 30
0.0
 11
-159.42579253000619
 21
-4.474693133604319
 31
0.0
  0
LINE
  8
DETAIL
  6
CONTINUOUS
 62
     5
 10
159.90098118136211
 20
-1.821556496865355
 30
0.0
 11
159.98017928992161
 21
-1.2671697369497681
 31
0.0
  0
LINE
  8
DETAIL
  6
CONTINUOUS
 62
     5
 10
159.98017928992161
 20
-1.2671697369497681
 30
0.0
 11
159.90098118136211
 21
-0.8711791941530009
 31
0.0
  0
LINE
  8
DETAIL
  6
CONTINUOUS
 62
     5
 10
159.90098118136211
 20
-0.8711791941530009
 30
0.0
 11
159.5841887471247
 21
-0.475188651356234
 31
0.0
  0
LINE
  8
DETAIL
  6
CONTINUOUS
 62
     5
 10
159.5841887471247
 20
-0.475188651356234
 30
0.0
 11
159.26739631288731
 21
-0.1583962171187068
 31
0.0
  0
LINE
  8
DETAIL
  6
CONTINUOUS
 62
     5
 10
159.26739631288731
 20
-0.1583962171187068
 30
0.0
 11
158.91100482437011
 21
0.0
 31
0.0
  0
LINE
  8
DETAIL
  6
CONTINUOUS
 62
     5
 10
158.91100482437011
 20
0.0
 30
0.0
 11
158.51501428157329
 21
0.0
 31
0.0
  0
LINE
  8
DETAIL
  6
CONTINUOUS
 62
     5
 10
158.5942123901327
 20
-5.1478770563587659
 30
0.0
 11
158.79220766153091
 21
-5.0686789477994134
 31
0.0
  0
LINE
  8
DETAIL
  6
CONTINUOUS
 62
     5
 10
158.79220766153091
 20
-5.0686789477994134
 30
0.0
 11
159.06940104148879
 21
-4.9894808392400591
 31
0.0
  0
LINE
  8
DETAIL
  6
CONTINUOUS
 62
     5
 10
159.06940104148879
 20
-4.9894808392400591
 30
0.0
 11
159.18819820432779
 21
-4.7914855678417334
 31
0.0
  0
LINE
  8
DETAIL
  6
CONTINUOUS
 62
     5
 10
159.18819820432779
 20
-4.7914855678417334
 30
0.0
 11
159.26739631288731
 21
-4.474693133604319
 31
0.0
  0
LINE
  8
DETAIL
  6
CONTINUOUS
 62
     5
 10
-125.9249926093937
 20
-10.493749384116089
 30
0.0
 11
-123.94503989540981
 21
-12.077711555303379
 31
0.0
  0
LINE
  8
DETAIL
  6
CONTINUOUS
 62
     5
 10
-123.94503989540981
 20
-12.077711555303379
 30
0.0
 11
-121.41070042151
 21
-12.86969264089714
 31
0.0
  0
LINE
  8
DETAIL
  6
CONTINUOUS
 62
     5
 10
-121.41070042151
 20
-12.86969264089714
 30
0.0
 11
-118.7179647304915
 21
-12.86969264089714
 31
0.0
  0
LINE
  8
DETAIL
  6
CONTINUOUS
 62
     5
 10
-118.7179647304915
 20
-12.86969264089714
 30
0.0
 11
-116.2232243108713
 21
-12.077711555303379
 31
0.0
  0
LINE
  8
DETAIL
  6
CONTINUOUS
 62
     5
 10
-116.2232243108713
 20
-12.077711555303379
 30
0.0
 11
-114.08487537976841
 21
-10.493749384116089
 31
0.0
  0
LINE
  8
DETAIL
  6
CONTINUOUS
 62
     5
 10
-158.47541522729381
 20
0.0
 30
0.0
 11
-158.99020293292961
 21
0.0
 31
0.0
  0
LINE
  8
DETAIL
  6
CONTINUOUS
 62
     5
 10
-158.99020293292961
 20
0.0
 30
0.0
 11
-159.42579253000619
 21
-0.1583962171187068
 31
0.0
  0
LINE
  8
DETAIL
  6
CONTINUOUS
 62
     5
 10
-159.42579253000619
 20
-0.1583962171187068
 30
0.0
 11
-159.7425849642436
 21
-0.475188651356234
 31
0.0
  0
LINE
  8
DETAIL
  6
CONTINUOUS
 62
     5
 10
-159.7425849642436
 20
-0.475188651356234
 30
0.0
 11
-159.9405802356421
 21
-0.8711791941530009
 31
0.0
  0
LINE
  8
DETAIL
  6
CONTINUOUS
 62
     5
 10
-159.9405802356421
 20
-0.8711791941530009
 30
0.0
 11
-160.01977834420131
 21
-1.2671697369497681
 31
0.0
  0
LINE
  8
DETAIL
  6
CONTINUOUS
 62
     5
 10
-160.01977834420131
 20
-1.2671697369497681
 30
0.0
 11
-160.01977834420131
 21
-1.821556496865355
 31
0.0
  0
LINE
  8
DETAIL
  6
CONTINUOUS
 62
     5
 10
-159.42579253000619
 20
-4.474693133604319
 30
0.0
 11
-159.34659442144681
 21
-4.7914855678417334
 31
0.0
  0
LINE
  8
DETAIL
  6
CONTINUOUS
 62
     5
 10
-159.34659442144681
 20
-4.7914855678417334
 30
0.0
 11
-159.0694010414891
 21
-4.9894808392400591
 31
0.0
  0
LINE
  8
DETAIL
  6
CONTINUOUS
 62
     5
 10
-159.0694010414891
 20
-4.9894808392400591
 30
0.0
 11
-158.91100482437039
 21
-5.0686789477994134
 31
0.0
  0
LINE
  8
DETAIL
  6
CONTINUOUS
 62
     5
 10
-158.91100482437039
 20
-5.0686789477994134
 30
0.0
 11
-158.5942123901327
 21
-5.1478770563587659
 31
0.0
  0
LINE
  8
DETAIL
  6
CONTINUOUS
 62
     5
 10
157.80223130453899
 20
-5.1478770563587659
 30
0.0
 11
157.80223130453899
 21
-7.4842212588602024
 31
0.0
  0
LINE
  8
DETAIL
  6
CONTINUOUS
 62
     5
 10
127.9841434319371
 20
-105.01669194972079
 30
0.0
 11
-128.02374248621709
 21
-105.01669194972079
 31
0.0
  0
LINE
  8
DETAIL
  6
CONTINUOUS
 62
     5
 10
128.02374248621709
 20
-101.01718746747289
 30
0.0
 11
-128.02374248621709
 21
-101.0171874674727
 31
0.0
  0
LINE
  8
DETAIL
  6
CONTINUOUS
 62
     5
 10
128.02374248621709
 20
-19.997522411240201
 30
0.0
 11
-137.48791645906141
 21
-19.997522411240201
 31
0.0
  0
LINE
  8
DETAIL
  6
CONTINUOUS
 62
     5
 10
155.2678918306392
 20
-10.01856073275985
 30
0.0
 11
-155.3470899391989
 21
-10.01856073275985
 31
0.0
  0
LINE
  8
DETAIL
  6
CONTINUOUS
 62
     5
 10
158.51501428157329
 20
0.0
 30
0.0
 11
-158.47541522729381
 21
0.0
 31
0.0
  0
LINE
  8
DETAIL
  6
CONTINUOUS
 62
     5
 10
-105.01669194972099
 20
-13.503277509372079
 30
0.0
 11
-105.01669194972099
 21
-16.47320658034835
 31
0.0
  0
LINE
  8
DETAIL
  6
CONTINUOUS
 62
     5
 10
-114.4808659225653
 20
-33.50079992061228
 30
0.0
 11
-114.4808659225653
 21
-90.998626734712843
 31
0.0
  0
LINE
  8
DETAIL
  6
CONTINUOUS
 62
     5
 10
-140.02225593296129
 20
-11.998513446744139
 30
0.0
 11
-140.02225593296129
 21
-17.502781991620171
 31
0.0
  0
LINE
  8
DETAIL
  6
CONTINUOUS
 62
     5
 10
-157.80223130453919
 20
-5.1478770563587659
 30
0.0
 11
-157.80223130453919
 21
-7.4842212588602024
 31
0.0
  0
LINE
  8
DETAIL
  6
CONTINUOUS
 62
     5
 10
-118.9951581104492
 20
-101.0171874674727
 30
0.0
 11
-116.6192148536682
 21
-98.086857450776165
 31
0.0
  0
LINE
  8
DETAIL
  6
CONTINUOUS
 62
     5
 10
-116.6192148536682
 20
-98.086857450776165
 30
0.0
 11
-115.07485173676061
 21
-94.681338782723401
 31
0.0
  0
LINE
  8
DETAIL
  6
CONTINUOUS
 62
     5
 10
-115.07485173676061
 20
-94.681338782723401
 30
0.0
 11
-114.4808659225653
 21
-90.998626734712843
 31
0.0
  0
LINE
  8
DETAIL
  6
CONTINUOUS
 62
     5
 10
155.2678918306392
 20
-10.01856073275985
 30
0.0
 11
155.98067480767349
 21
-9.8205654613615252
 31
0.0
  0
LINE
  8
DETAIL
  6
CONTINUOUS
 62
     5
 10
155.98067480767349
 20
-9.8205654613615252
 30
0.0
 11
156.69345778470779
 21
-9.503773027123998
 31
0.0
  0
LINE
  8
DETAIL
  6
CONTINUOUS
 62
     5
 10
156.69345778470779
 20
-9.503773027123998
 30
0.0
 11
157.2478445446234
 21
-8.8701881586490572
 31
0.0
  0
LINE
  8
DETAIL
  6
CONTINUOUS
 62
     5
 10
157.2478445446234
 20
-8.8701881586490572
 30
0.0
 11
157.56463697886099
 21
-8.1574051816146493
 31
0.0
  0
LINE
  8
DETAIL
  6
CONTINUOUS
 62
     5
 10
157.56463697886099
 20
-8.1574051816146493
 30
0.0
 11
157.80223130453899
 21
-7.4842212588602024
 31
0.0
  0
LINE
  8
DETAIL
  6
CONTINUOUS
 62
     5
 10
-114.4808659225653
 20
-33.50079992061228
 30
0.0
 11
-114.9956536282011
 21
-30.016083144000049
 31
0.0
  0
LINE
  8
DETAIL
  6
CONTINUOUS
 62
     5
 10
-114.9956536282011
 20
-30.016083144000049
 30
0.0
 11
-116.3420214737105
 21
-26.689762584506639
 31
0.0
  0
LINE
  8
DETAIL
  6
CONTINUOUS
 62
     5
 10
-116.3420214737105
 20
-26.689762584506639
 30
0.0
 11
-118.4803704048134
 21
-23.878229730649078
 31
0.0
  0
LINE
  8
DETAIL
  6
CONTINUOUS
 62
     5
 10
-118.4803704048134
 20
-23.878229730649078
 30
0.0
 11
-121.33150231295051
 21
-21.819078908105549
 31
0.0
  0
LINE
  8
DETAIL
  6
CONTINUOUS
 62
     5
 10
-121.33150231295051
 20
-21.819078908105549
 30
0.0
 11
-124.49942665532539
 21
-20.353913899757341
 31
0.0
  0
LINE
  8
DETAIL
  6
CONTINUOUS
 62
     5
 10
-124.49942665532539
 20
-20.353913899757341
 30
0.0
 11
-128.02374248621709
 21
-19.997522411240201
 31
0.0
  0
LINE
  8
DETAIL
  6
CONTINUOUS
 62
     5
 10
-105.01669194972099
 20
-16.47320658034835
 30
0.0
 11
-104.9374938411615
 21
-17.502781991620171
 31
0.0
  0
LINE
  8
DETAIL
  6
CONTINUOUS
 62
     5
 10
-104.9374938411615
 20
-17.502781991620171
 30
0.0
 11
-104.4227061355257
 21
-18.492758348612259
 31
0.0
  0
LINE
  8
DETAIL
  6
CONTINUOUS
 62
     5
 10
-104.4227061355257
 20
-18.492758348612259
 30
0.0
 11
-103.5911259956524
 21
-19.28473943420579
 31
0.0
  0
LINE
  8
DETAIL
  6
CONTINUOUS
 62
     5
 10
-103.5911259956524
 20
-19.28473943420579
 30
0.0
 11
-102.6011496386602
 21
-19.799527139841761
 31
0.0
  0
LINE
  8
DETAIL
  6
CONTINUOUS
 62
     5
 10
-102.6011496386602
 20
-19.799527139841761
 30
0.0
 11
-101.492376118829
 21
-19.997522411240201
 31
0.0
  0
LINE
  8
DETAIL
  6
CONTINUOUS
 62
     5
 10
-105.01669194972099
 20
-13.503277509372079
 30
0.0
 11
-105.21468722111941
 21
-12.354904935261169
 31
0.0
  0
LINE
  8
DETAIL
  6
CONTINUOUS
 62
     5
 10
-105.21468722111941
 20
-12.354904935261169
 30
0.0
 11
-105.7294749267553
 21
-11.3649285782692
 31
0.0
  0
LINE
  8
DETAIL
  6
CONTINUOUS
 62
     5
 10
-105.7294749267553
 20
-11.3649285782692
 30
0.0
 11
-106.4818569580691
 21
-10.572947492675439
 31
0.0
  0
LINE
  8
DETAIL
  6
CONTINUOUS
 62
     5
 10
-106.4818569580691
 20
-10.572947492675439
 30
0.0
 11
-107.4718333150613
 21
-10.097758841319321
 31
0.0
  0
LINE
  8
DETAIL
  6
CONTINUOUS
 62
     5
 10
-107.4718333150613
 20
-10.097758841319321
 30
0.0
 11
-108.501408726333
 21
-10.01856073275985
 31
0.0
  0
LINE
  8
DETAIL
  6
CONTINUOUS
 62
     5
 10
-157.80223130453919
 20
-7.4842212588602024
 30
0.0
 11
-157.7230331959797
 21
-8.1574051816146493
 31
0.0
  0
LINE
  8
DETAIL
  6
CONTINUOUS
 62
     5
 10
-157.7230331959797
 20
-8.1574051816146493
 30
0.0
 11
-157.40624076174231
 21
-8.8701881586490572
 31
0.0
  0
LINE
  8
DETAIL
  6
CONTINUOUS
 62
     5
 10
-157.40624076174231
 20
-8.8701881586490572
 30
0.0
 11
-156.81225494754699
 21
-9.503773027123998
 31
0.0
  0
LINE
  8
DETAIL
  6
CONTINUOUS
 62
     5
 10
-156.81225494754699
 20
-9.503773027123998
 30
0.0
 11
-156.09947197051289
 21
-9.8205654613615252
 31
0.0
  0
LINE
  8
DETAIL
  6
CONTINUOUS
 62
     5
 10
-156.09947197051289
 20
-9.8205654613615252
 30
0.0
 11
-155.3470899391989
 21
-10.01856073275985
 31
0.0
  0
ARC
  8
DETAIL
  6
CONTINUOUS
 62
     5
 10
-128.00394295907719
 20
-103.01693970859689
 30
0.0
 40
1.9998502561829821
 50
90.567266409857567
 51
269.43273359014239
  0
ARC
  8
DETAIL
  6
CONTINUOUS
 62
     5
 10
-137.38273862413919
 20
-17.3560213347663
 30
0.0
 40
2.643594203725621
 50
183.18244437805839
 51
267.7198327155163
  0
ARC
  8
DETAIL
  6
CONTINUOUS
 62
     5
 10
-141.97109510429709
 20
-11.967399904095711
 30
0.0
 40
1.949087521962255
 50
359.08534102305208
 51
90.914658976934959
  0
LINE
  8
OUTLINE
  6
CONTINUOUS
 62
     3
 10
159.90098118136211
 20
-1.8215564968654689
 30
0.0
 11
159.26739631288731
 21
-4.4746931336044327
 31
0.0
  0
LINE
  8
OUTLINE
  6
CONTINUOUS
 62
     3
 10
158.5942123901327
 20
-5.1478770563587659
 30
0.0
 11
-158.5942123901327
 21
-5.1478770563587659
 31
0.0
  0
LINE
  8
OUTLINE
  6
CONTINUOUS
 62
     3
 10
158.51501428157329
 20
0.0
 30
0.0
 11
-158.47541522729381
 21
0.0
 31
0.0
  0
LINE
  8
OUTLINE
  6
CONTINUOUS
 62
     3
 10
-160.01977834420131
 20
-1.8215564968654689
 30
0.0
 11
-159.42579253000619
 21
-4.4746931336044327
 31
0.0
  0
LINE
  8
OUTLINE
  6
CONTINUOUS
 62
     3
 10
159.90098118136211
 20
-1.8215564968654689
 30
0.0
 11
159.98017928992161
 21
-1.267169736949654
 31
0.0
  0
LINE
  8
OUTLINE
  6
CONTINUOUS
 62
     3
 10
159.98017928992161
 20
-1.267169736949654
 30
0.0
 11
159.90098118136211
 21
-0.8711791941530009
 31
0.0
  0
LINE
  8
OUTLINE
  6
CONTINUOUS
 62
     3
 10
159.90098118136211
 20
-0.8711791941530009
 30
0.0
 11
159.5841887471247
 21
-0.4751886513563477
 31
0.0
  0
LINE
  8
OUTLINE
  6
CONTINUOUS
 62
     3
 10
159.5841887471247
 20
-0.4751886513563477
 30
0.0
 11
159.26739631288731
 21
-0.1583962171187068
 31
0.0
  0
LINE
  8
OUTLINE
  6
CONTINUOUS
 62
     3
 10
159.26739631288731
 20
-0.1583962171187068
 30
0.0
 11
158.91100482437011
 21
0.0
 31
0.0
  0
LINE
  8
OUTLINE
  6
CONTINUOUS
 62
     3
 10
158.91100482437011
 20
0.0
 30
0.0
 11
158.51501428157329
 21
0.0
 31
0.0
  0
LINE
  8
OUTLINE
  6
CONTINUOUS
 62
     3
 10
158.5942123901327
 20
-5.1478770563587659
 30
0.0
 11
158.79220766153091
 21
-5.0686789477995262
 31
0.0
  0
LINE
  8
OUTLINE
  6
CONTINUOUS
 62
     3
 10
158.79220766153091
 20
-5.0686789477995262
 30
0.0
 11
159.06940104148879
 21
-4.9894808392400591
 31
0.0
  0
LINE
  8
OUTLINE
  6
CONTINUOUS
 62
     3
 10
159.06940104148879
 20
-4.9894808392400591
 30
0.0
 11
159.18819820432779
 21
-4.7914855678418462
 31
0.0
  0
LINE
  8
OUTLINE
  6
CONTINUOUS
 62
     3
 10
159.18819820432779
 20
-4.7914855678418462
 30
0.0
 11
159.26739631288731
 21
-4.4746931336044327
 31
0.0
  0
LINE
  8
OUTLINE
  6
CONTINUOUS
 62
     3
 10
-158.47541522729381
 20
0.0
 30
0.0
 11
-158.99020293292961
 21
0.0
 31
0.0
  0
LINE
  8
OUTLINE
  6
CONTINUOUS
 62
     3
 10
-158.99020293292961
 20
0.0
 30
0.0
 11
-159.42579253000619
 21
-0.1583962171187068
 31
0.0
  0
LINE
  8
OUTLINE
  6
CONTINUOUS
 62
     3
 10
-159.42579253000619
 20
-0.1583962171187068
 30
0.0
 11
-159.7425849642436
 21
-0.4751886513563477
 31
0.0
  0
LINE
  8
OUTLINE
  6
CONTINUOUS
 62
     3
 10
-159.7425849642436
 20
-0.4751886513563477
 30
0.0
 11
-159.9405802356421
 21
-0.8711791941530009
 31
0.0
  0
LINE
  8
OUTLINE
  6
CONTINUOUS
 62
     3
 10
-159.9405802356421
 20
-0.8711791941530009
 30
0.0
 11
-160.01977834420131
 21
-1.267169736949654
 31
0.0
  0
LINE
  8
OUTLINE
  6
CONTINUOUS
 62
     3
 10
-160.01977834420131
 20
-1.267169736949654
 30
0.0
 11
-160.01977834420131
 21
-1.8215564968654689
 31
0.0
  0
LINE
  8
OUTLINE
  6
CONTINUOUS
 62
     3
 10
-159.42579253000619
 20
-4.4746931336044327
 30
0.0
 11
-159.34659442144681
 21
-4.7914855678418462
 31
0.0
  0
LINE
  8
OUTLINE
  6
CONTINUOUS
 62
     3
 10
-159.34659442144681
 20
-4.7914855678418462
 30
0.0
 11
-159.0694010414891
 21
-4.9894808392400591
 31
0.0
  0
LINE
  8
OUTLINE
  6
CONTINUOUS
 62
     3
 10
-159.0694010414891
 20
-4.9894808392400591
 30
0.0
 11
-158.91100482437039
 21
-5.0686789477995262
 31
0.0
  0
LINE
  8
OUTLINE
  6
CONTINUOUS
 62
     3
 10
-158.91100482437039
 20
-5.0686789477995262
 30
0.0
 11
-158.5942123901327
 21
-5.1478770563587659
 31
0.0
  0
LINE
  8
OUTLINE
  6
CONTINUOUS
 62
     3
 10
157.80223130453899
 20
-5.1478770563587659
 30
0.0
 11
157.80223130453899
 21
-7.4842212588600887
 31
0.0
  0
LINE
  8
OUTLINE
  6
CONTINUOUS
 62
     3
 10
127.9841434319371
 20
-105.01669194972079
 30
0.0
 11
-128.02374248621709
 21
-105.01669194972079
 31
0.0
  0
LINE
  8
OUTLINE
  6
CONTINUOUS
 62
     3
 10
128.02374248621709
 20
-101.01718746747289
 30
0.0
 11
-128.02374248621709
 21
-101.0171874674727
 31
0.0
  0
LINE
  8
OUTLINE
  6
CONTINUOUS
 62
     3
 10
155.2678918306392
 20
-10.01856073275985
 30
0.0
 11
-155.3470899391989
 21
-10.01856073275985
 31
0.0
  0
LINE
  8
OUTLINE
  6
CONTINUOUS
 62
     3
 10
158.51501428157329
 20
0.0
 30
0.0
 11
-158.47541522729381
 21
0.0
 31
0.0
  0
LINE
  8
OUTLINE
  6
CONTINUOUS
 62
     3
 10
-114.4808659225653
 20
-33.50079992061228
 30
0.0
 11
-114.4808659225653
 21
-90.998626734712843
 31
0.0
  0
LINE
  8
OUTLINE
  6
CONTINUOUS
 62
     3
 10
-140.02225593296129
 20
-11.99851344674425
 30
0.0
 11
-140.02225593296129
 21
-17.502781991620171
 31
0.0
  0
LINE
  8
OUTLINE
  6
CONTINUOUS
 62
     3
 10
-157.80223130453919
 20
-5.1478770563587659
 30
0.0
 11
-157.80223130453919
 21
-7.4842212588600887
 31
0.0
  0
LINE
  8
OUTLINE
  6
CONTINUOUS
 62
     3
 10
-118.9951581104492
 20
-101.0171874674727
 30
0.0
 11
-116.6192148536682
 21
-98.086857450776279
 31
0.0
  0
LINE
  8
OUTLINE
  6
CONTINUOUS
 62
     3
 10
-116.6192148536682
 20
-98.086857450776279
 30
0.0
 11
-115.07485173676061
 21
-94.681338782723287
 31
0.0
  0
LINE
  8
OUTLINE
  6
CONTINUOUS
 62
     3
 10
-115.07485173676061
 20
-94.681338782723287
 30
0.0
 11
-114.4808659225653
 21
-90.998626734712843
 31
0.0
  0
LINE
  8
OUTLINE
  6
CONTINUOUS
 62
     3
 10
155.2678918306392
 20
-10.01856073275985
 30
0.0
 11
155.98067480767349
 21
-9.8205654613616389
 31
0.0
  0
LINE
  8
OUTLINE
  6
CONTINUOUS
 62
     3
 10
155.98067480767349
 20
-9.8205654613616389
 30
0.0
 11
156.69345778470779
 21
-9.503773027123998
 31
0.0
  0
LINE
  8
OUTLINE
  6
CONTINUOUS
 62
     3
 10
156.69345778470779
 20
-9.503773027123998
 30
0.0
 11
157.2478445446234
 21
-8.8701881586489435
 31
0.0
  0
LINE
  8
OUTLINE
  6
CONTINUOUS
 62
     3
 10
157.2478445446234
 20
-8.8701881586489435
 30
0.0
 11
157.56463697886099
 21
-8.1574051816146493
 31
0.0
  0
LINE
  8
OUTLINE
  6
CONTINUOUS
 62
     3
 10
157.56463697886099
 20
-8.1574051816146493
 30
0.0
 11
157.80223130453899
 21
-7.4842212588600887
 31
0.0
  0
LINE
  8
OUTLINE
  6
CONTINUOUS
 62
     3
 10
-114.4808659225653
 20
-33.50079992061228
 30
0.0
 11
-114.9956536282011
 21
-30.016083144000049
 31
0.0
  0
LINE
  8
OUTLINE
  6
CONTINUOUS
 62
     3
 10
-114.9956536282011
 20
-30.016083144000049
 30
0.0
 11
-116.3420214737105
 21
-26.689762584506749
 31
0.0
  0
LINE
  8
OUTLINE
  6
CONTINUOUS
 62
     3
 10
-116.3420214737105
 20
-26.689762584506749
 30
0.0
 11
-118.4803704048134
 21
-23.878229730649078
 31
0.0
  0
LINE
  8
OUTLINE
  6
CONTINUOUS
 62
     3
 10
-118.4803704048134
 20
-23.878229730649078
 30
0.0
 11
-121.33150231295051
 21
-21.819078908105439
 31
0.0
  0
LINE
  8
OUTLINE
  6
CONTINUOUS
 62
     3
 10
-121.33150231295051
 20
-21.819078908105439
 30
0.0
 11
-124.49942665532539
 21
-20.353913899757341
 31
0.0
  0
LINE
  8
OUTLINE
  6
CONTINUOUS
 62
     3
 10
-124.49942665532539
 20
-20.353913899757341
 30
0.0
 11
-128.02374248621709
 21
-19.997522411240201
 31
0.0
  0
LINE
  8
OUTLINE
  6
CONTINUOUS
 62
     3
 10
-157.80223130453919
 20
-7.4842212588600887
 30
0.0
 11
-157.7230331959797
 21
-8.1574051816146493
 31
0.0
  0
LINE
  8
OUTLINE
  6
CONTINUOUS
 62
     3
 10
-157.7230331959797
 20
-8.1574051816146493
 30
0.0
 11
-157.40624076174231
 21
-8.8701881586489435
 31
0.0
  0
LINE
  8
OUTLINE
  6
CONTINUOUS
 62
     3
 10
-157.40624076174231
 20
-8.8701881586489435
 30
0.0
 11
-156.81225494754699
 21
-9.503773027123998
 31
0.0
  0
LINE
  8
OUTLINE
  6
CONTINUOUS
 62
     3
 10
-156.81225494754699
 20
-9.503773027123998
 30
0.0
 11
-156.09947197051289
 21
-9.8205654613616389
 31
0.0
  0
LINE
  8
OUTLINE
  6
CONTINUOUS
 62
     3
 10
-156.09947197051289
 20
-9.8205654613616389
 30
0.0
 11
-155.3470899391989
 21
-10.01856073275985
 31
0.0
  0
ARC
  8
OUTLINE
  6
CONTINUOUS
 62
     3
 10
-128.00394295907719
 20
-103.01693970859699
 30
0.0
 40
1.9998502561829821
 50
90.567266409857567
 51
269.43273359014239
  0
ARC
  8
OUTLINE
  6
CONTINUOUS
 62
     3
 10
-137.38273862413919
 20
-17.35602133476641
 30
0.0
 40
2.643594203725621
 50
183.18244437805839
 51
267.7198327155163
  0
ARC
  8
OUTLINE
  6
CONTINUOUS
 62
     3
 10
-141.97109510429709
 20
-11.967399904095601
 30
0.0
 40
1.949087521962255
 50
359.0853410230651
 51
90.914658976934959
  0
LINE
  8
OUTLINE
  6
CONTINUOUS
 62
     3
 10
-128.02374248621709
 20
-19.997522411240201
 30
0.0
 11
-137.27756078921399
 21
-19.997522411240201
 31
0.0
  0
LINE
  8
DETAIL
  6
CONTINUOUS
 62
     5
 10
114.08487537976841
 20
-10.493749384116089
 30
0.0
 11
125.9249926093937
 21
-10.493749384116089
 31
0.0
  0
LINE
  8
DETAIL
  6
CONTINUOUS
 62
     5
 10
114.08487537976841
 20
-10.493749384116089
 30
0.0
 11
114.08487537976841
 21
-10.01856073275985
 31
0.0
  0
LINE
  8
DETAIL
  6
CONTINUOUS
 62
     5
 10
125.9249926093937
 20
-10.493749384116089
 30
0.0
 11
125.9249926093937
 21
-10.01856073275985
 31
0.0
  0
LINE
  8
DETAIL
  6
CONTINUOUS
 62
     5
 10
125.9249926093937
 20
-10.493749384116089
 30
0.0
 11
123.94503989540949
 21
-12.077711555303379
 31
0.0
  0
LINE
  8
DETAIL
  6
CONTINUOUS
 62
     5
 10
123.94503989540949
 20
-12.077711555303379
 30
0.0
 11
121.4107004215098
 21
-12.86969264089714
 31
0.0
  0
LINE
  8
DETAIL
  6
CONTINUOUS
 62
     5
 10
121.4107004215098
 20
-12.86969264089714
 30
0.0
 11
118.7179647304915
 21
-12.86969264089714
 31
0.0
  0
LINE
  8
DETAIL
  6
CONTINUOUS
 62
     5
 10
118.7179647304915
 20
-12.86969264089714
 30
0.0
 11
116.2232243108713
 21
-12.077711555303379
 31
0.0
  0
LINE
  8
DETAIL
  6
CONTINUOUS
 62
     5
 10
116.2232243108713
 20
-12.077711555303379
 30
0.0
 11
114.08487537976841
 21
-10.493749384116089
 31
0.0
  0
LINE
  8
DETAIL
  6
CONTINUOUS
 62
     5
 10
105.01669194972099
 20
-13.503277509372079
 30
0.0
 11
105.01669194972099
 21
-16.47320658034835
 31
0.0
  0
LINE
  8
DETAIL
  6
CONTINUOUS
 62
     5
 10
114.480865922565
 20
-33.50079992061228
 30
0.0
 11
114.480865922565
 21
-90.998626734712843
 31
0.0
  0
LINE
  8
DETAIL
  6
CONTINUOUS
 62
     5
 10
140.02225593296129
 20
-11.998513446744139
 30
0.0
 11
140.02225593296129
 21
-17.502781991620171
 31
0.0
  0
LINE
  8
DETAIL
  6
CONTINUOUS
 62
     5
 10
118.9951581104492
 20
-101.0171874674727
 30
0.0
 11
116.6192148536679
 21
-98.086857450776165
 31
0.0
  0
LINE
  8
DETAIL
  6
CONTINUOUS
 62
     5
 10
116.6192148536679
 20
-98.086857450776165
 30
0.0
 11
115.07485173676039
 21
-94.681338782723401
 31
0.0
  0
LINE
  8
DETAIL
  6
CONTINUOUS
 62
     5
 10
115.07485173676039
 20
-94.681338782723401
 30
0.0
 11
114.480865922565
 21
-90.998626734712843
 31
0.0
  0
LINE
  8
DETAIL
  6
CONTINUOUS
 62
     5
 10
114.480865922565
 20
-33.50079992061228
 30
0.0
 11
114.9956536282011
 21
-30.016083144000049
 31
0.0
  0
LINE
  8
DETAIL
  6
CONTINUOUS
 62
     5
 10
114.9956536282011
 20
-30.016083144000049
 30
0.0
 11
116.3420214737102
 21
-26.689762584506639
 31
0.0
  0
LINE
  8
DETAIL
  6
CONTINUOUS
 62
     5
 10
116.3420214737102
 20
-26.689762584506639
 30
0.0
 11
118.4803704048131
 21
-23.878229730649078
 31
0.0
  0
LINE
  8
DETAIL
  6
CONTINUOUS
 62
     5
 10
118.4803704048131
 20
-23.878229730649078
 30
0.0
 11
121.33150231295031
 21
-21.819078908105549
 31
0.0
  0
LINE
  8
DETAIL
  6
CONTINUOUS
 62
     5
 10
121.33150231295031
 20
-21.819078908105549
 30
0.0
 11
124.4994266553251
 21
-20.353913899757341
 31
0.0
  0
LINE
  8
DETAIL
  6
CONTINUOUS
 62
     5
 10
124.4994266553251
 20
-20.353913899757341
 30
0.0
 11
128.02374248621709
 21
-19.997522411240201
 31
0.0
  0
LINE
  8
DETAIL
  6
CONTINUOUS
 62
     5
 10
105.01669194972099
 20
-16.47320658034835
 30
0.0
 11
104.9374938411615
 21
-17.502781991620171
 31
0.0
  0
LINE
  8
DETAIL
  6
CONTINUOUS
 62
     5
 10
104.9374938411615
 20
-17.502781991620171
 30
0.0
 11
104.4227061355257
 21
-18.492758348612259
 31
0.0
  0
LINE
  8
DETAIL
  6
CONTINUOUS
 62
     5
 10
104.4227061355257
 20
-18.492758348612259
 30
0.0
 11
103.5911259956524
 21
-19.28473943420579
 31
0.0
  0
LINE
  8
DETAIL
  6
CONTINUOUS
 62
     5
 10
103.5911259956524
 20
-19.28473943420579
 30
0.0
 11
102.6011496386602
 21
-19.799527139841761
 31
0.0
  0
LINE
  8
DETAIL
  6
CONTINUOUS
 62
     5
 10
102.6011496386602
 20
-19.799527139841761
 30
0.0
 11
101.492376118829
 21
-19.997522411240201
 31
0.0
  0
LINE
  8
DETAIL
  6
CONTINUOUS
 62
     5
 10
105.01669194972099
 20
-13.503277509372079
 30
0.0
 11
105.21468722111921
 21
-12.354904935261169
 31
0.0
  0
LINE
  8
DETAIL
  6
CONTINUOUS
 62
     5
 10
105.21468722111921
 20
-12.354904935261169
 30
0.0
 11
105.7294749267553
 21
-11.3649285782692
 31
0.0
  0
LINE
  8
DETAIL
  6
CONTINUOUS
 62
     5
 10
105.7294749267553
 20
-11.3649285782692
 30
0.0
 11
106.4818569580691
 21
-10.572947492675439
 31
0.0
  0
LINE
  8
DETAIL
  6
CONTINUOUS
 62
     5
 10
106.4818569580691
 20
-10.572947492675439
 30
0.0
 11
107.4718333150613
 21
-10.097758841319321
 31
0.0
  0
LINE
  8
DETAIL
  6
CONTINUOUS
 62
     5
 10
107.4718333150613
 20
-10.097758841319321
 30
0.0
 11
108.501408726333
 21
-10.01856073275985
 31
0.0
  0
ARC
  8
DETAIL
  6
CONTINUOUS
 62
     5
 10
128.00394295907699
 20
-103.01693970859689
 30
0.0
 40
1.9998502561829821
 50
270.56726640985761
 51
89.432733590142419
  0
ARC
  8
DETAIL
  6
CONTINUOUS
 62
     5
 10
137.38273862413919
 20
-17.3560213347663
 30
0.0
 40
2.643594203725621
 50
272.28016728448358
 51
356.81755562194161
  0
ARC
  8
DETAIL
  6
CONTINUOUS
 62
     5
 10
141.97109510429709
 20
-11.967399904095711
 30
0.0
 40
1.949087521962255
 50
89.085341023065055
 51
180.91465897694789
  0
LINE
  8
OUTLINE
  6
CONTINUOUS
 62
     3
 10
114.480865922565
 20
-33.50079992061228
 30
0.0
 11
114.480865922565
 21
-90.998626734712843
 31
0.0
  0
LINE
  8
OUTLINE
  6
CONTINUOUS
 62
     3
 10
140.02225593296129
 20
-11.99851344674425
 30
0.0
 11
140.02225593296129
 21
-17.502781991620171
 31
0.0
  0
LINE
  8
OUTLINE
  6
CONTINUOUS
 62
     3
 10
118.9951581104492
 20
-101.0171874674727
 30
0.0
 11
116.6192148536679
 21
-98.086857450776279
 31
0.0
  0
LINE
  8
OUTLINE
  6
CONTINUOUS
 62
     3
 10
116.6192148536679
 20
-98.086857450776279
 30
0.0
 11
115.07485173676039
 21
-94.681338782723287
 31
0.0
  0
LINE
  8
OUTLINE
  6
CONTINUOUS
 62
     3
 10
115.07485173676039
 20
-94.681338782723287
 30
0.0
 11
114.480865922565
 21
-90.998626734712843
 31
0.0
  0
LINE
  8
OUTLINE
  6
CONTINUOUS
 62
     3
 10
114.480865922565
 20
-33.50079992061228
 30
0.0
 11
114.9956536282011
 21
-30.016083144000049
 31
0.0
  0
LINE
  8
OUTLINE
  6
CONTINUOUS
 62
     3
 10
114.9956536282011
 20
-30.016083144000049
 30
0.0
 11
116.3420214737102
 21
-26.689762584506749
 31
0.0
  0
LINE
  8
OUTLINE
  6
CONTINUOUS
 62
     3
 10
116.3420214737102
 20
-26.689762584506749
 30
0.0
 11
118.4803704048131
 21
-23.878229730649078
 31
0.0
  0
LINE
  8
OUTLINE
  6
CONTINUOUS
 62
     3
 10
118.4803704048131
 20
-23.878229730649078
 30
0.0
 11
121.33150231295031
 21
-21.819078908105439
 31
0.0
  0
LINE
  8
OUTLINE
  6
CONTINUOUS
 62
     3
 10
121.33150231295031
 20
-21.819078908105439
 30
0.0
 11
124.4994266553251
 21
-20.353913899757341
 31
0.0
  0
LINE
  8
OUTLINE
  6
CONTINUOUS
 62
     3
 10
124.4994266553251
 20
-20.353913899757341
 30
0.0
 11
128.02374248621709
 21
-19.997522411240201
 31
0.0
  0
ARC
  8
OUTLINE
  6
CONTINUOUS
 62
     3
 10
128.00394295907699
 20
-103.01693970859699
 30
0.0
 40
1.9998502561829821
 50
270.56726640985761
 51
89.432733590142419
  0
ARC
  8
OUTLINE
  6
CONTINUOUS
 62
     3
 10
137.38273862413919
 20
-17.35602133476641
 30
0.0
 40
2.643594203725621
 50
272.28016728448358
 51
356.81755562194161
  0
ARC
  8
OUTLINE
  6
CONTINUOUS
 62
     3
 10
141.97109510429709
 20
-11.967399904095601
 30
0.0
 40
1.949087521962255
 50
89.085341023065055
 51
180.9146589769349
  0
LINE
  8
OUTLINE
  6
CONTINUOUS
 62
     3
 10
128.02374248621709
 20
-19.997522411240201
 30
0.0
 11
137.27756078921399
 21
-19.997522411240201
 31
0.0
  0
LINE
  8
SIZE
  6
CONTINUOUS
 62
    30
 10
-160.13065569618419
 20
18.178443503134641
 30
0.0
 11
-160.13065569618419
 21
318.18209368429689
 31
0.0
  0
LINE
  8
SIZE
  6
CONTINUOUS
 62
    30
 10
160.091056641905
 20
18.178443503134641
 30
0.0
 11
160.091056641905
 21
318.18209368429689
 31
0.0
  0
LINE
  8
SIZE
  6
CONTINUOUS
 62
    30
 10
-148.13065569618419
 20
298.18209368429689
 30
0.0
 11
148.091056641905
 21
298.18209368429689
 31
0.0
  0
CIRCLE
  8
SIZE
  6
CONTINUOUS
 62
    30
 10
-160.13065569618419
 20
298.18209368429689
 30
0.0
 40
6.0
  0
LINE
  8
SIZE
  6
CONTINUOUS
 62
    30
 10
-160.13065569618419
 20
298.18209368429689
 30
0.0
 11
-148.13065569618419
 21
298.18209368429689
 31
0.0
  0
CIRCLE
  8
SIZE
  6
CONTINUOUS
 62
    30
 10
160.091056641905
 20
298.18209368429689
 30
0.0
 40
6.0
  0
LINE
  8
SIZE
  6
CONTINUOUS
 62
    30
 10
160.091056641905
 20
298.18209368429689
 30
0.0
 11
148.091056641905
 21
298.18209368429689
 31
0.0
  0
TEXT
  8
SIZE
  6
CONTINUOUS
 62
    30
 10
-75.936782845917065
 20
323.18209368429689
 30
0.0
 40
64.0
  1
320
 41
0.9
 72
     1
 11
-1.879639988774215
 21
323.18209368429689
 31
0.0
  0
CIRCLE
  8
FIX
  6
CONTINUOUS
 62
    11
 10
140.0
 20
0.0
 30
0.0
 40
5.0
  0
CIRCLE
  8
FIX
  6
CONTINUOUS
 62
    11
 10
-140.0
 20
0.0
 30
0.0
 40
5.0
  0
LINE
  8
NOTE
  6
CONTINUOUS
 62
     4
 10
140.0
 20
-10.72024241776171
 30
0.0
 11
140.0
 21
10.72024241776171
 31
0.0
  0
LINE
  8
NOTE
  6
CONTINUOUS
 62
     4
 10
-140.0
 20
-10.72024241776171
 30
0.0
 11
-140.0
 21
10.72024241776171
 31
0.0
  0
LINE
  8
SIZE
  6
CONTINUOUS
 62
    30
 10
-140.0
 20
30.72024241776171
 30
0.0
 11
-140.0
 21
170.54577765681921
 31
0.0
  0
LINE
  8
SIZE
  6
CONTINUOUS
 62
    30
 10
140.0
 20
30.72024241776171
 30
0.0
 11
140.0
 21
170.54577765681921
 31
0.0
  0
LINE
  8
SIZE
  6
CONTINUOUS
 62
    30
 10
-128.0
 20
150.54577765681921
 30
0.0
 11
128.0
 21
150.54577765681921
 31
0.0
  0
CIRCLE
  8
SIZE
  6
CONTINUOUS
 62
    30
 10
-140.0
 20
150.54577765681921
 30
0.0
 40
6.0
  0
LINE
  8
SIZE
  6
CONTINUOUS
 62
    30
 10
-140.0
 20
150.54577765681921
 30
0.0
 11
-128.0
 21
150.54577765681921
 31
0.0
  0
CIRCLE
  8
SIZE
  6
CONTINUOUS
 62
    30
 10
140.0
 20
150.54577765681921
 30
0.0
 40
6.0
  0
LINE
  8
SIZE
  6
CONTINUOUS
 62
    30
 10
140.0
 20
150.54577765681921
 30
0.0
 11
128.0
 21
150.54577765681921
 31
0.0
  0
TEXT
  8
SIZE
  6
CONTINUOUS
 62
    30
 10
-70.25701358216692
 20
175.54577765681921
 30
0.0
 40
64.0
  1
280
 41
0.9
 72
     1
 11
3.8001292749759159
 21
175.54577765681921
 31
0.0
  0
LINE
  8
SIZE
  6
CONTINUOUS
 62
    30
 10
-130.0037932152602
 20
-123.01693970859689
 30
0.0
 11
-130.0037932152602
 21
-287.23500355117079
 31
0.0
  0
LINE
  8
SIZE
  6
CONTINUOUS
 62
    30
 10
130.00379321526
 20
-123.01693970859699
 30
0.0
 11
130.00379321526
 21
-287.23500355117079
 31
0.0
  0
LINE
  8
SIZE
  6
CONTINUOUS
 62
    30
 10
-118.0037932152602
 20
-267.23500355117079
 30
0.0
 11
118.00379321526
 21
-267.23500355117079
 31
0.0
  0
CIRCLE
  8
SIZE
  6
CONTINUOUS
 62
    30
 10
-130.0037932152602
 20
-267.23500355117079
 30
0.0
 40
6.0
  0
LINE
  8
SIZE
  6
CONTINUOUS
 62
    30
 10
-130.0037932152602
 20
-267.23500355117079
 30
0.0
 11
-118.0037932152602
 21
-267.23500355117079
 31
0.0
  0
CIRCLE
  8
SIZE
  6
CONTINUOUS
 62
    30
 10
130.00379321526
 20
-267.23500355117079
 30
0.0
 40
6.0
  0
LINE
  8
SIZE
  6
CONTINUOUS
 62
    30
 10
130.00379321526
 20
-267.23500355117079
 30
0.0
 11
118.00379321526
 21
-267.23500355117079
 31
0.0
  0
TEXT
  8
SIZE
  6
CONTINUOUS
 62
    30
 10
-120.9672046489261
 20
-231.56833688450411
 30
0.0
 40
64.0
  1
φ260
 41
0.9
 72
     1
 11
-6.5900617917832278
 21
-231.56833688450411
 31
0.0
  0
LINE
  8
SIZE
  6
CONTINUOUS
 62
    30
 10
220.66933588690969
 20
0.0
 30
0.0
 11
361.6926854940557
 21
-0.0000000000000568
 31
0.0
  0
LINE
  8
SIZE
  6
CONTINUOUS
 62
    30
 10
147.9841434319371
 20
-105.01669194972079
 30
0.0
 11
361.6926854940557
 21
-105.01669194972089
 31
0.0
  0
LINE
  8
SIZE
  6
CONTINUOUS
 62
    30
 10
341.6926854940557
 20
-12.0
 30
0.0
 11
341.6926854940557
 21
-93.01669194972078
 31
0.0
  0
LINE
  8
SIZE
  6
CONTINUOUS
 62
    30
 10
341.6926854940557
 20
-105.01669194972079
 30
0.0
 11
341.6926854940557
 21
-304.159549092578
 31
0.0
  0
CIRCLE
  8
SIZE
  6
CONTINUOUS
 62
    30
 10
341.6926854940557
 20
0.0
 30
0.0
 40
6.0
  0
LINE
  8
SIZE
  6
CONTINUOUS
 62
    30
 10
341.6926854940557
 20
0.0
 30
0.0
 11
341.6926854940557
 21
-12.0
 31
0.0
  0
CIRCLE
  8
SIZE
  6
CONTINUOUS
 62
    30
 10
341.6926854940557
 20
-105.01669194972079
 30
0.0
 40
6.0
  0
LINE
  8
SIZE
  6
CONTINUOUS
 62
    30
 10
341.6926854940557
 20
-105.01669194972079
 30
0.0
 11
341.6926854940557
 21
-93.01669194972078
 31
0.0
  0
TEXT
  8
SIZE
  6
CONTINUOUS
 62
    30
 10
316.6926854940557
 20
-279.15954909257789
 30
0.0
 40
64.0
  1
105
 50
90.0
 41
0.9
 72
     1
 11
316.6926854940557
 21
-210.58812052114931
 31
0.0
  0
LINE
  8
SIZE
  6
CONTINUOUS
 62
    30
 10
-220.66933588690969
 20
0.0
 30
0.0
 11
-286.72481091292588
 21
0.0000000000000568
 31
0.0
  0
LINE
  8
SIZE
  6
CONTINUOUS
 62
    30
 10
-175.3470899391989
 20
-10.01856073275985
 30
0.0
 11
-286.72481091292588
 21
-10.01856073275979
 31
0.0
  0
LINE
  8
SIZE
  6
CONTINUOUS
 62
    30
 10
-266.72481091292588
 20
-22.018560732759791
 30
0.0
 11
-266.72481091292588
 21
-34.018560732759852
 31
0.0
  0
LINE
  8
SIZE
  6
CONTINUOUS
 62
    30
 10
-266.72481091292588
 20
12.0
 30
0.0
 11
-266.72481091292588
 21
156.28571428571431
 31
0.0
  0
LINE
  8
SIZE
  6
CONTINUOUS
 62
    30
 10
-266.72481091292588
 20
-10.01856073275979
 30
0.0
 11
-266.72481091292588
 21
0.0000000000000568
 31
0.0
  0
CIRCLE
  8
SIZE
  6
CONTINUOUS
 62
    30
 10
-266.72481091292588
 20
-10.01856073275979
 30
0.0
 40
6.0
  0
LINE
  8
SIZE
  6
CONTINUOUS
 62
    30
 10
-266.72481091292588
 20
-10.01856073275979
 30
0.0
 11
-266.72481091292588
 21
-22.018560732759791
 31
0.0
  0
CIRCLE
  8
SIZE
  6
CONTINUOUS
 62
    30
 10
-266.72481091292588
 20
0.0000000000000568
 30
0.0
 40
6.0
  0
LINE
  8
SIZE
  6
CONTINUOUS
 62
    30
 10
-266.72481091292588
 20
0.0000000000000568
 30
0.0
 11
-266.72481091292588
 21
12.00000000000006
 31
0.0
  0
TEXT
  8
SIZE
  6
CONTINUOUS
 62
    30
 10
-291.72481091292588
 20
48.999999999999972
 30
0.0
 40
64.0
  1
10
 50
90.0
 41
0.9
 72
     1
 11
-291.72481091292588
 21
90.14285714285711
 31
0.0
  0
LINE
  8
SIZE
  6
CONTINUOUS
 62
    30
 10
-175.3470899391989
 20
-10.01856073275985
 30
0.0
 11
-286.72481091292588
 21
-10.01856073275979
 31
0.0
  0
LINE
  8
SIZE
  6
CONTINUOUS
 62
    30
 10
-157.27756078921399
 20
-19.997522411240201
 30
0.0
 11
-286.72481091292588
 21
-19.997522411240141
 31
0.0
  0
LINE
  8
SIZE
  6
CONTINUOUS
 62
    30
 10
-266.72481091292588
 20
1.981439267240205
 30
0.0
 11
-266.72481091292588
 21
13.98143926724021
 31
0.0
  0
LINE
  8
SIZE
  6
CONTINUOUS
 62
    30
 10
-266.72481091292588
 20
-31.997522411240141
 30
0.0
 11
-266.72481091292588
 21
-230.8185194311302
 31
0.0
  0
LINE
  8
SIZE
  6
CONTINUOUS
 62
    30
 10
-266.72481091292588
 20
-10.01856073275979
 30
0.0
 11
-266.72481091292588
 21
-19.997522411240141
 31
0.0
  0
CIRCLE
  8
SIZE
  6
CONTINUOUS
 62
    30
 10
-266.72481091292588
 20
-10.01856073275979
 30
0.0
 40
6.0
  0
LINE
  8
SIZE
  6
CONTINUOUS
 62
    30
 10
-266.72481091292588
 20
-10.01856073275979
 30
0.0
 11
-266.72481091292588
 21
1.981439267240205
 31
0.0
  0
CIRCLE
  8
SIZE
  6
CONTINUOUS
 62
    30
 10
-266.72481091292588
 20
-19.997522411240141
 30
0.0
 40
6.0
  0
LINE
  8
SIZE
  6
CONTINUOUS
 62
    30
 10
-266.72481091292588
 20
-19.997522411240141
 30
0.0
 11
-266.72481091292588
 21
-31.997522411240141
 31
0.0
  0
TEXT
  8
SIZE
  6
CONTINUOUS
 62
    30
 10
-291.72481091292588
 20
-205.8185194311302
 30
0.0
 40
64.0
  1
10
 50
90.0
 41
0.9
 72
     1
 11
-291.72481091292588
 21
-164.67566228827309
 31
0.0
  0
TEXT
  8
NOTE
  6
CONTINUOUS
 62
     4
 10
243.40562389116349
 20
98.129061056749379
 30
0.0
 40
64.0
  1
4-φ10
 41
0.9
  0
LINE
  8
DETAIL
  6
CONTINUOUS
 62
     4
 10
145.88122019775301
 20
1.9989868122485179
 30
0.0
 11
140.0
 21
0.0
 31
0.0
  0
LINE
  8
DETAIL
  6
CONTINUOUS
 62
     4
 10
140.0
 20
0.0
 30
0.0
 11
144.09378565026049
 21
4.6717896292236674
 31
0.0
  0
LINE
  8
DETAIL
  6
CONTINUOUS
 62
     4
 10
140.0
 20
0.0
 30
0.0
 11
149.9750058480133
 21
6.6707764414721282
 31
0.0
  0
LINE
  8
NOTE
  6
CONTINUOUS
 62
     4
 10
149.9750058480133
 20
6.6707764414721282
 30
0.0
 11
223.21731636032109
 21
55.651507573754941
 31
0.0
  0
LINE
  8
NOTE
  6
CONTINUOUS
 62
     4
 10
223.21731636032109
 20
55.651507573754941
 30
0.0
 11
529.01731636032105
 21
55.651507573754941
 31
0.0
  0
ENDSEC
  0
EOF
