  0
SECTION
  2
HEADER
  9
$ACADVER
  1
AC1009
  9
$DWGCODEPAGE
  3
dos932
  9
$INSBASE
 10
0.0
 20
0.0
 30
0.0
  9
$EXTMIN
 10
-334.90446308267559
 20
-332.29063757729091
 30
-0.0015257624927045
  9
$EXTMAX
 10
1001.087963198181
 20
743.08777675392048
 30
0.0022888765696933
  9
$LIMMIN
 10
-2970.0
 20
-2100.0
  9
$LIMMAX
 10
2970.0
 20
2100.0
  9
$ORTHOMODE
 70
     1
  9
$REGENMODE
 70
     1
  9
$FILLMODE
 70
     1
  9
$QTEXTMODE
 70
     0
  9
$MIRRTEXT
 70
     0
  9
$LTSCALE
 40
20.0
  9
$ATTMODE
 70
     1
  9
$TEXTSIZE
 40
64.0
  9
$TRACEWID
 40
0.05
  9
$TEXTSTYLE
  7
STANDARD
  9
$CLAYER
  8
SIZE
  9
$CELTYPE
  6
CONTINUOUS
  9
$CECOLOR
 62
     7
  9
$DIMSCALE
 40
1.0
  9
$DIMASZ
 40
12.0
  9
$DIMEXO
 40
20.0
  9
$DIMDLI
 40
200.0
  9
$DIMRND
 40
0.0
  9
$DIMDLE
 40
0.0
  9
$DIMEXE
 40
20.0
  9
$DIMTP
 40
0.0
  9
$DIMTM
 40
0.0
  9
$DIMTXT
 40
64.0
  9
$DIMCEN
 40
0.09
  9
$DIMTSZ
 40
0.0
  9
$DIMTOL
 70
     0
  9
$DIMLIM
 70
     0
  9
$DIMTIH
 70
     0
  9
$DIMTOH
 70
     0
  9
$DIMSE1
 70
     0
  9
$DIMSE2
 70
     0
  9
$DIMTAD
 70
     1
  9
$DIMZIN
 70
     8
  9
$DIMBLK
  1

  9
$DIMASO
 70
     1
  9
$DIMSHO
 70
     0
  9
$DIMPOST
  1

  9
$DIMAPOST
  1

  9
$DIMALT
 70
     0
  9
$DIMALTD
 70
     2
  9
$DIMALTF
 40
25.399999999999999
  9
$DIMLFAC
 40
1.0
  9
$DIMTOFL
 70
     1
  9
$DIMTVP
 40
0.0
  9
$DIMTIX
 70
     1
  9
$DIMSOXD
 70
     0
  9
$DIMSAH
 70
     0
  9
$DIMBLK1
  1

  9
$DIMBLK2
  1

  9
$DIMSTYLE
  2
STANDARD
  9
$DIMCLRD
 70
     7
  9
$DIMCLRE
 70
     7
  9
$DIMCLRT
 70
     7
  9
$DIMTFAC
 40
1.0
  9
$DIMGAP
 40
25.0
  9
$LUNITS
 70
     2
  9
$LUPREC
 70
     4
  9
$SKETCHINC
 40
0.1
  9
$FILLETRAD
 40
3.0
  9
$AUNITS
 70
     1
  9
$AUPREC
 70
     3
  9
$MENU
  1
ACAD
  9
$ELEVATION
 40
0.0
  9
$PELEVATION
 40
0.0
  9
$THICKNESS
 40
50.0
  9
$LIMCHECK
 70
     0
  9
$CHAMFERA
 40
0.0
  9
$CHAMFERB
 40
0.0
  9
$SKPOLY
 70
     0
  9
$TDCREATE
 40
2453019.62301037
  9
$TDUPDATE
 40
2458949.419591088
  9
$TDINDWG
 40
1.7141247801
  9
$TDUSRTIMER
 40
1.7141247801
  9
$USRTIMER
 70
     1
  9
$ANGBASE
 50
0.0
  9
$ANGDIR
 70
     0
  9
$PDMODE
 70
     3
  9
$PDSIZE
 40
-2.0
  9
$PLINEWID
 40
0.0
  9
$SPLFRAME
 70
     0
  9
$SPLINETYPE
 70
     6
  9
$SPLINESEGS
 70
     8
  9
$SURFTAB1
 70
     6
  9
$SURFTAB2
 70
     6
  9
$SURFTYPE
 70
     6
  9
$SURFU
 70
     6
  9
$SURFV
 70
     6
  9
$UCSNAME
  2

  9
$UCSORG
 10
0.0
 20
0.0
 30
0.0
  9
$UCSXDIR
 10
1.0
 20
0.0
 30
0.0
  9
$UCSYDIR
 10
0.0
 20
1.0
 30
0.0
  9
$PUCSNAME
  2

  9
$PUCSORG
 10
0.0
 20
0.0
 30
0.0
  9
$PUCSXDIR
 10
1.0
 20
0.0
 30
0.0
  9
$PUCSYDIR
 10
0.0
 20
1.0
 30
0.0
  9
$USERI1
 70
     0
  9
$USERI2
 70
     0
  9
$USERI3
 70
     0
  9
$USERI4
 70
     0
  9
$USERI5
 70
     0
  9
$USERR1
 40
20.0
  9
$USERR2
 40
0.0
  9
$USERR3
 40
0.0
  9
$USERR4
 40
0.0
  9
$USERR5
 40
0.0
  9
$WORLDVIEW
 70
     1
  9
$SHADEDGE
 70
     3
  9
$SHADEDIF
 70
    70
  9
$TILEMODE
 70
     1
  9
$MAXACTVP
 70
    48
  9
$PINSBASE
 10
0.0
 20
0.0
 30
0.0
  9
$PLIMCHECK
 70
     0
  9
$PEXTMIN
 10
-100000000000000000000.0
 20
-100000000000000000000.0
 30
-100000000000000000000.0
  9
$PEXTMAX
 10
100000000000000000000.0
 20
100000000000000000000.0
 30
100000000000000000000.0
  9
$PLIMMIN
 10
0.0
 20
0.0
  9
$PLIMMAX
 10
12.0
 20
9.0
  9
$UNITMODE
 70
     0
  9
$VISRETAIN
 70
     0
  9
$PLINEGEN
 70
     0
  9
$PSLTSCALE
 70
     0
  9
$TREEDEPTH
 70
  3020
  9
$ATTDIA
 70
     0
  9
$ATTREQ
 70
     1
  9
$BLIPMODE
 70
     1
  9
$COORDS
 70
     1
  9
$DRAGMODE
 70
     2
  9
$OSMODE
 70
     0
  9
$HANDLING
 70
     0
  9
$HANDSEED
  5
10183
  0
ENDSEC
  0
SECTION
  2
TABLES
  0
TABLE
  2
LTYPE
 70
     2
  0
LTYPE
  2
CONTINUOUS
 70
     0
  3
実線
 72
    65
 73
     0
 40
0.0
  0
LTYPE
  2
DASHDOT
 70
     0
  3
____ _ ____ _ ____ _ ____ _ ____ _ ____ _ ____
 72
    65
 73
     4
 40
5.5
 49
4.0
 49
-0.6
 49
0.3
 49
-0.6
  0
ENDTAB
  0
TABLE
  2
LAYER
 70
    12
  0
LAYER
  2
0
 70
     0
 62
     7
  6
CONTINUOUS
  0
LAYER
  2
BASIS
 70
     0
 62
     6
  6
DASHDOT
  0
LAYER
  2
OUTLINE
 70
     0
 62
     3
  6
CONTINUOUS
  0
LAYER
  2
DETAIL
 70
     0
 62
     5
  6
CONTINUOUS
  0
LAYER
  2
SIZE
 70
     0
 62
    30
  6
CONTINUOUS
  0
LAYER
  2
ARRANGE
 70
     0
 62
     1
  6
CONTINUOUS
  0
LAYER
  2
ETC
 70
     0
 62
    61
  6
CONTINUOUS
  0
LAYER
  2
FIX
 70
     0
 62
    11
  6
CONTINUOUS
  0
LAYER
  2
NOTE
 70
     0
 62
     4
  6
CONTINUOUS
  0
LAYER
  2
DEFPOINTS
 70
    64
 62
     7
  6
CONTINUOUS
  0
LAYER
  2
SERVICESPACE
 70
    64
 62
     2
  6
DASHDOT
  0
LAYER
  2
SYMBOLLINE
 70
    64
 62
    15
  6
CONTINUOUS
  0
ENDTAB
  0
TABLE
  2
STYLE
 70
     1
  0
STYLE
  2
STANDARD
 70
     0
 40
64.0
 41
0.9
 50
0.0
 71
     0
 42
64.0
  3
SIMPLEX.shx
  4
BIGFONT.shx
  0
ENDTAB
  0
TABLE
  2
APPID
 70
    19
  0
APPID
  2
ACAD
 70
     0
  0
APPID
  2
AUTOCAD_POSTSCRIPT_FIGURE
 70
     0
  0
APPID
  2
ACAD_EXEMPT_FROM_CAD_STANDARDS
 70
     0
  0
APPID
  2
ACAD_PSEXT
 70
     0
  0
APPID
  2
ACAUTHENVIRON
 70
     0
  0
APPID
  2
GENIUS_GENOENT_13
 70
     0
  0
APPID
  2
GENIUS_GENCFG_13
 70
     0
  0
APPID
  2
GENIUS_GENCFG0_13
 70
     0
  0
APPID
  2
GENIUS_GENCFG1_13
 70
     0
  0
APPID
  2
GENIUS_GENCFG2_13
 70
     0
  0
APPID
  2
GENIUS_GENCFG3_13
 70
     0
  0
APPID
  2
GENIUS_GENCFG4_13
 70
     0
  0
APPID
  2
GENIUS_GEVCFG0_13
 70
     0
  0
APPID
  2
CONTENTBLOCKICON
 70
     0
  0
APPID
  2
CONTENTBLOCKDESCRIPTION
 70
     0
  0
APPID
  2
ACAD_NAV_VCDISPLAY
 70
     0
  0
APPID
  2
ACAD_MLEADERVER
 70
     0
  0
APPID
  2
ACDBDYNAMICBLOCKTRUENAME
 70
     0
  0
APPID
  2
ACDBDYNAMICBLOCKGUID
 70
     0
  0
ENDTAB
  0
TABLE
  2
DIMSTYLE
 70
     1
  0
DIMSTYLE
  2
STANDARD
 70
     0
  3

  4

  5
_ORIGIN
  6

  7

 40
1.0
 41
12.0
 42
20.0
 43
200.0
 44
20.0
 45
0.0
 46
0.0
 47
0.0
 48
0.0
140
64.0
141
0.09
142
0.0
143
25.399999999999999
144
1.0
145
0.0
146
1.0
147
25.0
 71
     0
 72
     0
 73
     0
 74
     0
 75
     0
 76
     0
 77
     1
 78
     8
170
     0
171
     2
172
     1
173
     0
174
     1
175
     0
176
     7
177
     7
178
     7
  0
ENDTAB
  0
TABLE
  2
VIEW
 70
     1
  0
VIEW
  2
ALL
 70
     0
 40
4282.6198079999986
 10
0.0
 20
41.309904000000003
 41
5940.0
 11
0.0
 21
0.0
 31
1.0
 12
0.0
 22
0.0
 32
0.0
 42
50.0
 43
0.0
 44
0.0
 50
0.0
 71
     0
  0
ENDTAB
  0
TABLE
  2
UCS
 70
     0
  0
ENDTAB
  0
TABLE
  2
VPORT
 70
     1
  0
VPORT
  2
*ACTIVE
 70
     0
 10
0.0
 20
0.0
 11
1.0
 21
1.0
 12
333.09175005775251
 22
205.39856958831481
 13
0.0
 23
0.0
 14
1.0
 24
1.0
 15
0.0
 25
0.0
 16
0.0
 26
0.0
 36
1.0
 17
0.0
 27
0.0
 37
0.0
 40
1082.5079949787109
 41
1.747787610619469
 42
50.0
 43
0.0
 44
0.0
 50
0.0
 51
0.0
 71
     0
 72
  1000
 73
     1
 74
     3
 75
     0
 76
     0
 77
     0
 78
     0
  0
ENDTAB
  0
ENDSEC
  0
SECTION
  2
BLOCKS
  0
BLOCK
  8
0
  2
_ORIGIN
 70
     0
 10
0.0
 20
0.0
 30
0.0
  3
_ORIGIN
  1
_ORIGIN
  0
CIRCLE
  8
0
  6
CONTINUOUS
 62
     7
 10
0.0
 20
0.0
 30
0.0
 40
0.5
  0
LINE
  8
0
  6
CONTINUOUS
 62
     7
 10
0.0
 20
0.0
 30
0.0
 11
-1.0
 21
0.0
 31
0.0
  0
ENDBLK
  8
0
  0
ENDSEC
  0
SECTION
  2
ENTITIES
  0
TEXT
  8
ETC
  6
CONTINUOUS
 62
    61
 10
312.32757223773751
 20
678.8122928192895
 30
0.0
 40
64.0
  1
EF-20UYS2-K_4
 41
0.9
  0
TEXT
  8
ETC
  6
CONTINUOUS
 62
    61
 10
308.14157823773712
 20
560.85698280445831
 30
0.0
 40
64.0
  1
産業扇
 41
0.9
  0
CIRCLE
  8
ARRANGE
  6
CONTINUOUS
 62
     1
 10
0.0
 20
0.0
 30
0.0
 40
40.0
  0
POINT
  8
ARRANGE
  6
CONTINUOUS
 62
     1
 10
0.0
 20
0.0
 30
0.0
  0
LINE
  8
BASIS
  6
DASHDOT
 62
     6
 10
0.0
 20
-191.24623465575999
 30
0.0
 11
0.0
 21
191.24623465575999
 31
0.0
  0
LINE
  8
BASIS
  6
DASHDOT
 62
     6
 10
60.757300133620447
 20
0.0
 30
0.0
 11
-125.4561247050906
 21
0.0
 31
0.0
  0
TEXT
  8
ETC
  6
CONTINUOUS
 62
    61
 10
358.84297648629308
 20
452.70820991823302
 30
0.0
 40
40.0
  1
EF-20UYS2-K
 41
0.9
  0
TEXT
  8
ETC
  6
CONTINUOUS
 62
    61
 10
358.84297648629308
 20
386.70820991823302
 30
0.0
 40
40.0
  1
EF-20UYSQ2-K
 41
0.9
  0
LINE
  8
DETAIL
  6
CONTINUOUS
 62
     5
 10
-70.486316617836792
 20
-174.59223031912481
 30
0.0
 11
-69.694335532243144
 21
-173.9982445049296
 31
0.0
  0
LINE
  8
DETAIL
  6
CONTINUOUS
 62
     5
 10
-69.694335532243144
 20
-173.9982445049296
 30
0.0
 11
-68.902354446649497
 21
-173.5230558535734
 31
0.0
  0
LINE
  8
DETAIL
  6
CONTINUOUS
 62
     5
 10
-68.902354446649497
 20
-173.5230558535734
 30
0.0
 11
-68.070774306776002
 21
-172.96866909365781
 31
0.0
  0
LINE
  8
DETAIL
  6
CONTINUOUS
 62
     5
 10
-68.070774306776002
 20
-172.96866909365781
 30
0.0
 11
-67.080797949783914
 21
-172.7706738222594
 31
0.0
  0
LINE
  8
DETAIL
  6
CONTINUOUS
 62
     5
 10
-67.080797949783914
 20
-172.7706738222594
 30
0.0
 11
-66.011623484232473
 21
-172.69147571369999
 31
0.0
  0
LINE
  8
DETAIL
  6
CONTINUOUS
 62
     5
 10
-66.011623484232473
 20
-172.69147571369999
 30
0.0
 11
-65.100845235799738
 21
-172.96866909365781
 31
0.0
  0
LINE
  8
DETAIL
  6
CONTINUOUS
 62
     5
 10
-65.100845235799738
 20
-172.96866909365781
 30
0.0
 11
-64.348463204485824
 21
-173.5230558535734
 31
0.0
  0
LINE
  8
DETAIL
  6
CONTINUOUS
 62
     5
 10
-64.348463204485824
 20
-173.5230558535734
 30
0.0
 11
-63.477284010332603
 21
-174.27543788488731
 31
0.0
  0
LINE
  8
DETAIL
  6
CONTINUOUS
 62
     5
 10
-63.477284010332603
 20
-174.27543788488731
 30
0.0
 11
-62.804100087578149
 21
-174.59223031912481
 31
0.0
  0
LINE
  8
DETAIL
  6
CONTINUOUS
 62
     5
 10
-62.804100087578149
 20
-174.59223031912481
 30
0.0
 11
-61.695326567746861
 21
-174.3942350477264
 31
0.0
  0
LINE
  8
DETAIL
  6
CONTINUOUS
 62
     5
 10
-61.695326567746861
 20
-174.3942350477264
 30
0.0
 11
-60.150963450839299
 21
-173.72105112497169
 31
0.0
  0
LINE
  8
DETAIL
  6
CONTINUOUS
 62
     5
 10
-60.150963450839299
 20
-173.72105112497169
 30
0.0
 11
-59.002590876728497
 21
-172.88947098509851
 31
0.0
  0
LINE
  8
DETAIL
  6
CONTINUOUS
 62
     5
 10
-74.010632448728529
 20
-215.77524676999559
 30
0.0
 11
-74.881811642881644
 21
-215.37925622719879
 31
0.0
  0
LINE
  8
DETAIL
  6
CONTINUOUS
 62
     5
 10
-68.902354446649497
 20
-193.52057826481359
 30
0.0
 11
-68.902354446649497
 21
-173.5230558535734
 31
0.0
  0
LINE
  8
DETAIL
  6
CONTINUOUS
 62
     5
 10
-61.101340753551654
 20
-193.52057826481359
 30
0.0
 11
-61.101340753551654
 21
-174.0774426134889
 31
0.0
  0
LINE
  8
DETAIL
  6
CONTINUOUS
 62
     5
 10
-68.902354446649497
 20
-193.52057826481359
 30
0.0
 11
-61.101340753551654
 21
-193.52057826481359
 31
0.0
  0
LINE
  8
DETAIL
  6
CONTINUOUS
 62
     5
 10
-63.794076444570123
 20
-193.52057826481359
 30
0.0
 11
-63.794076444570123
 21
-210.983761202154
 31
0.0
  0
LINE
  8
DETAIL
  6
CONTINUOUS
 62
     5
 10
-66.17001970135118
 20
-193.52057826481359
 30
0.0
 11
-66.17001970135118
 21
-210.983761202154
 31
0.0
  0
LINE
  8
DETAIL
  6
CONTINUOUS
 62
     5
 10
-66.17001970135118
 20
-210.983761202154
 30
0.0
 11
-63.794076444570123
 21
-210.983761202154
 31
0.0
  0
LINE
  8
DETAIL
  6
CONTINUOUS
 62
     5
 10
-62.289312381942182
 20
-193.52057826481359
 30
0.0
 11
-56.468251402828741
 21
-209.51859619380571
 31
0.0
  0
LINE
  8
DETAIL
  6
CONTINUOUS
 62
     5
 10
-63.794076444570123
 20
-196.3717101729508
 30
0.0
 11
-58.685798442491091
 21
-210.38977538795879
 31
0.0
  0
LINE
  8
DETAIL
  6
CONTINUOUS
 62
     5
 10
-58.685798442491091
 20
-210.38977538795879
 30
0.0
 11
-56.468251402828741
 21
-209.51859619380571
 31
0.0
  0
LINE
  8
DETAIL
  6
CONTINUOUS
 62
     5
 10
-66.17001970135118
 20
-196.3717101729508
 30
0.0
 11
-71.159500540591239
 21
-210.38977538795879
 31
0.0
  0
LINE
  8
DETAIL
  6
CONTINUOUS
 62
     5
 10
-67.674783763979121
 20
-193.52057826481359
 30
0.0
 11
-73.495844743092675
 21
-209.51859619380571
 31
0.0
  0
LINE
  8
DETAIL
  6
CONTINUOUS
 62
     5
 10
-71.159500540591239
 20
-210.38977538795879
 30
0.0
 11
-73.495844743092675
 21
-209.51859619380571
 31
0.0
  0
LINE
  8
DETAIL
  6
CONTINUOUS
 62
     5
 10
-71.872283517625533
 20
-210.07298295372129
 30
0.0
 11
-74.010632448728529
 21
-215.77524676999559
 31
0.0
  0
LINE
  8
DETAIL
  6
CONTINUOUS
 62
     5
 10
-72.822660820338115
 20
-209.79578957376339
 30
0.0
 11
-74.881811642881644
 21
-215.37925622719879
 31
0.0
  0
LINE
  8
DETAIL
  6
CONTINUOUS
 62
     5
 10
-58.09181262829577
 20
-210.07298295372129
 30
0.0
 11
-55.993062751472507
 21
-215.77524676999559
 31
0.0
  0
LINE
  8
DETAIL
  6
CONTINUOUS
 62
     5
 10
-55.993062751472507
 20
-215.77524676999559
 30
0.0
 11
-55.082284503039659
 21
-215.37925622719879
 31
0.0
  0
LINE
  8
DETAIL
  6
CONTINUOUS
 62
     5
 10
-57.101836271303682
 20
-209.79578957376339
 30
0.0
 11
-55.082284503039659
 21
-215.37925622719879
 31
0.0
  0
LINE
  8
DETAIL
  6
CONTINUOUS
 62
     5
 10
-64.467260367324798
 20
-210.983761202154
 30
0.0
 11
-64.467260367324798
 21
-216.96321839838629
 31
0.0
  0
LINE
  8
DETAIL
  6
CONTINUOUS
 62
     5
 10
-64.467260367324798
 20
-216.96321839838629
 30
0.0
 11
-65.496835778596619
 21
-216.96321839838629
 31
0.0
  0
LINE
  8
DETAIL
  6
CONTINUOUS
 62
     5
 10
-65.496835778596619
 20
-210.983761202154
 30
0.0
 11
-65.496835778596619
 21
-216.96321839838629
 31
0.0
  0
LINE
  8
DETAIL
  6
CONTINUOUS
 62
     5
 10
-70.486316617836792
 20
-170.59272583687681
 30
0.0
 11
-69.694335532243144
 21
-169.99874002268149
 31
0.0
  0
LINE
  8
DETAIL
  6
CONTINUOUS
 62
     5
 10
-69.694335532243144
 20
-169.99874002268149
 30
0.0
 11
-68.902354446649497
 21
-169.48395231704569
 31
0.0
  0
LINE
  8
DETAIL
  6
CONTINUOUS
 62
     5
 10
-68.902354446649497
 20
-169.48395231704569
 30
0.0
 11
-68.070774306776002
 21
-168.9691646114097
 31
0.0
  0
LINE
  8
DETAIL
  6
CONTINUOUS
 62
     5
 10
-68.070774306776002
 20
-168.9691646114097
 30
0.0
 11
-67.080797949783914
 21
-168.7711693400114
 31
0.0
  0
LINE
  8
DETAIL
  6
CONTINUOUS
 62
     5
 10
-67.080797949783914
 20
-168.7711693400114
 30
0.0
 11
-66.011623484232473
 21
-168.69197123145199
 31
0.0
  0
LINE
  8
DETAIL
  6
CONTINUOUS
 62
     5
 10
-66.011623484232473
 20
-168.69197123145199
 30
0.0
 11
-65.100845235799738
 21
-168.9691646114097
 31
0.0
  0
LINE
  8
DETAIL
  6
CONTINUOUS
 62
     5
 10
-65.100845235799738
 20
-168.9691646114097
 30
0.0
 11
-64.348463204485824
 21
-169.48395231704569
 31
0.0
  0
LINE
  8
DETAIL
  6
CONTINUOUS
 62
     5
 10
-64.348463204485824
 20
-169.48395231704569
 30
0.0
 11
-63.477284010332603
 21
-170.2759334026392
 31
0.0
  0
LINE
  8
DETAIL
  6
CONTINUOUS
 62
     5
 10
-63.477284010332603
 20
-170.2759334026392
 30
0.0
 11
-62.804100087578149
 21
-170.59272583687681
 31
0.0
  0
LINE
  8
DETAIL
  6
CONTINUOUS
 62
     5
 10
-62.804100087578149
 20
-170.59272583687681
 30
0.0
 11
-61.695326567746861
 21
-170.39473056547831
 31
0.0
  0
LINE
  8
DETAIL
  6
CONTINUOUS
 62
     5
 10
-61.695326567746861
 20
-170.39473056547831
 30
0.0
 11
-60.150963450839299
 21
-169.72154664272381
 31
0.0
  0
LINE
  8
DETAIL
  6
CONTINUOUS
 62
     5
 10
-60.150963450839299
 20
-169.72154664272381
 30
0.0
 11
-59.002590876728497
 21
-168.8899665028504
 31
0.0
  0
LINE
  8
DETAIL
  6
CONTINUOUS
 62
     5
 10
-69.02115160948847
 20
-127.8461791943614
 30
0.0
 11
-69.02115160948847
 21
-169.48395231704569
 31
0.0
  0
LINE
  8
DETAIL
  6
CONTINUOUS
 62
     5
 10
-76.901363411145439
 20
-130.49931583110029
 30
0.0
 11
-69.02115160948847
 21
-133.5880420649155
 31
0.0
  0
LINE
  8
DETAIL
  6
CONTINUOUS
 62
     5
 10
-61.0221426449923
 20
-127.8461791943614
 30
0.0
 11
-61.0221426449923
 21
-170.0779381312409
 31
0.0
  0
LINE
  8
DETAIL
  6
CONTINUOUS
 62
     5
 10
-1.821556496865355
 20
-159.9009811813622
 30
0.0
 11
-4.474693133604319
 21
-159.26739631288731
 31
0.0
  0
LINE
  8
DETAIL
  6
CONTINUOUS
 62
     5
 10
-94.008154859968727
 20
-138.99268052168929
 30
0.0
 11
-97.572069745140197
 21
-138.9926805216891
 31
0.0
  0
LINE
  8
DETAIL
  6
CONTINUOUS
 62
     5
 10
-21.58148458242761
 20
-137.1711240248238
 30
0.0
 11
-61.0221426449923
 21
-137.1711240248238
 31
0.0
  0
LINE
  8
DETAIL
  6
CONTINUOUS
 62
     5
 10
-69.02115160948847
 20
-137.1711240248238
 30
0.0
 11
-90.998626734712843
 21
-137.1711240248238
 31
0.0
  0
LINE
  8
DETAIL
  6
CONTINUOUS
 62
     5
 10
-22.017074179503989
 20
-137.05232686198471
 30
0.0
 11
-61.0221426449923
 21
-137.05232686198471
 31
0.0
  0
LINE
  8
DETAIL
  6
CONTINUOUS
 62
     5
 10
-69.02115160948847
 20
-137.05232686198471
 30
0.0
 11
-90.998626734712843
 21
-137.05232686198471
 31
0.0
  0
LINE
  8
DETAIL
  6
CONTINUOUS
 62
     5
 10
-21.58148458242761
 20
-136.57713821062859
 30
0.0
 11
-22.017074179503989
 21
-136.57713821062859
 31
0.0
  0
LINE
  8
DETAIL
  6
CONTINUOUS
 62
     5
 10
-10.01856073275985
 20
-132.77562899977889
 30
0.0
 11
-10.493749384116089
 21
-132.77562899977889
 31
0.0
  0
LINE
  8
DETAIL
  6
CONTINUOUS
 62
     5
 10
-11.00853708975194
 20
-125.88539355511401
 30
0.0
 11
-10.493749384116089
 21
-125.88539355511401
 31
0.0
  0
LINE
  8
DETAIL
  6
CONTINUOUS
 62
     5
 10
-23.588308319073349
 20
-124.5617094811944
 30
0.0
 11
-12.077711555303379
 21
-124.4994266553251
 31
0.0
  0
LINE
  8
DETAIL
  6
CONTINUOUS
 62
     5
 10
-99.472824350565133
 20
-124.26183232964711
 30
0.0
 11
-98.997635699208899
 21
-124.26183232964711
 31
0.0
  0
LINE
  8
DETAIL
  6
CONTINUOUS
 62
     5
 10
-13.265683183694019
 20
-122.08388434426431
 30
0.0
 11
-15.998017928992111
 21
-122.08388434426431
 31
0.0
  0
LINE
  8
DETAIL
  6
CONTINUOUS
 62
     5
 10
-13.344881292253261
 20
-121.6878938014676
 30
0.0
 11
-15.998017928992111
 21
-121.6878938014676
 31
0.0
  0
LINE
  8
DETAIL
  6
CONTINUOUS
 62
     5
 10
-101.4923761188289
 20
-119.5891439246443
 30
0.0
 11
-101.0963855760322
 21
-119.5891439246443
 31
0.0
  0
LINE
  8
DETAIL
  6
CONTINUOUS
 62
     5
 10
-99.472824350565133
 20
-114.9164555196415
 30
0.0
 11
-98.997635699208899
 21
-114.9164555196415
 31
0.0
  0
LINE
  8
DETAIL
  6
CONTINUOUS
 62
     5
 10
-11.00853708975194
 20
-114.0452763254887
 30
0.0
 11
-10.493749384116089
 21
-114.0452763254887
 31
0.0
  0
LINE
  8
DETAIL
  6
CONTINUOUS
 62
     5
 10
-11.00853708975194
 20
-111.51093685158889
 30
0.0
 11
-15.998017928992111
 21
-111.51093685158889
 31
0.0
  0
LINE
  8
DETAIL
  6
CONTINUOUS
 62
     5
 10
-30.016083144000049
 20
-108.9765973776892
 30
0.0
 11
-11.00853708975194
 21
-108.9765973776892
 31
0.0
  0
LINE
  8
DETAIL
  6
CONTINUOUS
 62
     5
 10
-30.016083144000049
 20
-108.58060683489239
 30
0.0
 11
-11.00853708975194
 21
-108.58060683489239
 31
0.0
  0
LINE
  8
DETAIL
  6
CONTINUOUS
 62
     5
 10
-90.998626734712843
 20
-100.1064092190401
 30
0.0
 11
-97.176079202343431
 21
-95.671315139715489
 31
0.0
  0
LINE
  8
DETAIL
  6
CONTINUOUS
 62
     5
 10
-23.997026893488169
 20
-100.1064092190401
 30
0.0
 11
-90.998626734712843
 21
-100.1064092190401
 31
0.0
  0
LINE
  8
DETAIL
  6
CONTINUOUS
 62
     5
 10
-20.987498768232289
 20
-95.592117031156135
 30
0.0
 11
-97.176079202343431
 21
-95.592117031156135
 31
0.0
  0
LINE
  8
DETAIL
  6
CONTINUOUS
 62
     5
 10
-98.997635699208899
 20
-94.522942565604694
 30
0.0
 11
-98.166055559335518
 21
-94.522942565604694
 31
0.0
  0
LINE
  8
DETAIL
  6
CONTINUOUS
 62
     5
 10
-19.997522411240201
 20
-94.522942565604694
 30
0.0
 11
-20.789503496833849
 21
-94.522942565604694
 31
0.0
  0
LINE
  8
DETAIL
  6
CONTINUOUS
 62
     5
 10
-50.488794206596481
 20
-124.55945768914761
 30
0.0
 11
-60.150963450839299
 21
-120.87674564113721
 31
0.0
  0
LINE
  8
DETAIL
  6
CONTINUOUS
 62
     5
 10
-50.488794206596481
 20
-123.9654718749524
 30
0.0
 11
-60.150963450839299
 21
-120.24316077266219
 31
0.0
  0
LINE
  8
DETAIL
  6
CONTINUOUS
 62
     5
 10
-97.374074473741871
 20
-93.255772828654813
 30
0.0
 11
-20.987498768232289
 21
-93.255772828654813
 31
0.0
  0
LINE
  8
DETAIL
  6
CONTINUOUS
 62
     5
 10
-32.986012214976427
 20
-122.4006767785019
 30
0.0
 11
-30.016083144000049
 21
-124.4994266553251
 31
0.0
  0
LINE
  8
DETAIL
  6
CONTINUOUS
 62
     5
 10
-21.58148458242761
 20
-69.892330803641357
 30
0.0
 11
-22.09627228806346
 21
-69.892330803641357
 31
0.0
  0
LINE
  8
DETAIL
  6
CONTINUOUS
 62
     5
 10
-22.09627228806346
 20
-68.981552555208737
 30
0.0
 11
-25.50179095611611
 21
-68.981552555208737
 31
0.0
  0
LINE
  8
DETAIL
  6
CONTINUOUS
 62
     5
 10
-99.472824350565133
 20
-124.26183232964711
 30
0.0
 11
-99.472824350565133
 21
-114.9164555196415
 31
0.0
  0
LINE
  8
DETAIL
  6
CONTINUOUS
 62
     5
 10
-98.997635699208899
 20
-137.92350605613791
 30
0.0
 11
-98.997635699208899
 21
-69.100349718047823
 31
0.0
  0
LINE
  8
DETAIL
  6
CONTINUOUS
 62
     5
 10
-97.176079202343431
 20
-95.671315139715489
 30
0.0
 11
-97.176079202343431
 21
-93.255772828654813
 31
0.0
  0
LINE
  8
DETAIL
  6
CONTINUOUS
 62
     5
 10
-97.176079202343431
 20
-67.912378089657295
 30
0.0
 11
-97.176079202343431
 21
-67.516387546860415
 31
0.0
  0
LINE
  8
DETAIL
  6
CONTINUOUS
 62
     5
 10
-90.998626734712843
 20
-136.893930644866
 30
0.0
 11
-90.998626734712843
 21
-100.1064092190401
 31
0.0
  0
LINE
  8
DETAIL
  6
CONTINUOUS
 62
     5
 10
-97.374074473741871
 20
-67.912378089657295
 30
0.0
 11
-97.176079202343431
 21
-67.912378089657295
 31
0.0
  0
LINE
  8
DETAIL
  6
CONTINUOUS
 62
     5
 10
-97.176079202343431
 20
-67.516387546860415
 30
0.0
 11
-25.50179095611611
 21
-67.516387546860415
 31
0.0
  0
LINE
  8
DETAIL
  6
CONTINUOUS
 62
     5
 10
-22.09627228806346
 20
-65.972024429952739
 30
0.0
 11
-25.50179095611611
 21
-65.972024429952739
 31
0.0
  0
LINE
  8
DETAIL
  6
CONTINUOUS
 62
     5
 10
-21.58148458242761
 20
-65.100845235799738
 30
0.0
 11
-22.09627228806346
 21
-65.100845235799738
 31
0.0
  0
LINE
  8
DETAIL
  6
CONTINUOUS
 62
     5
 10
-20.789503496833849
 20
-60.665751156475267
 30
0.0
 11
-19.997522411240201
 21
-60.665751156475267
 31
0.0
  0
LINE
  8
DETAIL
  6
CONTINUOUS
 62
     5
 10
-32.986012214976427
 20
-110.7189557659952
 30
0.0
 11
-32.986012214976427
 21
-111.07534725451239
 31
0.0
  0
LINE
  8
DETAIL
  6
CONTINUOUS
 62
     5
 10
-32.986012214976427
 20
-122.4006767785019
 30
0.0
 11
-32.986012214976427
 21
-119.06312797516669
 31
0.0
  0
LINE
  8
DETAIL
  6
CONTINUOUS
 62
     5
 10
-30.016083144000049
 20
-108.58060683489239
 30
0.0
 11
-30.016083144000049
 21
-108.9765973776892
 31
0.0
  0
LINE
  8
DETAIL
  6
CONTINUOUS
 62
     5
 10
-25.50179095611611
 20
-68.981552555208737
 30
0.0
 11
-25.50179095611611
 21
-65.972024429952739
 31
0.0
  0
LINE
  8
DETAIL
  6
CONTINUOUS
 62
     5
 10
-22.09627228806346
 20
-69.892330803641357
 30
0.0
 11
-22.09627228806346
 21
-65.100845235799738
 31
0.0
  0
LINE
  8
DETAIL
  6
CONTINUOUS
 62
     5
 10
-22.017074179503989
 20
-136.57713821062859
 30
0.0
 11
-22.017074179503989
 21
-137.05232686198471
 31
0.0
  0
LINE
  8
DETAIL
  6
CONTINUOUS
 62
     5
 10
-20.987498768232289
 20
-97.968060287937078
 30
0.0
 11
-20.987498768232289
 21
-70.090326075039911
 31
0.0
  0
LINE
  8
DETAIL
  6
CONTINUOUS
 62
     5
 10
-20.789503496833849
 20
-78.089335039535968
 30
0.0
 11
-20.789503496833849
 21
-60.665751156475267
 31
0.0
  0
LINE
  8
DETAIL
  6
CONTINUOUS
 62
     5
 10
-19.997522411240311
 20
-137.48791645906121
 30
0.0
 11
-19.997522411240201
 21
-124.4994266553251
 31
0.0
  0
LINE
  8
DETAIL
  6
CONTINUOUS
 62
     5
 10
-19.997522411240201
 20
-108.58060683489239
 30
0.0
 11
-19.997522411240201
 21
-60.665751156475267
 31
0.0
  0
LINE
  8
DETAIL
  6
CONTINUOUS
 62
     5
 10
-18.017569697255912
 20
-120.57912028163641
 30
0.0
 11
-18.017569697255912
 21
-112.89690375137771
 31
0.0
  0
LINE
  8
DETAIL
  6
CONTINUOUS
 62
     5
 10
-11.00853708975194
 20
-125.88539355511401
 30
0.0
 11
-11.00853708975194
 21
-114.0452763254887
 31
0.0
  0
LINE
  8
DETAIL
  6
CONTINUOUS
 62
     5
 10
-10.493749384116089
 20
-132.77562899977889
 30
0.0
 11
-10.493749384116089
 21
-109.2537907576469
 31
0.0
  0
LINE
  8
DETAIL
  6
CONTINUOUS
 62
     5
 10
-10.493749384116089
 20
114.08487537976841
 30
0.0
 11
-10.493749384116089
 21
125.9249926093937
 31
0.0
  0
LINE
  8
DETAIL
  6
CONTINUOUS
 62
     5
 10
-5.1478770563587659
 20
-158.5942123901327
 30
0.0
 11
-5.1478770563587659
 21
158.59421239013281
 31
0.0
  0
LINE
  8
DETAIL
  6
CONTINUOUS
 62
     5
 10
0.0
 20
-158.51501428157329
 30
0.0
 11
0.0
 21
158.47541522729369
 31
0.0
  0
LINE
  8
DETAIL
  6
CONTINUOUS
 62
     5
 10
-69.813132695082118
 20
-120.24316077266219
 30
0.0
 11
-79.356504776485849
 21
-123.9654718749524
 31
0.0
  0
LINE
  8
DETAIL
  6
CONTINUOUS
 62
     5
 10
-69.813132695082118
 20
-120.87674564113721
 30
0.0
 11
-79.356504776485849
 21
-124.55945768914761
 31
0.0
  0
LINE
  8
DETAIL
  6
CONTINUOUS
 62
     5
 10
-32.986012214976427
 20
-110.7189557659952
 30
0.0
 11
-30.016083144000049
 21
-108.58060683489239
 31
0.0
  0
LINE
  8
DETAIL
  6
CONTINUOUS
 62
     5
 10
-30.016083144000049
 20
-108.9765973776892
 30
0.0
 11
-32.986012214976427
 21
-111.07534725451239
 31
0.0
  0
LINE
  8
DETAIL
  6
CONTINUOUS
 62
     5
 10
-61.0221426449923
 20
-133.5880420649155
 30
0.0
 11
-53.102331789055711
 21
-130.49931583110029
 31
0.0
  0
LINE
  8
DETAIL
  6
CONTINUOUS
 62
     5
 10
-10.493749384116089
 20
114.08487537976841
 30
0.0
 11
-10.01856073275985
 21
114.08487537976841
 31
0.0
  0
LINE
  8
DETAIL
  6
CONTINUOUS
 62
     5
 10
-10.493749384116089
 20
125.9249926093937
 30
0.0
 11
-10.01856073275985
 21
125.9249926093937
 31
0.0
  0
LINE
  8
DETAIL
  6
CONTINUOUS
 62
     5
 10
-1.821556496865355
 20
160.01977834420131
 30
0.0
 11
-4.474693133604319
 21
159.42579253000619
 31
0.0
  0
LINE
  8
DETAIL
  6
CONTINUOUS
 62
     5
 10
-99.472824350565133
 20
-114.9164555196415
 30
0.0
 11
-100.7003950332354
 21
-116.57961579938841
 31
0.0
  0
LINE
  8
DETAIL
  6
CONTINUOUS
 62
     5
 10
-100.7003950332354
 20
-116.57961579938841
 30
0.0
 11
-101.3735789559898
 21
-118.51996945909291
 31
0.0
  0
LINE
  8
DETAIL
  6
CONTINUOUS
 62
     5
 10
-101.3735789559898
 20
-118.51996945909291
 30
0.0
 11
-101.3735789559898
 21
-120.57912028163641
 31
0.0
  0
LINE
  8
DETAIL
  6
CONTINUOUS
 62
     5
 10
-101.3735789559898
 20
-120.57912028163641
 30
0.0
 11
-100.7003950332354
 21
-122.5986720499002
 31
0.0
  0
LINE
  8
DETAIL
  6
CONTINUOUS
 62
     5
 10
-100.7003950332354
 20
-122.5986720499002
 30
0.0
 11
-99.472824350565133
 21
-124.26183232964711
 31
0.0
  0
LINE
  8
DETAIL
  6
CONTINUOUS
 62
     5
 10
-11.00853708975194
 20
-114.0452763254887
 30
0.0
 11
-12.55290020665961
 21
-116.0648280937525
 31
0.0
  0
LINE
  8
DETAIL
  6
CONTINUOUS
 62
     5
 10
-12.55290020665961
 20
-116.0648280937525
 30
0.0
 11
-13.344881292253261
 21
-118.5991675676522
 31
0.0
  0
LINE
  8
DETAIL
  6
CONTINUOUS
 62
     5
 10
-13.344881292253261
 20
-118.5991675676522
 30
0.0
 11
-13.344881292253261
 21
-121.252304204391
 31
0.0
  0
LINE
  8
DETAIL
  6
CONTINUOUS
 62
     5
 10
-13.344881292253261
 20
-121.252304204391
 30
0.0
 11
-12.55290020665961
 21
-123.7866436782908
 31
0.0
  0
LINE
  8
DETAIL
  6
CONTINUOUS
 62
     5
 10
-12.55290020665961
 20
-123.7866436782908
 30
0.0
 11
-11.00853708975194
 21
-125.88539355511401
 31
0.0
  0
LINE
  8
DETAIL
  6
CONTINUOUS
 62
     5
 10
-1.821556496865355
 20
-159.9009811813622
 30
0.0
 11
-1.2671697369497681
 21
-159.98017928992161
 31
0.0
  0
LINE
  8
DETAIL
  6
CONTINUOUS
 62
     5
 10
-1.2671697369497681
 20
-159.98017928992161
 30
0.0
 11
-0.8711791941530009
 21
-159.9009811813622
 31
0.0
  0
LINE
  8
DETAIL
  6
CONTINUOUS
 62
     5
 10
-0.8711791941530009
 20
-159.9009811813622
 30
0.0
 11
-0.475188651356234
 21
-159.5841887471247
 31
0.0
  0
LINE
  8
DETAIL
  6
CONTINUOUS
 62
     5
 10
-0.475188651356234
 20
-159.5841887471247
 30
0.0
 11
-0.1583962171187068
 21
-159.26739631288731
 31
0.0
  0
LINE
  8
DETAIL
  6
CONTINUOUS
 62
     5
 10
-0.1583962171187068
 20
-159.26739631288731
 30
0.0
 11
0.0
 21
-158.91100482437011
 31
0.0
  0
LINE
  8
DETAIL
  6
CONTINUOUS
 62
     5
 10
0.0
 20
-158.91100482437011
 30
0.0
 11
0.0
 21
-158.51501428157329
 31
0.0
  0
LINE
  8
DETAIL
  6
CONTINUOUS
 62
     5
 10
-21.58148458242761
 20
-65.100845235799738
 30
0.0
 11
-21.264692148190079
 21
-64.982048072960652
 31
0.0
  0
LINE
  8
DETAIL
  6
CONTINUOUS
 62
     5
 10
-21.264692148190079
 20
-64.982048072960652
 30
0.0
 11
-21.066696876791639
 21
-64.902849964401298
 31
0.0
  0
LINE
  8
DETAIL
  6
CONTINUOUS
 62
     5
 10
-21.066696876791639
 20
-64.902849964401298
 30
0.0
 11
-20.868701605393081
 21
-64.665255638723238
 31
0.0
  0
LINE
  8
DETAIL
  6
CONTINUOUS
 62
     5
 10
-20.868701605393081
 20
-64.665255638723238
 30
0.0
 11
-20.789503496833849
 21
-64.506859421604531
 31
0.0
  0
LINE
  8
DETAIL
  6
CONTINUOUS
 62
     5
 10
-20.789503496833849
 20
-70.684311889235119
 30
0.0
 11
-20.789503496833849
 21
-70.367519454997705
 31
0.0
  0
LINE
  8
DETAIL
  6
CONTINUOUS
 62
     5
 10
-20.789503496833849
 20
-70.367519454997705
 30
0.0
 11
-20.868701605393081
 21
-70.169524183599265
 31
0.0
  0
LINE
  8
DETAIL
  6
CONTINUOUS
 62
     5
 10
-20.868701605393081
 20
-70.169524183599265
 30
0.0
 11
-21.066696876791639
 21
-69.971528912200824
 31
0.0
  0
LINE
  8
DETAIL
  6
CONTINUOUS
 62
     5
 10
-21.066696876791639
 20
-69.971528912200824
 30
0.0
 11
-21.264692148190079
 21
-69.892330803641357
 31
0.0
  0
LINE
  8
DETAIL
  6
CONTINUOUS
 62
     5
 10
-21.264692148190079
 20
-69.892330803641357
 30
0.0
 11
-21.58148458242761
 21
-69.892330803641357
 31
0.0
  0
LINE
  8
DETAIL
  6
CONTINUOUS
 62
     5
 10
-5.1478770563587659
 20
-158.5942123901327
 30
0.0
 11
-5.0686789477994134
 21
-158.79220766153111
 31
0.0
  0
LINE
  8
DETAIL
  6
CONTINUOUS
 62
     5
 10
-5.0686789477994134
 20
-158.79220766153111
 30
0.0
 11
-4.9894808392400591
 21
-159.06940104148879
 31
0.0
  0
LINE
  8
DETAIL
  6
CONTINUOUS
 62
     5
 10
-4.9894808392400591
 20
-159.06940104148879
 30
0.0
 11
-4.7914855678417334
 21
-159.1881982043279
 31
0.0
  0
LINE
  8
DETAIL
  6
CONTINUOUS
 62
     5
 10
-4.7914855678417334
 20
-159.1881982043279
 30
0.0
 11
-4.474693133604319
 21
-159.26739631288731
 31
0.0
  0
LINE
  8
DETAIL
  6
CONTINUOUS
 62
     5
 10
-10.493749384116089
 20
125.9249926093937
 30
0.0
 11
-12.077711555303379
 21
123.94503989540959
 31
0.0
  0
LINE
  8
DETAIL
  6
CONTINUOUS
 62
     5
 10
-12.077711555303379
 20
123.94503989540959
 30
0.0
 11
-12.86969264089714
 21
121.4107004215099
 31
0.0
  0
LINE
  8
DETAIL
  6
CONTINUOUS
 62
     5
 10
-12.86969264089714
 20
121.4107004215099
 30
0.0
 11
-12.86969264089714
 21
118.7179647304914
 31
0.0
  0
LINE
  8
DETAIL
  6
CONTINUOUS
 62
     5
 10
-12.86969264089714
 20
118.7179647304914
 30
0.0
 11
-12.077711555303379
 21
116.2232243108713
 31
0.0
  0
LINE
  8
DETAIL
  6
CONTINUOUS
 62
     5
 10
-12.077711555303379
 20
116.2232243108713
 30
0.0
 11
-10.493749384116089
 21
114.08487537976841
 31
0.0
  0
LINE
  8
DETAIL
  6
CONTINUOUS
 62
     5
 10
0.0
 20
158.47541522729369
 30
0.0
 11
0.0
 21
158.99020293292969
 31
0.0
  0
LINE
  8
DETAIL
  6
CONTINUOUS
 62
     5
 10
0.0
 20
158.99020293292969
 30
0.0
 11
-0.1583962171187068
 21
159.42579253000619
 31
0.0
  0
LINE
  8
DETAIL
  6
CONTINUOUS
 62
     5
 10
-0.1583962171187068
 20
159.42579253000619
 30
0.0
 11
-0.475188651356234
 21
159.7425849642436
 31
0.0
  0
LINE
  8
DETAIL
  6
CONTINUOUS
 62
     5
 10
-0.475188651356234
 20
159.7425849642436
 30
0.0
 11
-0.8711791941530009
 21
159.94058023564199
 31
0.0
  0
LINE
  8
DETAIL
  6
CONTINUOUS
 62
     5
 10
-0.8711791941530009
 20
159.94058023564199
 30
0.0
 11
-1.2671697369497681
 21
160.01977834420131
 31
0.0
  0
LINE
  8
DETAIL
  6
CONTINUOUS
 62
     5
 10
-1.2671697369497681
 20
160.01977834420131
 30
0.0
 11
-1.821556496865355
 21
160.01977834420131
 31
0.0
  0
LINE
  8
DETAIL
  6
CONTINUOUS
 62
     5
 10
-4.474693133604319
 20
159.42579253000619
 30
0.0
 11
-4.7914855678417334
 21
159.34659442144681
 31
0.0
  0
LINE
  8
DETAIL
  6
CONTINUOUS
 62
     5
 10
-4.7914855678417334
 20
159.34659442144681
 30
0.0
 11
-4.9894808392400591
 21
159.06940104148899
 31
0.0
  0
LINE
  8
DETAIL
  6
CONTINUOUS
 62
     5
 10
-4.9894808392400591
 20
159.06940104148899
 30
0.0
 11
-5.0686789477994134
 21
158.91100482437031
 31
0.0
  0
LINE
  8
DETAIL
  6
CONTINUOUS
 62
     5
 10
-5.0686789477994134
 20
158.91100482437031
 30
0.0
 11
-5.1478770563587659
 21
158.59421239013281
 31
0.0
  0
LINE
  8
DETAIL
  6
CONTINUOUS
 62
     5
 10
-20.789503496833849
 20
-70.367519454997705
 30
0.0
 11
-20.789503496833849
 21
-70.248722292158618
 31
0.0
  0
LINE
  8
DETAIL
  6
CONTINUOUS
 62
     5
 10
-20.789503496833849
 20
-70.248722292158618
 30
0.0
 11
-20.868701605393081
 21
-70.248722292158618
 31
0.0
  0
LINE
  8
DETAIL
  6
CONTINUOUS
 62
     5
 10
-20.868701605393081
 20
-70.248722292158618
 30
0.0
 11
-20.868701605393081
 21
-70.169524183599265
 31
0.0
  0
LINE
  8
DETAIL
  6
CONTINUOUS
 62
     5
 10
-20.868701605393081
 20
-70.169524183599265
 30
0.0
 11
-20.987498768232289
 21
-70.169524183599265
 31
0.0
  0
LINE
  8
DETAIL
  6
CONTINUOUS
 62
     5
 10
-10.493749384116089
 20
-111.7881302315467
 30
0.0
 11
-10.493749384116089
 21
-111.70893212298731
 31
0.0
  0
LINE
  8
DETAIL
  6
CONTINUOUS
 62
     5
 10
-10.493749384116089
 20
-111.70893212298731
 30
0.0
 11
-10.493749384116089
 21
-111.59013496014821
 31
0.0
  0
LINE
  8
DETAIL
  6
CONTINUOUS
 62
     5
 10
-10.493749384116089
 20
-111.59013496014821
 30
0.0
 11
-10.572947492675439
 21
-111.59013496014821
 31
0.0
  0
LINE
  8
DETAIL
  6
CONTINUOUS
 62
     5
 10
-10.572947492675439
 20
-111.59013496014821
 30
0.0
 11
-10.572947492675439
 21
-111.51093685158889
 31
0.0
  0
LINE
  8
DETAIL
  6
CONTINUOUS
 62
     5
 10
-10.572947492675439
 20
-111.51093685158889
 30
0.0
 11
-10.69174465551453
 21
-111.51093685158889
 31
0.0
  0
LINE
  8
DETAIL
  6
CONTINUOUS
 62
     5
 10
-10.69174465551453
 20
-111.51093685158889
 30
0.0
 11
-10.81054181835361
 21
-111.51093685158889
 31
0.0
  0
LINE
  8
DETAIL
  6
CONTINUOUS
 62
     5
 10
-10.81054181835361
 20
-111.51093685158889
 30
0.0
 11
-10.88973992691297
 21
-111.51093685158889
 31
0.0
  0
LINE
  8
DETAIL
  6
CONTINUOUS
 62
     5
 10
-10.88973992691297
 20
-111.51093685158889
 30
0.0
 11
-11.00853708975194
 21
-111.51093685158889
 31
0.0
  0
LINE
  8
DETAIL
  6
CONTINUOUS
 62
     5
 10
-98.997635699208899
 20
-69.100349718047823
 30
0.0
 11
-98.997635699208899
 21
-68.981552555208737
 31
0.0
  0
LINE
  8
DETAIL
  6
CONTINUOUS
 62
     5
 10
-98.997635699208899
 20
-68.981552555208737
 30
0.0
 11
-98.878838536369813
 21
-68.902354446649383
 31
0.0
  0
LINE
  8
DETAIL
  6
CONTINUOUS
 62
     5
 10
-98.878838536369813
 20
-68.902354446649383
 30
0.0
 11
-98.878838536369813
 21
-68.783557283810296
 31
0.0
  0
LINE
  8
DETAIL
  6
CONTINUOUS
 62
     5
 10
-98.878838536369813
 20
-68.783557283810296
 30
0.0
 11
-98.878838536369813
 21
-68.664760120971323
 31
0.0
  0
LINE
  8
DETAIL
  6
CONTINUOUS
 62
     5
 10
-98.878838536369813
 20
-68.664760120971323
 30
0.0
 11
-98.799640427810459
 21
-68.585562012411856
 31
0.0
  0
LINE
  8
DETAIL
  6
CONTINUOUS
 62
     5
 10
-98.799640427810459
 20
-68.585562012411856
 30
0.0
 11
-98.799640427810459
 21
-68.506363903852503
 31
0.0
  0
LINE
  8
DETAIL
  6
CONTINUOUS
 62
     5
 10
-98.799640427810459
 20
-68.506363903852503
 30
0.0
 11
-98.680843264971486
 21
-68.506363903852503
 31
0.0
  0
LINE
  8
DETAIL
  6
CONTINUOUS
 62
     5
 10
-98.680843264971486
 20
-68.506363903852503
 30
0.0
 11
-98.680843264971486
 21
-68.387566741013529
 31
0.0
  0
LINE
  8
DETAIL
  6
CONTINUOUS
 62
     5
 10
-98.680843264971486
 20
-68.387566741013529
 30
0.0
 11
-98.562046102132399
 21
-68.387566741013529
 31
0.0
  0
LINE
  8
DETAIL
  6
CONTINUOUS
 62
     5
 10
-98.562046102132399
 20
-68.387566741013529
 30
0.0
 11
-98.562046102132399
 21
-68.268769578174442
 31
0.0
  0
LINE
  8
DETAIL
  6
CONTINUOUS
 62
     5
 10
-98.562046102132399
 20
-68.268769578174442
 30
0.0
 11
-98.482847993572932
 21
-68.268769578174442
 31
0.0
  0
LINE
  8
DETAIL
  6
CONTINUOUS
 62
     5
 10
-98.482847993572932
 20
-68.268769578174442
 30
0.0
 11
-98.482847993572932
 21
-68.189571469615089
 31
0.0
  0
LINE
  8
DETAIL
  6
CONTINUOUS
 62
     5
 10
-98.482847993572932
 20
-68.189571469615089
 30
0.0
 11
-98.364050830733959
 21
-68.189571469615089
 31
0.0
  0
LINE
  8
DETAIL
  6
CONTINUOUS
 62
     5
 10
-98.364050830733959
 20
-68.189571469615089
 30
0.0
 11
-98.284852722174492
 21
-68.189571469615089
 31
0.0
  0
LINE
  8
DETAIL
  6
CONTINUOUS
 62
     5
 10
-98.284852722174492
 20
-68.189571469615089
 30
0.0
 11
-98.284852722174492
 21
-68.110373361055622
 31
0.0
  0
LINE
  8
DETAIL
  6
CONTINUOUS
 62
     5
 10
-98.284852722174492
 20
-68.110373361055622
 30
0.0
 11
-98.166055559335518
 21
-68.110373361055622
 31
0.0
  0
LINE
  8
DETAIL
  6
CONTINUOUS
 62
     5
 10
-98.166055559335518
 20
-68.110373361055622
 30
0.0
 11
-98.086857450776165
 21
-68.110373361055622
 31
0.0
  0
LINE
  8
DETAIL
  6
CONTINUOUS
 62
     5
 10
-98.086857450776165
 20
-68.110373361055622
 30
0.0
 11
-98.086857450776165
 21
-67.991576198216649
 31
0.0
  0
LINE
  8
DETAIL
  6
CONTINUOUS
 62
     5
 10
-98.086857450776165
 20
-67.991576198216649
 30
0.0
 11
-98.007659342216812
 21
-67.991576198216649
 31
0.0
  0
LINE
  8
DETAIL
  6
CONTINUOUS
 62
     5
 10
-98.007659342216812
 20
-67.991576198216649
 30
0.0
 11
-97.888862179377725
 21
-67.991576198216649
 31
0.0
  0
LINE
  8
DETAIL
  6
CONTINUOUS
 62
     5
 10
-97.888862179377725
 20
-67.991576198216649
 30
0.0
 11
-97.809664070818371
 21
-67.991576198216649
 31
0.0
  0
LINE
  8
DETAIL
  6
CONTINUOUS
 62
     5
 10
-97.809664070818371
 20
-67.991576198216649
 30
0.0
 11
-97.690866907979284
 21
-67.991576198216649
 31
0.0
  0
LINE
  8
DETAIL
  6
CONTINUOUS
 62
     5
 10
-97.690866907979284
 20
-67.991576198216649
 30
0.0
 11
-97.572069745140197
 21
-67.912378089657295
 31
0.0
  0
LINE
  8
DETAIL
  6
CONTINUOUS
 62
     5
 10
-97.572069745140197
 20
-67.912378089657295
 30
0.0
 11
-97.492871636580844
 21
-67.912378089657295
 31
0.0
  0
LINE
  8
DETAIL
  6
CONTINUOUS
 62
     5
 10
-97.492871636580844
 20
-67.912378089657295
 30
0.0
 11
-97.374074473741871
 21
-67.912378089657295
 31
0.0
  0
LINE
  8
DETAIL
  6
CONTINUOUS
 62
     5
 10
-5.1478770563587659
 20
-157.80223130453899
 30
0.0
 11
-7.4842212588602024
 21
-157.80223130453899
 31
0.0
  0
LINE
  8
DETAIL
  6
CONTINUOUS
 62
     5
 10
-11.998513446744139
 20
-139.98265687868141
 30
0.0
 11
-17.502781991620171
 21
-139.98265687868141
 31
0.0
  0
LINE
  8
DETAIL
  6
CONTINUOUS
 62
     5
 10
-16.47320658034835
 20
-104.9770928954412
 30
0.0
 11
-13.503277509372079
 21
-104.9770928954412
 31
0.0
  0
LINE
  8
DETAIL
  6
CONTINUOUS
 62
     5
 10
-105.01669194972079
 20
-127.9841434319372
 30
0.0
 11
-105.01669194972079
 21
128.02374248621709
 31
0.0
  0
LINE
  8
DETAIL
  6
CONTINUOUS
 62
     5
 10
-101.0171874674727
 20
-127.9049453233779
 30
0.0
 11
-101.0171874674727
 21
-122.08388434426431
 31
0.0
  0
LINE
  8
DETAIL
  6
CONTINUOUS
 62
     5
 10
-101.0171874674727
 20
-117.0548044507445
 30
0.0
 11
-101.0171874674727
 21
128.02374248621709
 31
0.0
  0
LINE
  8
DETAIL
  6
CONTINUOUS
 62
     5
 10
-19.997522411240201
 20
-94.08735296852808
 30
0.0
 11
-19.997522411240201
 21
137.48791645906141
 31
0.0
  0
LINE
  8
DETAIL
  6
CONTINUOUS
 62
     5
 10
-10.01856073275985
 20
-155.2678918306392
 30
0.0
 11
-10.01856073275985
 21
155.34708993919881
 31
0.0
  0
LINE
  8
DETAIL
  6
CONTINUOUS
 62
     5
 10
0.0
 20
-158.51501428157329
 30
0.0
 11
0.0
 21
158.47541522729369
 31
0.0
  0
LINE
  8
DETAIL
  6
CONTINUOUS
 62
     5
 10
-13.503277509372079
 20
105.01669194972089
 30
0.0
 11
-16.47320658034835
 21
105.01669194972089
 31
0.0
  0
LINE
  8
DETAIL
  6
CONTINUOUS
 62
     5
 10
-33.50079992061228
 20
114.4808659225653
 30
0.0
 11
-90.998626734712843
 21
114.4808659225653
 31
0.0
  0
LINE
  8
DETAIL
  6
CONTINUOUS
 62
     5
 10
-11.998513446744139
 20
140.0222559329612
 30
0.0
 11
-17.502781991620171
 21
140.0222559329612
 31
0.0
  0
LINE
  8
DETAIL
  6
CONTINUOUS
 62
     5
 10
-5.1478770563587659
 20
157.80223130453911
 30
0.0
 11
-7.4842212588602024
 21
157.80223130453911
 31
0.0
  0
LINE
  8
DETAIL
  6
CONTINUOUS
 62
     5
 10
-101.0171874674727
 20
118.9951581104492
 30
0.0
 11
-98.086857450776165
 21
116.6192148536682
 31
0.0
  0
LINE
  8
DETAIL
  6
CONTINUOUS
 62
     5
 10
-98.086857450776165
 20
116.6192148536682
 30
0.0
 11
-94.681338782723401
 21
115.07485173676049
 31
0.0
  0
LINE
  8
DETAIL
  6
CONTINUOUS
 62
     5
 10
-94.681338782723401
 20
115.07485173676049
 30
0.0
 11
-90.998626734712843
 21
114.4808659225653
 31
0.0
  0
LINE
  8
DETAIL
  6
CONTINUOUS
 62
     5
 10
-19.997522411240201
 20
-101.4923761188289
 30
0.0
 11
-19.799527139841761
 21
-102.52195153010079
 31
0.0
  0
LINE
  8
DETAIL
  6
CONTINUOUS
 62
     5
 10
-19.799527139841761
 20
-102.52195153010079
 30
0.0
 11
-19.28473943420579
 21
-103.5119278870927
 31
0.0
  0
LINE
  8
DETAIL
  6
CONTINUOUS
 62
     5
 10
-19.28473943420579
 20
-103.5119278870927
 30
0.0
 11
-18.492758348612259
 21
-104.26430991840689
 31
0.0
  0
LINE
  8
DETAIL
  6
CONTINUOUS
 62
     5
 10
-18.492758348612259
 20
-104.26430991840689
 30
0.0
 11
-17.502781991620171
 21
-104.77909762404271
 31
0.0
  0
LINE
  8
DETAIL
  6
CONTINUOUS
 62
     5
 10
-17.502781991620171
 20
-104.77909762404271
 30
0.0
 11
-16.47320658034835
 21
-104.9770928954412
 31
0.0
  0
LINE
  8
DETAIL
  6
CONTINUOUS
 62
     5
 10
-10.01856073275985
 20
-108.501408726333
 30
0.0
 11
-10.097758841319321
 21
-107.39263520650169
 31
0.0
  0
LINE
  8
DETAIL
  6
CONTINUOUS
 62
     5
 10
-10.572947492675439
 20
-106.40265884950971
 30
0.0
 11
-11.3649285782692
 21
-105.5710787096364
 31
0.0
  0
LINE
  8
DETAIL
  6
CONTINUOUS
 62
     5
 10
-11.3649285782692
 20
-105.5710787096364
 30
0.0
 11
-12.354904935261169
 21
-105.0562910040005
 31
0.0
  0
LINE
  8
DETAIL
  6
CONTINUOUS
 62
     5
 10
-12.354904935261169
 20
-105.0562910040005
 30
0.0
 11
-13.503277509372079
 21
-104.9770928954412
 31
0.0
  0
LINE
  8
DETAIL
  6
CONTINUOUS
 62
     5
 10
-10.01856073275985
 20
-155.2678918306392
 30
0.0
 11
-9.8205654613615252
 21
-155.98067480767349
 31
0.0
  0
LINE
  8
DETAIL
  6
CONTINUOUS
 62
     5
 10
-9.8205654613615252
 20
-155.98067480767349
 30
0.0
 11
-9.503773027123998
 21
-156.69345778470779
 31
0.0
  0
LINE
  8
DETAIL
  6
CONTINUOUS
 62
     5
 10
-9.503773027123998
 20
-156.69345778470779
 30
0.0
 11
-8.8701881586490572
 21
-157.2478445446234
 31
0.0
  0
LINE
  8
DETAIL
  6
CONTINUOUS
 62
     5
 10
-8.8701881586490572
 20
-157.2478445446234
 30
0.0
 11
-8.1574051816146493
 21
-157.5646369788609
 31
0.0
  0
LINE
  8
DETAIL
  6
CONTINUOUS
 62
     5
 10
-8.1574051816146493
 20
-157.5646369788609
 30
0.0
 11
-7.4842212588602024
 21
-157.80223130453899
 31
0.0
  0
LINE
  8
DETAIL
  6
CONTINUOUS
 62
     5
 10
-33.50079992061228
 20
114.4808659225653
 30
0.0
 11
-30.016083144000049
 21
114.9956536282011
 31
0.0
  0
LINE
  8
DETAIL
  6
CONTINUOUS
 62
     5
 10
-30.016083144000049
 20
114.9956536282011
 30
0.0
 11
-26.689762584506639
 21
116.3420214737104
 31
0.0
  0
LINE
  8
DETAIL
  6
CONTINUOUS
 62
     5
 10
-26.689762584506639
 20
116.3420214737104
 30
0.0
 11
-23.878229730649078
 21
118.4803704048134
 31
0.0
  0
LINE
  8
DETAIL
  6
CONTINUOUS
 62
     5
 10
-23.878229730649078
 20
118.4803704048134
 30
0.0
 11
-21.819078908105549
 21
121.33150231295051
 31
0.0
  0
LINE
  8
DETAIL
  6
CONTINUOUS
 62
     5
 10
-21.819078908105549
 20
121.33150231295051
 30
0.0
 11
-20.353913899757341
 21
124.49942665532519
 31
0.0
  0
LINE
  8
DETAIL
  6
CONTINUOUS
 62
     5
 10
-20.353913899757341
 20
124.49942665532519
 30
0.0
 11
-19.997522411240201
 21
128.02374248621709
 31
0.0
  0
LINE
  8
DETAIL
  6
CONTINUOUS
 62
     5
 10
-16.47320658034835
 20
105.01669194972089
 30
0.0
 11
-17.502781991620171
 21
104.9374938411614
 31
0.0
  0
LINE
  8
DETAIL
  6
CONTINUOUS
 62
     5
 10
-17.502781991620171
 20
104.9374938411614
 30
0.0
 11
-18.492758348612259
 21
104.4227061355257
 31
0.0
  0
LINE
  8
DETAIL
  6
CONTINUOUS
 62
     5
 10
-18.492758348612259
 20
104.4227061355257
 30
0.0
 11
-19.28473943420579
 21
103.59112599565231
 31
0.0
  0
LINE
  8
DETAIL
  6
CONTINUOUS
 62
     5
 10
-19.28473943420579
 20
103.59112599565231
 30
0.0
 11
-19.799527139841761
 21
102.6011496386602
 31
0.0
  0
LINE
  8
DETAIL
  6
CONTINUOUS
 62
     5
 10
-19.799527139841761
 20
102.6011496386602
 30
0.0
 11
-19.997522411240201
 21
101.492376118829
 31
0.0
  0
LINE
  8
DETAIL
  6
CONTINUOUS
 62
     5
 10
-13.503277509372079
 20
105.01669194972089
 30
0.0
 11
-12.354904935261169
 21
105.21468722111931
 31
0.0
  0
LINE
  8
DETAIL
  6
CONTINUOUS
 62
     5
 10
-12.354904935261169
 20
105.21468722111931
 30
0.0
 11
-11.3649285782692
 21
105.7294749267552
 31
0.0
  0
LINE
  8
DETAIL
  6
CONTINUOUS
 62
     5
 10
-11.3649285782692
 20
105.7294749267552
 30
0.0
 11
-10.572947492675439
 21
106.4818569580691
 31
0.0
  0
LINE
  8
DETAIL
  6
CONTINUOUS
 62
     5
 10
-10.572947492675439
 20
106.4818569580691
 30
0.0
 11
-10.097758841319321
 21
107.4718333150613
 31
0.0
  0
LINE
  8
DETAIL
  6
CONTINUOUS
 62
     5
 10
-10.097758841319321
 20
107.4718333150613
 30
0.0
 11
-10.01856073275985
 21
108.501408726333
 31
0.0
  0
LINE
  8
DETAIL
  6
CONTINUOUS
 62
     5
 10
-7.4842212588602024
 20
157.80223130453911
 30
0.0
 11
-8.1574051816146493
 21
157.72303319597981
 31
0.0
  0
LINE
  8
DETAIL
  6
CONTINUOUS
 62
     5
 10
-8.1574051816146493
 20
157.72303319597981
 30
0.0
 11
-8.8701881586490572
 21
157.40624076174231
 31
0.0
  0
LINE
  8
DETAIL
  6
CONTINUOUS
 62
     5
 10
-8.8701881586490572
 20
157.40624076174231
 30
0.0
 11
-9.503773027123998
 21
156.81225494754699
 31
0.0
  0
LINE
  8
DETAIL
  6
CONTINUOUS
 62
     5
 10
-9.503773027123998
 20
156.81225494754699
 30
0.0
 11
-9.8205654613615252
 21
156.09947197051281
 31
0.0
  0
LINE
  8
DETAIL
  6
CONTINUOUS
 62
     5
 10
-9.8205654613615252
 20
156.09947197051281
 30
0.0
 11
-10.01856073275985
 21
155.34708993919881
 31
0.0
  0
ARC
  8
DETAIL
  6
CONTINUOUS
 62
     5
 10
-103.01693970859689
 20
128.00394295907719
 30
0.0
 40
1.9998502561829821
 50
0.5672664098575676
 51
179.43273359014239
  0
ARC
  8
DETAIL
  6
CONTINUOUS
 62
     5
 10
-17.3560213347663
 20
137.38273862413911
 30
0.0
 40
2.643594203725621
 50
93.182444378058747
 51
177.71983271551639
  0
ARC
  8
DETAIL
  6
CONTINUOUS
 62
     5
 10
-11.967399904095711
 20
141.97109510429701
 30
0.0
 40
1.949087521962255
 50
269.08534102305862
 51
0.914658976938192
  0
ARC
  8
DETAIL
  6
CONTINUOUS
 62
     5
 10
-29.91803812902759
 20
-85.54659279925005
 30
0.0
 40
2.7513137790879219
 50
180.5615206249997
 51
214.92593005724709
  0
ARC
  8
DETAIL
  6
CONTINUOUS
 62
     5
 10
-29.103948707788959
 20
-85.001850938285145
 30
0.0
 40
3.730704552642842
 50
214.62721665767421
 51
234.03757702159351
  0
ARC
  8
DETAIL
  6
CONTINUOUS
 62
     5
 10
-28.394186003850852
 20
-84.037521988161956
 30
0.0
 40
4.9280527901211286
 50
233.9425071881233
 51
250.05446815448781
  0
ARC
  8
DETAIL
  6
CONTINUOUS
 62
     5
 10
-27.995789088928571
 20
-82.937388714814347
 30
0.0
 40
6.0981010041778791
 50
250.06184182975099
 51
270.17905594163938
  0
ARC
  8
DETAIL
  6
CONTINUOUS
 62
     5
 10
-27.95767460826443
 20
-82.937388714814347
 30
0.0
 40
6.0981010041778783
 50
269.82094405836051
 51
289.93815817024893
  0
ARC
  8
DETAIL
  6
CONTINUOUS
 62
     5
 10
-27.55927769334221
 20
-84.03752198816187
 30
0.0
 40
4.9280527901212379
 50
289.94553184551222
 51
306.05749281187673
  0
ARC
  8
DETAIL
  6
CONTINUOUS
 62
     5
 10
-26.849514989403929
 20
-85.001850938285202
 30
0.0
 40
3.7307045526427411
 50
305.96242297840661
 51
325.37278334232701
  0
ARC
  8
DETAIL
  6
CONTINUOUS
 62
     5
 10
-26.035425568165351
 20
-85.546592799250078
 30
0.0
 40
2.751313779087889
 50
325.07406994275289
 51
359.43847937500033
  0
ARC
  8
DETAIL
  6
CONTINUOUS
 62
     5
 10
-26.035425568165351
 20
-85.600519797542262
 30
0.0
 40
2.751313779087889
 50
0.5615206249996779
 51
34.925930057247143
  0
ARC
  8
DETAIL
  6
CONTINUOUS
 62
     5
 10
-26.849514989403929
 20
-86.145261658507138
 30
0.0
 40
3.730704552642742
 50
34.627216657673102
 51
54.037577021593499
  0
ARC
  8
DETAIL
  6
CONTINUOUS
 62
     5
 10
-27.55927769334215
 20
-87.109590608630356
 30
0.0
 40
4.9280527901211286
 50
53.94250718812328
 51
70.054468154487807
  0
ARC
  8
DETAIL
  6
CONTINUOUS
 62
     5
 10
-27.95767460826443
 20
-88.209723881977993
 30
0.0
 40
6.0981010041778791
 50
70.061841829751046
 51
90.179055941639476
  0
ARC
  8
DETAIL
  6
CONTINUOUS
 62
     5
 10
-27.995789088928571
 20
-88.209723881977993
 30
0.0
 40
6.0981010041778783
 50
89.820944058360539
 51
109.938158170249
  0
ARC
  8
DETAIL
  6
CONTINUOUS
 62
     5
 10
-28.394186003850791
 20
-87.109590608630469
 30
0.0
 40
4.9280527901212379
 50
109.94553184551221
 51
126.0574928118767
  0
ARC
  8
DETAIL
  6
CONTINUOUS
 62
     5
 10
-29.103948707788959
 20
-86.145261658507195
 30
0.0
 40
3.7307045526428451
 50
125.96242297840649
 51
145.37278334232579
  0
ARC
  8
DETAIL
  6
CONTINUOUS
 62
     5
 10
-29.91803812902759
 20
-85.600519797542262
 30
0.0
 40
2.751313779087921
 50
145.07406994275291
 51
179.4384793750003
  0
ARC
  8
DETAIL
  6
CONTINUOUS
 62
     5
 10
-65.021647127240271
 20
-134.82732199154779
 30
0.0
 40
8.0456442164831827
 50
60.191556710591733
 51
119.8084432894086
  0
ARC
  8
DETAIL
  6
CONTINUOUS
 62
     5
 10
-103.01693970859669
 20
-127.9371195549802
 30
0.0
 40
2.0003050444581452
 50
181.34705349895299
 51
358.65294650104693
  0
ARC
  8
DETAIL
  6
CONTINUOUS
 62
     5
 10
-97.283876627882819
 20
-137.12345849652411
 30
0.0
 40
1.8913080796624171
 50
205.02494591591139
 51
261.23525879241748
  0
ARC
  8
DETAIL
  6
CONTINUOUS
 62
     5
 10
-94.343915090284327
 20
-135.16781295176131
 30
0.0
 40
3.8395763906644969
 50
275.01676365972111
 51
330.60596993641701
  0
ARC
  8
DETAIL
  6
CONTINUOUS
 62
     5
 10
-11.844194935443401
 20
-141.80847231273461
 30
0.0
 40
1.8261609363425599
 50
1.3761763214644549
 51
91.114552212069356
  0
ARC
  8
DETAIL
  6
CONTINUOUS
 62
     5
 10
-17.19318938543347
 20
-137.17832385287451
 30
0.0
 40
2.821370465117337
 50
186.2998255559485
 51
263.70017444405158
  0
ARC
  8
DETAIL
  6
CONTINUOUS
 62
     5
 10
-21.220434381642459
 20
-135.91327171241019
 30
0.0
 40
1.308644217245996
 50
253.98456039374261
 51
339.14554196041848
  0
ARC
  8
DETAIL
  6
CONTINUOUS
 62
     5
 10
-23.652018231713441
 20
-97.368370384617151
 30
0.0
 40
2.759689771606153
 50
262.81825149070221
 51
344.90912964693479
  0
ARC
  8
DETAIL
  6
CONTINUOUS
 62
     5
 10
-16.510577028086232
 20
-112.9284361882527
 30
0.0
 40
1.5073225267030339
 50
70.120319167012866
 51
178.801313375728
  0
ARC
  8
DETAIL
  6
CONTINUOUS
 62
     5
 10
-16.362516905926672
 20
-120.4654727796068
 30
0.0
 40
1.658950118841515
 50
183.92816279192661
 51
282.69239154311299
  0
ARC
  8
DETAIL
  6
CONTINUOUS
 62
     5
 10
-53.842864870323979
 20
-126.2566854556038
 30
0.0
 40
4.0619514632055767
 50
280.50432126881498
 51
34.337540926890533
  0
ARC
  8
DETAIL
  6
CONTINUOUS
 62
     5
 10
-75.529480059053753
 20
-126.25562930663079
 30
0.0
 40
4.4599259242399896
 50
149.10297203465871
 51
252.08520840595671
  0
ARC
  8
DETAIL
  6
CONTINUOUS
 62
     5
 10
-64.982048072960538
 20
-135.07765910888429
 30
0.0
 40
15.6013371065904
 50
71.961356491659956
 51
108.03864350834721
  0
ARC
  8
DETAIL
  6
CONTINUOUS
 62
     5
 10
-64.982048072960538
 20
-136.08826746984141
 30
0.0
 40
15.960256106066771
 50
72.380476009125402
 51
107.6195239908746
  0
LINE
  8
OUTLINE
  6
CONTINUOUS
 62
     3
 10
-1.8215564968654689
 20
-159.9009811813622
 30
0.0
 11
-4.4746931336044327
 21
-159.26739631288731
 31
0.0
  0
LINE
  8
OUTLINE
  6
CONTINUOUS
 62
     3
 10
-94.008154859968727
 20
-138.99268052168929
 30
0.0
 11
-97.572069745140197
 21
-138.9926805216891
 31
0.0
  0
LINE
  8
OUTLINE
  6
CONTINUOUS
 62
     3
 10
-21.581484582427489
 20
-137.1711240248238
 30
0.0
 11
-69.02115160948847
 21
-137.05232686198471
 31
0.0
  0
LINE
  8
OUTLINE
  6
CONTINUOUS
 62
     3
 10
-69.02115160948847
 20
-137.1711240248238
 30
0.0
 11
-90.998626734712843
 21
-137.1711240248238
 31
0.0
  0
LINE
  8
OUTLINE
  6
CONTINUOUS
 62
     3
 10
-22.01707417950411
 20
-137.05232686198471
 30
0.0
 11
-61.0221426449923
 21
-137.05232686198471
 31
0.0
  0
LINE
  8
OUTLINE
  6
CONTINUOUS
 62
     3
 10
-69.02115160948847
 20
-137.05232686198471
 30
0.0
 11
-90.998626734712843
 21
-137.05232686198471
 31
0.0
  0
LINE
  8
OUTLINE
  6
CONTINUOUS
 62
     3
 10
-21.581484582427489
 20
-136.57713821062859
 30
0.0
 11
-22.01707417950411
 21
-136.57713821062859
 31
0.0
  0
LINE
  8
OUTLINE
  6
CONTINUOUS
 62
     3
 10
-98.997635699208786
 20
-137.92350605613791
 30
0.0
 11
-98.997635699208786
 21
-69.100349718047823
 31
0.0
  0
LINE
  8
OUTLINE
  6
CONTINUOUS
 62
     3
 10
-22.01707417950411
 20
-136.57713821062859
 30
0.0
 11
-22.01707417950411
 21
-137.05232686198471
 31
0.0
  0
LINE
  8
OUTLINE
  6
CONTINUOUS
 62
     3
 10
-5.1478770563587659
 20
-158.5942123901327
 30
0.0
 11
-5.1478770563587659
 21
158.59421239013281
 31
0.0
  0
LINE
  8
OUTLINE
  6
CONTINUOUS
 62
     3
 10
0.0
 20
-158.51501428157329
 30
0.0
 11
0.0
 21
158.47541522729369
 31
0.0
  0
LINE
  8
OUTLINE
  6
CONTINUOUS
 62
     3
 10
-1.8215564968654689
 20
160.01977834420131
 30
0.0
 11
-4.4746931336044327
 21
159.42579253000619
 31
0.0
  0
LINE
  8
OUTLINE
  6
CONTINUOUS
 62
     3
 10
-1.8215564968654689
 20
-159.9009811813622
 30
0.0
 11
-1.267169736949654
 21
-159.98017928992161
 31
0.0
  0
LINE
  8
OUTLINE
  6
CONTINUOUS
 62
     3
 10
-1.267169736949654
 20
-159.98017928992161
 30
0.0
 11
-0.8711791941530009
 21
-159.9009811813622
 31
0.0
  0
LINE
  8
OUTLINE
  6
CONTINUOUS
 62
     3
 10
-0.8711791941530009
 20
-159.9009811813622
 30
0.0
 11
-0.4751886513563477
 21
-159.5841887471247
 31
0.0
  0
LINE
  8
OUTLINE
  6
CONTINUOUS
 62
     3
 10
-0.4751886513563477
 20
-159.5841887471247
 30
0.0
 11
-0.1583962171187068
 21
-159.26739631288731
 31
0.0
  0
LINE
  8
OUTLINE
  6
CONTINUOUS
 62
     3
 10
-0.1583962171187068
 20
-159.26739631288731
 30
0.0
 11
0.0
 21
-158.91100482437011
 31
0.0
  0
LINE
  8
OUTLINE
  6
CONTINUOUS
 62
     3
 10
0.0
 20
-158.91100482437011
 30
0.0
 11
0.0
 21
-158.51501428157329
 31
0.0
  0
LINE
  8
OUTLINE
  6
CONTINUOUS
 62
     3
 10
-5.1478770563587659
 20
-158.5942123901327
 30
0.0
 11
-5.0686789477995262
 21
-158.79220766153111
 31
0.0
  0
LINE
  8
OUTLINE
  6
CONTINUOUS
 62
     3
 10
-5.0686789477995262
 20
-158.79220766153111
 30
0.0
 11
-4.9894808392400591
 21
-159.06940104148879
 31
0.0
  0
LINE
  8
OUTLINE
  6
CONTINUOUS
 62
     3
 10
-4.9894808392400591
 20
-159.06940104148879
 30
0.0
 11
-4.7914855678418462
 21
-159.1881982043279
 31
0.0
  0
LINE
  8
OUTLINE
  6
CONTINUOUS
 62
     3
 10
-4.7914855678418462
 20
-159.1881982043279
 30
0.0
 11
-4.4746931336044327
 21
-159.26739631288731
 31
0.0
  0
LINE
  8
OUTLINE
  6
CONTINUOUS
 62
     3
 10
0.0
 20
158.47541522729369
 30
0.0
 11
0.0
 21
158.99020293292969
 31
0.0
  0
LINE
  8
OUTLINE
  6
CONTINUOUS
 62
     3
 10
0.0
 20
158.99020293292969
 30
0.0
 11
-0.1583962171187068
 21
159.42579253000619
 31
0.0
  0
LINE
  8
OUTLINE
  6
CONTINUOUS
 62
     3
 10
-0.1583962171187068
 20
159.42579253000619
 30
0.0
 11
-0.4751886513563477
 21
159.7425849642436
 31
0.0
  0
LINE
  8
OUTLINE
  6
CONTINUOUS
 62
     3
 10
-0.4751886513563477
 20
159.7425849642436
 30
0.0
 11
-0.8711791941530009
 21
159.94058023564199
 31
0.0
  0
LINE
  8
OUTLINE
  6
CONTINUOUS
 62
     3
 10
-0.8711791941530009
 20
159.94058023564199
 30
0.0
 11
-1.267169736949654
 21
160.01977834420131
 31
0.0
  0
LINE
  8
OUTLINE
  6
CONTINUOUS
 62
     3
 10
-1.267169736949654
 20
160.01977834420131
 30
0.0
 11
-1.8215564968654689
 21
160.01977834420131
 31
0.0
  0
LINE
  8
OUTLINE
  6
CONTINUOUS
 62
     3
 10
-4.4746931336044327
 20
159.42579253000619
 30
0.0
 11
-4.7914855678418462
 21
159.34659442144681
 31
0.0
  0
LINE
  8
OUTLINE
  6
CONTINUOUS
 62
     3
 10
-4.7914855678418462
 20
159.34659442144681
 30
0.0
 11
-4.9894808392400591
 21
159.06940104148899
 31
0.0
  0
LINE
  8
OUTLINE
  6
CONTINUOUS
 62
     3
 10
-4.9894808392400591
 20
159.06940104148899
 30
0.0
 11
-5.0686789477995262
 21
158.91100482437031
 31
0.0
  0
LINE
  8
OUTLINE
  6
CONTINUOUS
 62
     3
 10
-5.0686789477995262
 20
158.91100482437031
 30
0.0
 11
-5.1478770563587659
 21
158.59421239013281
 31
0.0
  0
LINE
  8
OUTLINE
  6
CONTINUOUS
 62
     3
 10
-5.1478770563587659
 20
-157.80223130453899
 30
0.0
 11
-7.4842212588600887
 21
-157.80223130453899
 31
0.0
  0
LINE
  8
OUTLINE
  6
CONTINUOUS
 62
     3
 10
-11.99851344674425
 20
-139.98265687868141
 30
0.0
 11
-17.502781991620171
 21
-139.98265687868141
 31
0.0
  0
LINE
  8
OUTLINE
  6
CONTINUOUS
 62
     3
 10
-105.01669194972079
 20
-127.9841434319372
 30
0.0
 11
-105.01669194972079
 21
128.02374248621709
 31
0.0
  0
LINE
  8
OUTLINE
  6
CONTINUOUS
 62
     3
 10
-101.0171874674727
 20
-127.9049453233779
 30
0.0
 11
-101.0171874674727
 21
-122.08388434426431
 31
0.0
  0
LINE
  8
OUTLINE
  6
CONTINUOUS
 62
     3
 10
-101.0171874674727
 20
-117.0548044507445
 30
0.0
 11
-101.0171874674727
 21
128.02374248621709
 31
0.0
  0
LINE
  8
OUTLINE
  6
CONTINUOUS
 62
     3
 10
-10.01856073275985
 20
-155.2678918306392
 30
0.0
 11
-10.01856073275985
 21
155.34708993919881
 31
0.0
  0
LINE
  8
OUTLINE
  6
CONTINUOUS
 62
     3
 10
0.0
 20
-158.51501428157329
 30
0.0
 11
0.0
 21
158.47541522729369
 31
0.0
  0
LINE
  8
OUTLINE
  6
CONTINUOUS
 62
     3
 10
-33.50079992061228
 20
114.4808659225653
 30
0.0
 11
-90.998626734712843
 21
114.4808659225653
 31
0.0
  0
LINE
  8
OUTLINE
  6
CONTINUOUS
 62
     3
 10
-11.99851344674425
 20
140.0222559329612
 30
0.0
 11
-17.502781991620171
 21
140.0222559329612
 31
0.0
  0
LINE
  8
OUTLINE
  6
CONTINUOUS
 62
     3
 10
-5.1478770563587659
 20
157.80223130453911
 30
0.0
 11
-7.4842212588600887
 21
157.80223130453911
 31
0.0
  0
LINE
  8
OUTLINE
  6
CONTINUOUS
 62
     3
 10
-101.0171874674727
 20
118.9951581104492
 30
0.0
 11
-98.086857450776279
 21
116.6192148536682
 31
0.0
  0
LINE
  8
OUTLINE
  6
CONTINUOUS
 62
     3
 10
-98.086857450776279
 20
116.6192148536682
 30
0.0
 11
-94.681338782723287
 21
115.07485173676049
 31
0.0
  0
LINE
  8
OUTLINE
  6
CONTINUOUS
 62
     3
 10
-94.681338782723287
 20
115.07485173676049
 30
0.0
 11
-90.998626734712843
 21
114.4808659225653
 31
0.0
  0
LINE
  8
OUTLINE
  6
CONTINUOUS
 62
     3
 10
-10.01856073275985
 20
-155.2678918306392
 30
0.0
 11
-9.8205654613616389
 21
-155.98067480767349
 31
0.0
  0
LINE
  8
OUTLINE
  6
CONTINUOUS
 62
     3
 10
-9.8205654613616389
 20
-155.98067480767349
 30
0.0
 11
-9.503773027123998
 21
-156.69345778470779
 31
0.0
  0
LINE
  8
OUTLINE
  6
CONTINUOUS
 62
     3
 10
-9.503773027123998
 20
-156.69345778470779
 30
0.0
 11
-8.8701881586489435
 21
-157.2478445446234
 31
0.0
  0
LINE
  8
OUTLINE
  6
CONTINUOUS
 62
     3
 10
-8.8701881586489435
 20
-157.2478445446234
 30
0.0
 11
-8.1574051816146493
 21
-157.5646369788609
 31
0.0
  0
LINE
  8
OUTLINE
  6
CONTINUOUS
 62
     3
 10
-8.1574051816146493
 20
-157.5646369788609
 30
0.0
 11
-7.4842212588600887
 21
-157.80223130453899
 31
0.0
  0
LINE
  8
OUTLINE
  6
CONTINUOUS
 62
     3
 10
-33.50079992061228
 20
114.4808659225653
 30
0.0
 11
-30.016083144000049
 21
114.9956536282011
 31
0.0
  0
LINE
  8
OUTLINE
  6
CONTINUOUS
 62
     3
 10
-30.016083144000049
 20
114.9956536282011
 30
0.0
 11
-26.689762584506749
 21
116.3420214737104
 31
0.0
  0
LINE
  8
OUTLINE
  6
CONTINUOUS
 62
     3
 10
-26.689762584506749
 20
116.3420214737104
 30
0.0
 11
-23.878229730649078
 21
118.4803704048134
 31
0.0
  0
LINE
  8
OUTLINE
  6
CONTINUOUS
 62
     3
 10
-23.878229730649078
 20
118.4803704048134
 30
0.0
 11
-21.819078908105439
 21
121.33150231295051
 31
0.0
  0
LINE
  8
OUTLINE
  6
CONTINUOUS
 62
     3
 10
-21.819078908105439
 20
121.33150231295051
 30
0.0
 11
-20.353913899757341
 21
124.49942665532519
 31
0.0
  0
LINE
  8
OUTLINE
  6
CONTINUOUS
 62
     3
 10
-20.353913899757341
 20
124.49942665532519
 30
0.0
 11
-19.997522411240201
 21
128.02374248621709
 31
0.0
  0
LINE
  8
OUTLINE
  6
CONTINUOUS
 62
     3
 10
-7.4842212588600887
 20
157.80223130453911
 30
0.0
 11
-8.1574051816146493
 21
157.72303319597981
 31
0.0
  0
LINE
  8
OUTLINE
  6
CONTINUOUS
 62
     3
 10
-8.1574051816146493
 20
157.72303319597981
 30
0.0
 11
-8.8701881586489435
 21
157.40624076174231
 31
0.0
  0
LINE
  8
OUTLINE
  6
CONTINUOUS
 62
     3
 10
-8.8701881586489435
 20
157.40624076174231
 30
0.0
 11
-9.503773027123998
 21
156.81225494754699
 31
0.0
  0
LINE
  8
OUTLINE
  6
CONTINUOUS
 62
     3
 10
-9.503773027123998
 20
156.81225494754699
 30
0.0
 11
-9.8205654613616389
 21
156.09947197051281
 31
0.0
  0
LINE
  8
OUTLINE
  6
CONTINUOUS
 62
     3
 10
-9.8205654613616389
 20
156.09947197051281
 30
0.0
 11
-10.01856073275985
 21
155.34708993919881
 31
0.0
  0
ARC
  8
OUTLINE
  6
CONTINUOUS
 62
     3
 10
-103.01693970859699
 20
128.00394295907719
 30
0.0
 40
1.9998502561829821
 50
0.5672664098575676
 51
179.43273359014239
  0
ARC
  8
OUTLINE
  6
CONTINUOUS
 62
     3
 10
-17.35602133476641
 20
137.38273862413911
 30
0.0
 40
2.643594203725621
 50
93.182444378058747
 51
177.71983271551639
  0
ARC
  8
OUTLINE
  6
CONTINUOUS
 62
     3
 10
-11.967399904095601
 20
141.97109510429701
 30
0.0
 40
1.949087521962255
 50
269.08534102306498
 51
0.9146589769349356
  0
ARC
  8
OUTLINE
  6
CONTINUOUS
 62
     3
 10
-103.01693970859669
 20
-127.9371195549802
 30
0.0
 40
2.0003050444581452
 50
181.34705349895299
 51
358.65294650104693
  0
ARC
  8
OUTLINE
  6
CONTINUOUS
 62
     3
 10
-97.283876627882819
 20
-137.12345849652411
 30
0.0
 40
1.8913080796624171
 50
205.0249459159148
 51
261.23525879241748
  0
ARC
  8
OUTLINE
  6
CONTINUOUS
 62
     3
 10
-94.343915090284327
 20
-135.16781295176131
 30
0.0
 40
3.8395763906644969
 50
275.01676365971429
 51
330.60596993641701
  0
ARC
  8
OUTLINE
  6
CONTINUOUS
 62
     3
 10
-11.84419493544328
 20
-141.80847231273461
 30
0.0
 40
1.8261609363425599
 50
1.3761763214644549
 51
91.114552212069356
  0
ARC
  8
OUTLINE
  6
CONTINUOUS
 62
     3
 10
-17.19318938543347
 20
-137.17832385287451
 30
0.0
 40
2.821370465117337
 50
186.2998255559485
 51
263.70017444404482
  0
ARC
  8
OUTLINE
  6
CONTINUOUS
 62
     3
 10
-21.220434381642459
 20
-135.91327171241019
 30
0.0
 40
1.308644217245996
 50
253.98456039374889
 51
339.14554196042178
  0
LINE
  8
OUTLINE
  6
CONTINUOUS
 62
     3
 10
-19.997522411240201
 20
128.02374248621709
 30
0.0
 11
-19.997522411240201
 21
137.27756078921399
 31
0.0
  0
LINE
  8
OUTLINE
  6
CONTINUOUS
 62
     3
 10
-101.0171874674727
 20
-122.08388434426431
 30
0.0
 11
-98.997635699208786
 21
-122.08388434426431
 31
0.0
  0
CIRCLE
  8
DETAIL
  6
CONTINUOUS
 62
     5
 10
0.0
 20
140.0
 30
0.0
 40
4.9894808392400591
  0
LINE
  8
NOTE
  6
CONTINUOUS
 62
     4
 10
0.0
 20
154.96844251772029
 30
0.0
 11
0.0
 21
124.9919584279999
 31
0.0
  0
LINE
  8
NOTE
  6
CONTINUOUS
 62
     4
 10
-15.00804157200025
 20
140.0
 30
0.0
 11
14.968442517720289
 21
140.0
 31
0.0
  0
CIRCLE
  8
DETAIL
  6
CONTINUOUS
 62
     5
 10
0.0
 20
-140.04451186592249
 30
0.0
 40
4.9894808392400591
  0
LINE
  8
NOTE
  6
CONTINUOUS
 62
     4
 10
0.0
 20
-155.01295438364289
 30
0.0
 11
0.0
 21
-125.03647029392231
 31
0.0
  0
LINE
  8
NOTE
  6
CONTINUOUS
 62
     4
 10
-15.00804157200025
 20
-140.04451186592249
 30
0.0
 11
14.968442517720289
 21
-140.04451186592249
 31
0.0
  0
CIRCLE
  8
FIX
  6
CONTINUOUS
 62
    11
 10
0.0
 20
140.0
 30
0.0
 40
5.0
  0
CIRCLE
  8
FIX
  6
CONTINUOUS
 62
    11
 10
0.0
 20
-140.04451186592249
 30
0.0
 40
5.0
  0
LINE
  8
DETAIL
  6
CONTINUOUS
 62
     4
 10
-66.315577362713498
 20
-132.84860297293
 30
0.0
 11
-64.982048072960538
 21
-126.7817752249738
 31
0.0
  0
LINE
  8
DETAIL
  6
CONTINUOUS
 62
     4
 10
-64.982048072960538
 20
-126.7817752249738
 30
0.0
 11
-69.170339101296747
 21
-131.36903121869801
 31
0.0
  0
LINE
  8
DETAIL
  6
CONTINUOUS
 62
     4
 10
-64.982048072960538
 20
-126.7817752249738
 30
0.0
 11
-70.503868391049764
 21
-137.43585896665411
 31
0.0
  0
LINE
  8
NOTE
  6
CONTINUOUS
 62
     4
 10
-70.30509058719997
 20
-137.05232686198471
 30
0.0
 11
-149.83709149509349
 21
-290.21453743074733
 31
0.0
  0
LINE
  8
NOTE
  6
CONTINUOUS
 62
     4
 10
-149.83709149509349
 20
-290.21453743074733
 30
0.0
 11
-271.86566292366501
 21
-290.21453743074733
 31
0.0
  0
TEXT
  8
NOTE
  6
CONTINUOUS
 62
     4
 10
-249.00629388688341
 20
-266.423489037016
 30
0.0
 40
64.0
  1
EL
 41
0.9
 72
     2
 11
-163.977722458312
 21
-266.423489037016
 31
0.0
  0
LINE
  8
DETAIL
  6
CONTINUOUS
 62
     4
 10
6.0654717048070674
 20
141.3396836522794
 30
0.0
 11
0.0
 21
140.0
 31
0.0
  0
LINE
  8
DETAIL
  6
CONTINUOUS
 62
     4
 10
0.0
 20
140.0
 30
0.0
 11
4.583004437635168
 21
144.1929428346468
 31
0.0
  0
LINE
  8
DETAIL
  6
CONTINUOUS
 62
     4
 10
0.0
 20
140.0
 30
0.0
 11
10.648476142442229
 21
145.5326264869262
 31
0.0
  0
LINE
  8
NOTE
  6
CONTINUOUS
 62
     4
 10
10.648476142442229
 20
145.5326264869262
 30
0.0
 11
145.378709452376
 21
214.3025835247773
 31
0.0
  0
LINE
  8
NOTE
  6
CONTINUOUS
 62
     4
 10
145.378709452376
 20
214.3025835247773
 30
0.0
 11
451.1787094523761
 21
214.3025835247773
 31
0.0
  0
TEXT
  8
NOTE
  6
CONTINUOUS
 62
     4
 10
182.37870945237589
 20
271.30258352477722
 30
0.0
 40
64.0
  1
4-φ10
 41
0.9
  0
LINE
  8
SIZE
  6
CONTINUOUS
 62
    30
 10
18.732830263050349
 20
160.14389478298841
 30
0.0
 11
431.14954822974408
 21
160.14389478298841
 31
0.0
  0
LINE
  8
SIZE
  6
CONTINUOUS
 62
    30
 10
18.732830263050349
 20
-159.98017928992161
 30
0.0
 11
431.14954822974403
 21
-159.98017928992169
 31
0.0
  0
LINE
  8
SIZE
  6
CONTINUOUS
 62
    30
 10
411.14954822974408
 20
148.14389478298841
 30
0.0
 11
411.14954822974403
 21
-147.98017928992169
 31
0.0
  0
CIRCLE
  8
SIZE
  6
CONTINUOUS
 62
    30
 10
411.14954822974408
 20
160.14389478298841
 30
0.0
 40
6.0
  0
LINE
  8
SIZE
  6
CONTINUOUS
 62
    30
 10
411.14954822974408
 20
160.14389478298841
 30
0.0
 11
411.14954822974408
 21
148.14389478298841
 31
0.0
  0
CIRCLE
  8
SIZE
  6
CONTINUOUS
 62
    30
 10
411.14954822974403
 20
-159.98017928992169
 30
0.0
 40
6.0
  0
LINE
  8
SIZE
  6
CONTINUOUS
 62
    30
 10
411.14954822974403
 20
-159.98017928992169
 30
0.0
 11
411.14954822974403
 21
-147.98017928992169
 31
0.0
  0
TEXT
  8
SIZE
  6
CONTINUOUS
 62
    30
 10
386.14954822974403
 20
-71.050899282408778
 30
0.0
 40
64.0
  1
320
 50
90.0
 41
0.9
 72
     1
 11
386.14954822974403
 21
3.006243574734071
 31
0.0
  0
LINE
  8
SIZE
  6
CONTINUOUS
 62
    30
 10
34.968442517720291
 20
140.0
 30
0.0
 11
250.49128478298559
 21
139.99999999999989
 31
0.0
  0
LINE
  8
SIZE
  6
CONTINUOUS
 62
    30
 10
34.968442517720291
 20
-140.04451186592249
 30
0.0
 11
250.4912847829855
 21
-140.04451186592249
 31
0.0
  0
LINE
  8
SIZE
  6
CONTINUOUS
 62
    30
 10
230.49128478298559
 20
127.9999999999999
 30
0.0
 11
230.4912847829855
 21
-128.04451186592249
 31
0.0
  0
CIRCLE
  8
SIZE
  6
CONTINUOUS
 62
    30
 10
230.49128478298559
 20
139.99999999999989
 30
0.0
 40
6.0
  0
LINE
  8
SIZE
  6
CONTINUOUS
 62
    30
 10
230.49128478298559
 20
139.99999999999989
 30
0.0
 11
230.49128478298559
 21
127.9999999999999
 31
0.0
  0
CIRCLE
  8
SIZE
  6
CONTINUOUS
 62
    30
 10
230.4912847829855
 20
-140.04451186592249
 30
0.0
 40
6.0
  0
LINE
  8
SIZE
  6
CONTINUOUS
 62
    30
 10
230.4912847829855
 20
-140.04451186592249
 30
0.0
 11
230.4912847829855
 21
-128.04451186592249
 31
0.0
  0
TEXT
  8
SIZE
  6
CONTINUOUS
 62
    30
 10
205.4912847829855
 20
-73.36643801289928
 30
0.0
 40
64.0
  1
280
 50
90.0
 41
0.9
 72
     1
 11
205.4912847829855
 21
0.6907048442435553
 31
0.0
  0
LINE
  8
SIZE
  6
CONTINUOUS
 62
    30
 10
0.0
 20
211.24623465575999
 30
0.0
 11
0.0
 21
270.76900576395661
 31
0.0
  0
LINE
  8
SIZE
  6
CONTINUOUS
 62
    30
 10
-10.01856073275985
 20
175.34708993919881
 30
0.0
 11
-10.01856073275985
 21
270.76900576395661
 31
0.0
  0
LINE
  8
SIZE
  6
CONTINUOUS
 62
    30
 10
-22.018560732759848
 20
250.76900576395661
 30
0.0
 11
-34.018560732759852
 21
250.76900576395661
 31
0.0
  0
LINE
  8
SIZE
  6
CONTINUOUS
 62
    30
 10
12.0
 20
250.76900576395661
 30
0.0
 11
156.28571428571431
 21
250.76900576395661
 31
0.0
  0
LINE
  8
SIZE
  6
CONTINUOUS
 62
    30
 10
-10.01856073275985
 20
250.76900576395661
 30
0.0
 11
0.0
 21
250.76900576395661
 31
0.0
  0
CIRCLE
  8
SIZE
  6
CONTINUOUS
 62
    30
 10
-10.01856073275985
 20
250.76900576395661
 30
0.0
 40
6.0
  0
LINE
  8
SIZE
  6
CONTINUOUS
 62
    30
 10
-10.01856073275985
 20
250.76900576395661
 30
0.0
 11
-22.018560732759848
 21
250.76900576395661
 31
0.0
  0
CIRCLE
  8
SIZE
  6
CONTINUOUS
 62
    30
 10
0.0
 20
250.76900576395661
 30
0.0
 40
6.0
  0
LINE
  8
SIZE
  6
CONTINUOUS
 62
    30
 10
0.0
 20
250.76900576395661
 30
0.0
 11
12.0
 21
250.76900576395661
 31
0.0
  0
TEXT
  8
SIZE
  6
CONTINUOUS
 62
    30
 10
48.999999999999972
 20
275.76900576395661
 30
0.0
 40
64.0
  1
10
 41
0.9
 72
     1
 11
90.14285714285711
 21
275.76900576395661
 31
0.0
  0
LINE
  8
SIZE
  6
CONTINUOUS
 62
    30
 10
-10.01856073275985
 20
175.34708993919881
 30
0.0
 11
-10.01856073275985
 21
270.76900576395661
 31
0.0
  0
LINE
  8
SIZE
  6
CONTINUOUS
 62
    30
 10
-19.997522411240201
 20
157.27756078921399
 30
0.0
 11
-19.997522411240201
 21
270.76900576395661
 31
0.0
  0
LINE
  8
SIZE
  6
CONTINUOUS
 62
    30
 10
1.981439267240148
 20
250.76900576395661
 30
0.0
 11
13.98143926724015
 21
250.76900576395661
 31
0.0
  0
LINE
  8
SIZE
  6
CONTINUOUS
 62
    30
 10
-31.997522411240201
 20
250.76900576395661
 30
0.0
 11
-242.42609383981161
 21
250.76900576395661
 31
0.0
  0
LINE
  8
SIZE
  6
CONTINUOUS
 62
    30
 10
-10.01856073275985
 20
250.76900576395661
 30
0.0
 11
-19.997522411240201
 21
250.76900576395661
 31
0.0
  0
CIRCLE
  8
SIZE
  6
CONTINUOUS
 62
    30
 10
-10.01856073275985
 20
250.76900576395661
 30
0.0
 40
6.0
  0
LINE
  8
SIZE
  6
CONTINUOUS
 62
    30
 10
-10.01856073275985
 20
250.76900576395661
 30
0.0
 11
1.981439267240148
 21
250.76900576395661
 31
0.0
  0
CIRCLE
  8
SIZE
  6
CONTINUOUS
 62
    30
 10
-19.997522411240201
 20
250.76900576395661
 30
0.0
 40
6.0
  0
LINE
  8
SIZE
  6
CONTINUOUS
 62
    30
 10
-19.997522411240201
 20
250.76900576395661
 30
0.0
 11
-31.997522411240201
 21
250.76900576395661
 31
0.0
  0
TEXT
  8
SIZE
  6
CONTINUOUS
 62
    30
 10
-217.42609383981161
 20
275.76900576395661
 30
0.0
 40
64.0
  1
10
 41
0.9
 72
     1
 11
-176.28323669695439
 21
275.76900576395661
 31
0.0
  0
LINE
  8
SIZE
  6
CONTINUOUS
 62
    30
 10
0.0
 20
211.24623465575999
 30
0.0
 11
0.0
 21
394.23275624044891
 31
0.0
  0
LINE
  8
SIZE
  6
CONTINUOUS
 62
    30
 10
-105.01669194972079
 20
148.02374248621709
 30
0.0
 11
-105.01669194972079
 21
394.23275624044891
 31
0.0
  0
LINE
  8
SIZE
  6
CONTINUOUS
 62
    30
 10
12.0
 20
374.23275624044891
 30
0.0
 11
24.0
 21
374.23275624044891
 31
0.0
  0
LINE
  8
SIZE
  6
CONTINUOUS
 62
    30
 10
-117.01669194972079
 20
374.23275624044891
 30
0.0
 11
-129.01669194972081
 21
374.23275624044891
 31
0.0
  0
LINE
  8
SIZE
  6
CONTINUOUS
 62
    30
 10
0.0
 20
374.23275624044891
 30
0.0
 11
-105.01669194972079
 21
374.23275624044891
 31
0.0
  0
CIRCLE
  8
SIZE
  6
CONTINUOUS
 62
    30
 10
0.0
 20
374.23275624044891
 30
0.0
 40
6.0
  0
LINE
  8
SIZE
  6
CONTINUOUS
 62
    30
 10
0.0
 20
374.23275624044891
 30
0.0
 11
12.0
 21
374.23275624044891
 31
0.0
  0
CIRCLE
  8
SIZE
  6
CONTINUOUS
 62
    30
 10
-105.01669194972079
 20
374.23275624044891
 30
0.0
 40
6.0
  0
LINE
  8
SIZE
  6
CONTINUOUS
 62
    30
 10
-105.01669194972079
 20
374.23275624044891
 30
0.0
 11
-117.01669194972079
 21
374.23275624044891
 31
0.0
  0
TEXT
  8
SIZE
  6
CONTINUOUS
 62
    30
 10
-121.079774546289
 20
399.23275624044891
 30
0.0
 40
64.0
  1
105
 41
0.9
 72
     1
 11
-52.50834597486039
 21
399.23275624044891
 31
0.0
  0
LINE
  8
SIZE
  6
CONTINUOUS
 62
    30
 10
0.0
 20
-211.24623465575999
 30
0.0
 11
0.0
 21
-331.9916678450636
 31
0.0
  0
LINE
  8
SIZE
  6
CONTINUOUS
 62
    30
 10
-98.997635699208899
 20
-157.92350605613791
 30
0.0
 11
-98.997635699208928
 21
-331.9916678450636
 31
0.0
  0
LINE
  8
SIZE
  6
CONTINUOUS
 62
    30
 10
-86.997635699208899
 20
-311.9916678450636
 30
0.0
 11
-12.0
 21
-311.9916678450636
 31
0.0
  0
LINE
  8
SIZE
  6
CONTINUOUS
 62
    30
 10
0.0
 20
-311.9916678450636
 30
0.0
 11
187.34222031490759
 21
-311.9916678450636
 31
0.0
  0
CIRCLE
  8
SIZE
  6
CONTINUOUS
 62
    30
 10
-98.997635699208928
 20
-311.9916678450636
 30
0.0
 40
6.0
  0
LINE
  8
SIZE
  6
CONTINUOUS
 62
    30
 10
-98.997635699208928
 20
-311.9916678450636
 30
0.0
 11
-86.997635699208899
 21
-311.9916678450636
 31
0.0
  0
CIRCLE
  8
SIZE
  6
CONTINUOUS
 62
    30
 10
0.0
 20
-311.9916678450636
 30
0.0
 40
6.0
  0
LINE
  8
SIZE
  6
CONTINUOUS
 62
    30
 10
0.0
 20
-311.9916678450636
 30
0.0
 11
-12.0
 21
-311.9916678450636
 31
0.0
  0
TEXT
  8
SIZE
  6
CONTINUOUS
 62
    30
 10
71.82793460062193
 20
-286.9916678450636
 30
0.0
 40
64.0
  1
99
 41
0.9
 72
     1
 11
117.0850774577648
 21
-286.9916678450636
 31
0.0
  0
LINE
  8
SIZE
  6
CONTINUOUS
 62
    30
 10
-123.01693970859689
 20
130.0037932152602
 30
0.0
 11
-255.0511594722384
 21
130.0037932152602
 31
0.0
  0
LINE
  8
SIZE
  6
CONTINUOUS
 62
    30
 10
-123.01693970859669
 20
-129.93742459943829
 30
0.0
 11
-255.0511594722384
 21
-129.93742459943829
 31
0.0
  0
LINE
  8
SIZE
  6
CONTINUOUS
 62
    30
 10
-235.0511594722384
 20
118.0037932152602
 30
0.0
 11
-235.0511594722384
 21
-117.9374245994383
 31
0.0
  0
CIRCLE
  8
SIZE
  6
CONTINUOUS
 62
    30
 10
-235.0511594722384
 20
130.0037932152602
 30
0.0
 40
6.0
  0
LINE
  8
SIZE
  6
CONTINUOUS
 62
    30
 10
-235.0511594722384
 20
130.0037932152602
 30
0.0
 11
-235.0511594722384
 21
118.0037932152602
 31
0.0
  0
CIRCLE
  8
SIZE
  6
CONTINUOUS
 62
    30
 10
-235.0511594722384
 20
-129.93742459943829
 30
0.0
 40
6.0
  0
LINE
  8
SIZE
  6
CONTINUOUS
 62
    30
 10
-235.0511594722384
 20
-129.93742459943829
 30
0.0
 11
-235.0511594722384
 21
-117.9374245994383
 31
0.0
  0
TEXT
  8
SIZE
  6
CONTINUOUS
 62
    30
 10
-270.71782613890502
 20
-111.3708992824088
 30
0.0
 40
64.0
  1
φ260
 50
90.0
 41
0.9
 72
     1
 11
-270.71782613890502
 21
3.006243574734071
 31
0.0
  0
LINE
  8
DETAIL
  6
CONTINUOUS
 62
     5
 10
-48.095041116089078
 20
-114.7092203886352
 30
0.0
 11
-48.201746774131273
 21
-114.7092203886352
 31
0.0
  0
LINE
  8
DETAIL
  6
CONTINUOUS
 62
     5
 10
-31.377821356150889
 20
-179.79967179435161
 30
0.0
 11
-30.595313197175191
 21
-179.26614350414081
 31
0.0
  0
LINE
  8
DETAIL
  6
CONTINUOUS
 62
     5
 10
-30.595313197175191
 20
-179.26614350414081
 30
0.0
 11
-29.848373590879991
 21
-178.80375231929139
 31
0.0
  0
LINE
  8
DETAIL
  6
CONTINUOUS
 62
     5
 10
-29.848373590879991
 20
-178.80375231929139
 30
0.0
 11
-29.13700253726552
 21
-178.37692968712281
 31
0.0
  0
LINE
  8
DETAIL
  6
CONTINUOUS
 62
     5
 10
-29.13700253726552
 20
-178.37692968712281
 30
0.0
 11
-28.318925825609028
 21
-178.19908692371919
 31
0.0
  0
LINE
  8
DETAIL
  6
CONTINUOUS
 62
     5
 10
-28.318925825609028
 20
-178.19908692371919
 30
0.0
 11
-27.35857490322962
 21
-178.0568127129963
 31
0.0
  0
LINE
  8
DETAIL
  6
CONTINUOUS
 62
     5
 10
-27.35857490322962
 20
-178.0568127129963
 30
0.0
 11
-26.433792533530831
 21
-178.37692968712281
 31
0.0
  0
LINE
  8
DETAIL
  6
CONTINUOUS
 62
     5
 10
-26.433792533530831
 20
-178.37692968712281
 30
0.0
 11
-25.90026424332012
 21
-178.80375231929139
 31
0.0
  0
LINE
  8
DETAIL
  6
CONTINUOUS
 62
     5
 10
-25.90026424332012
 20
-178.80375231929139
 30
0.0
 11
-25.082187531663461
 21
-179.55069192558651
 31
0.0
  0
LINE
  8
DETAIL
  6
CONTINUOUS
 62
     5
 10
-25.082187531663461
 20
-179.55069192558651
 30
0.0
 11
-24.477522136091181
 21
-179.79967179435161
 31
0.0
  0
LINE
  8
DETAIL
  6
CONTINUOUS
 62
     5
 10
-24.477522136091181
 20
-179.79967179435161
 30
0.0
 11
-23.41046555566982
 21
-179.62182903094791
 31
0.0
  0
LINE
  8
DETAIL
  6
CONTINUOUS
 62
     5
 10
-23.41046555566982
 20
-179.62182903094791
 30
0.0
 11
-22.023292001121661
 21
-178.98159508269501
 31
0.0
  0
LINE
  8
DETAIL
  6
CONTINUOUS
 62
     5
 10
-22.023292001121661
 20
-178.98159508269501
 30
0.0
 11
-21.06294107874243
 21
-178.3057925817613
 31
0.0
  0
LINE
  8
DETAIL
  6
CONTINUOUS
 62
     5
 10
-31.377821356150889
 20
-176.2072479735989
 30
0.0
 11
-30.595313197175191
 21
-175.6737196833881
 31
0.0
  0
LINE
  8
DETAIL
  6
CONTINUOUS
 62
     5
 10
-30.595313197175191
 20
-175.6737196833881
 30
0.0
 11
-29.848373590879991
 21
-175.21132849853879
 31
0.0
  0
LINE
  8
DETAIL
  6
CONTINUOUS
 62
     5
 10
-29.848373590879991
 20
-175.21132849853879
 30
0.0
 11
-29.13700253726552
 21
-174.7845058663701
 31
0.0
  0
LINE
  8
DETAIL
  6
CONTINUOUS
 62
     5
 10
-29.13700253726552
 20
-174.7845058663701
 30
0.0
 11
-28.318925825609028
 21
-174.57109455028581
 31
0.0
  0
LINE
  8
DETAIL
  6
CONTINUOUS
 62
     5
 10
-28.318925825609028
 20
-174.57109455028581
 30
0.0
 11
-27.35857490322962
 21
-174.46438889224359
 31
0.0
  0
LINE
  8
DETAIL
  6
CONTINUOUS
 62
     5
 10
-27.35857490322962
 20
-174.46438889224359
 30
0.0
 11
-26.433792533530831
 21
-174.7845058663701
 31
0.0
  0
LINE
  8
DETAIL
  6
CONTINUOUS
 62
     5
 10
-26.433792533530831
 20
-174.7845058663701
 30
0.0
 11
-25.90026424332012
 21
-175.21132849853879
 31
0.0
  0
LINE
  8
DETAIL
  6
CONTINUOUS
 62
     5
 10
-25.90026424332012
 20
-175.21132849853879
 30
0.0
 11
-25.082187531663461
 21
-175.95826810483391
 31
0.0
  0
LINE
  8
DETAIL
  6
CONTINUOUS
 62
     5
 10
-25.082187531663461
 20
-175.95826810483391
 30
0.0
 11
-24.477522136091181
 21
-176.2072479735989
 31
0.0
  0
LINE
  8
DETAIL
  6
CONTINUOUS
 62
     5
 10
-24.477522136091181
 20
-176.2072479735989
 30
0.0
 11
-23.41046555566982
 21
-176.02940521019531
 31
0.0
  0
LINE
  8
DETAIL
  6
CONTINUOUS
 62
     5
 10
-23.41046555566982
 20
-176.02940521019531
 30
0.0
 11
-22.023292001121661
 21
-175.38917126194241
 31
0.0
  0
LINE
  8
DETAIL
  6
CONTINUOUS
 62
     5
 10
-22.023292001121661
 20
-175.38917126194241
 30
0.0
 11
-21.06294107874243
 21
-174.7133687610087
 31
0.0
  0
LINE
  8
DETAIL
  6
CONTINUOUS
 62
     5
 10
-51.225073751992227
 20
-114.7092203886352
 30
0.0
 11
-51.118368093950103
 21
-114.7092203886352
 31
0.0
  0
LINE
  8
DETAIL
  6
CONTINUOUS
 62
     5
 10
-54.212832177172693
 20
-107.77335261589501
 30
0.0
 11
-45.249556901631422
 21
-107.77335261589501
 31
0.0
  0
LINE
  8
DETAIL
  6
CONTINUOUS
 62
     5
 10
-54.212832177172693
 20
-107.77335261589501
 30
0.0
 11
-54.212832177172693
 21
-120.3290517121888
 31
0.0
  0
LINE
  8
DETAIL
  6
CONTINUOUS
 62
     5
 10
-45.249556901631422
 20
-107.77335261589501
 30
0.0
 11
-45.249556901631422
 21
-120.3290517121888
 31
0.0
  0
LINE
  8
DETAIL
  6
CONTINUOUS
 62
     5
 10
-23.232622792266
 20
-196.76587142305459
 30
0.0
 11
-23.232622792266
 21
-179.55069192558651
 31
0.0
  0
LINE
  8
DETAIL
  6
CONTINUOUS
 62
     5
 10
-23.232622792266
 20
-175.95826810483391
 30
0.0
 11
-23.232622792266
 21
-127.97629053854349
 31
0.0
  0
LINE
  8
DETAIL
  6
CONTINUOUS
 62
     5
 10
-29.492688064072642
 20
-196.76587142305459
 30
0.0
 11
-29.492688064072642
 21
-178.6614781085685
 31
0.0
  0
LINE
  8
DETAIL
  6
CONTINUOUS
 62
     5
 10
-29.492688064072642
 20
-175.06905428781579
 30
0.0
 11
-29.492688064072642
 21
-127.97629053854349
 31
0.0
  0
LINE
  8
DETAIL
  6
CONTINUOUS
 62
     5
 10
-23.232622792266
 20
-127.97629053854349
 30
0.0
 11
-23.588308319073349
 21
-124.5617094811944
 31
0.0
  0
LINE
  8
DETAIL
  6
CONTINUOUS
 62
     5
 10
-23.588308319073349
 20
-124.5617094811944
 30
0.0
 11
-24.477522136091181
 21
-121.2182655292068
 31
0.0
  0
LINE
  8
DETAIL
  6
CONTINUOUS
 62
     5
 10
-30.3107647757293
 20
-112.89522420191859
 30
0.0
 11
-33.085111884825103
 21
-110.9389538044789
 31
0.0
  0
LINE
  8
DETAIL
  6
CONTINUOUS
 62
     5
 10
-33.085111884825103
 20
-110.9389538044789
 30
0.0
 11
-36.250713073409322
 21
-109.4806431445695
 31
0.0
  0
LINE
  8
DETAIL
  6
CONTINUOUS
 62
     5
 10
-36.250713073409322
 20
-109.4806431445695
 30
0.0
 11
-39.558588472716281
 21
-108.5914293275515
 31
0.0
  0
LINE
  8
DETAIL
  6
CONTINUOUS
 62
     5
 10
-39.558588472716281
 20
-108.5914293275515
 30
0.0
 11
-42.973169530065427
 21
-108.2357438007443
 31
0.0
  0
LINE
  8
DETAIL
  6
CONTINUOUS
 62
     5
 10
-29.492688064072642
 20
-127.97629053854349
 30
0.0
 11
-29.955079248922122
 21
-124.5617094811944
 31
0.0
  0
LINE
  8
DETAIL
  6
CONTINUOUS
 62
     5
 10
-29.955079248922122
 20
-124.5617094811944
 30
0.0
 11
-31.306684250789491
 21
-121.2182655292068
 31
0.0
  0
LINE
  8
DETAIL
  6
CONTINUOUS
 62
     5
 10
-31.306684250789491
 20
-121.2182655292068
 30
0.0
 11
-33.440797411632452
 21
-118.47948697279141
 31
0.0
  0
LINE
  8
DETAIL
  6
CONTINUOUS
 62
     5
 10
-33.440797411632452
 20
-118.47948697279141
 30
0.0
 11
-36.250713073409322
 21
-116.38094236462901
 31
0.0
  0
LINE
  8
DETAIL
  6
CONTINUOUS
 62
     5
 10
-36.250713073409322
 20
-116.38094236462901
 30
0.0
 11
-39.451882814674093
 21
-115.02933736276169
 31
0.0
  0
LINE
  8
DETAIL
  6
CONTINUOUS
 62
     5
 10
-39.451882814674093
 20
-115.02933736276169
 30
0.0
 11
-42.973169530065427
 21
-114.5313776252316
 31
0.0
  0
LINE
  8
DETAIL
  6
CONTINUOUS
 62
     5
 10
-45.249556901631422
 20
-108.2357438007443
 30
0.0
 11
-42.973169530065427
 21
-108.2357438007443
 31
0.0
  0
LINE
  8
DETAIL
  6
CONTINUOUS
 62
     5
 10
-54.212832177172693
 20
-120.3290517121888
 30
0.0
 11
-51.865307700245133
 21
-120.3290517121888
 31
0.0
  0
LINE
  8
DETAIL
  6
CONTINUOUS
 62
     5
 10
-45.249556901631422
 20
-114.5313776252316
 30
0.0
 11
-42.973169530065427
 21
-114.5313776252316
 31
0.0
  0
LINE
  8
DETAIL
  6
CONTINUOUS
 62
     5
 10
-47.454807167835952
 20
-120.3290517121888
 30
0.0
 11
-45.249556901631422
 21
-120.3290517121888
 31
0.0
  0
LINE
  8
DETAIL
  6
CONTINUOUS
 62
     5
 10
-54.212832177172693
 20
-114.7092203886352
 30
0.0
 11
-45.249556901631422
 21
-114.7092203886352
 31
0.0
  0
LINE
  8
DETAIL
  6
CONTINUOUS
 62
     5
 10
-23.232622792266
 20
-196.76587142305459
 30
0.0
 11
-29.492688064072642
 21
-196.76587142305459
 31
0.0
  0
LINE
  8
DETAIL
  6
CONTINUOUS
 62
     5
 10
-30.48860753913306
 20
-217.6090432939562
 30
0.0
 11
-31.377821356150889
 21
-217.53790618859469
 31
0.0
  0
LINE
  8
DETAIL
  6
CONTINUOUS
 62
     5
 10
-30.48860753913306
 20
-212.20262328648681
 30
0.0
 11
-31.377821356150889
 21
-217.53790618859469
 31
0.0
  0
LINE
  8
DETAIL
  6
CONTINUOUS
 62
     5
 10
-29.56382516943421
 20
-212.309328944529
 30
0.0
 11
-30.48860753913306
 21
-217.6090432939562
 31
0.0
  0
LINE
  8
DETAIL
  6
CONTINUOUS
 62
     5
 10
-31.128841487385898
 20
-212.02478052308319
 30
0.0
 11
-28.959159773861931
 21
-212.48717170793259
 31
0.0
  0
LINE
  8
DETAIL
  6
CONTINUOUS
 62
     5
 10
-21.31192094750719
 20
-217.53790618859469
 30
0.0
 11
-22.20113476452519
 21
-217.6090432939562
 31
0.0
  0
LINE
  8
DETAIL
  6
CONTINUOUS
 62
     5
 10
-23.232622792266
 20
-212.309328944529
 30
0.0
 11
-22.20113476452519
 21
-217.6090432939562
 31
0.0
  0
LINE
  8
DETAIL
  6
CONTINUOUS
 62
     5
 10
-22.307840422567381
 20
-212.20262328648681
 30
0.0
 11
-21.31192094750719
 21
-217.53790618859469
 31
0.0
  0
LINE
  8
DETAIL
  6
CONTINUOUS
 62
     5
 10
-23.83728818783851
 20
-212.48717170793259
 30
0.0
 11
-21.703175026995101
 21
-212.02478052308319
 31
0.0
  0
LINE
  8
DETAIL
  6
CONTINUOUS
 62
     5
 10
-24.40638503072978
 20
-196.76587142305459
 30
0.0
 11
-21.703175026995101
 21
-212.02478052308319
 31
0.0
  0
LINE
  8
DETAIL
  6
CONTINUOUS
 62
     5
 10
-26.362655428169429
 20
-197.83292800347621
 30
0.0
 11
-23.83728818783851
 21
-212.48717170793259
 31
0.0
  0
LINE
  8
DETAIL
  6
CONTINUOUS
 62
     5
 10
-26.18481266476584
 20
-196.76587142305459
 30
0.0
 11
-28.959159773861931
 21
-212.48717170793259
 31
0.0
  0
LINE
  8
DETAIL
  6
CONTINUOUS
 62
     5
 10
-28.318925825609028
 20
-196.76587142305459
 30
0.0
 11
-31.128841487385898
 21
-212.02478052308319
 31
0.0
  0
ARC
  8
DETAIL
  6
CONTINUOUS
 62
     5
 10
-51.417401855662213
 20
-117.8015100038309
 30
0.0
 40
2.4041797495059618
 50
180.09787055227019
 51
214.70490277742681
  0
ARC
  8
DETAIL
  6
CONTINUOUS
 62
     5
 10
-50.676070183506447
 20
-117.3101710433324
 30
0.0
 40
3.2934188362508912
 50
214.38915111538699
 51
233.8020072544162
  0
ARC
  8
DETAIL
  6
CONTINUOUS
 62
     5
 10
-50.025978028156658
 20
-116.4348354658465
 30
0.0
 40
4.3837344408803878
 50
233.70190849127181
 51
249.73402023168879
  0
ARC
  8
DETAIL
  6
CONTINUOUS
 62
     5
 10
-49.656724917225567
 20
-115.4330894640205
 30
0.0
 40
5.4513685697192784
 50
249.74021157659729
 51
269.69159631860191
  0
ARC
  8
DETAIL
  6
CONTINUOUS
 62
     5
 10
-49.622228439719493
 20
-115.4333843057092
 30
0.0
 40
5.451368569718702
 50
269.32901249513799
 51
289.28039723714733
  0
ARC
  8
DETAIL
  6
CONTINUOUS
 62
     5
 10
-49.270151886177302
 20
-116.4412955183416
 30
0.0
 40
4.3837344408808976
 50
289.28658858205512
 51
305.3187003224682
  0
ARC
  8
DETAIL
  6
CONTINUOUS
 62
     5
 10
-48.635116612451498
 20
-117.3276150909488
 30
0.0
 40
3.293418836250241
 50
305.2186015593245
 51
324.63145769835728
  0
ARC
  8
DETAIL
  6
CONTINUOUS
 62
     5
 10
-47.902291586030742
 20
-117.83155368134911
 30
0.0
 40
2.4041797495062478
 50
324.31570603631758
 51
358.92273826146919
  0
ARC
  8
DETAIL
  6
CONTINUOUS
 62
     5
 10
-47.902713012418928
 20
-117.88086056880211
 30
0.0
 40
2.4041797495059618
 50
0.0978705522702276
 51
34.704902777426852
  0
ARC
  8
DETAIL
  6
CONTINUOUS
 62
     5
 10
-48.644044684574617
 20
-118.3721995293006
 30
0.0
 40
3.2934188362508912
 50
34.38915111538693
 51
53.80200725441621
  0
ARC
  8
DETAIL
  6
CONTINUOUS
 62
     5
 10
-49.294136839924477
 20
-119.2475351067865
 30
0.0
 40
4.3837344408803878
 50
53.701908491271801
 51
69.734020231688831
  0
ARC
  8
DETAIL
  6
CONTINUOUS
 62
     5
 10
-49.663389950855503
 20
-120.24928110861249
 30
0.0
 40
5.4513685697192784
 50
69.740211576597346
 51
89.691596318601825
  0
ARC
  8
DETAIL
  6
CONTINUOUS
 62
     5
 10
-49.697886428361578
 20
-120.24898626692389
 30
0.0
 40
5.451368569718702
 50
89.329012495138045
 51
109.2803972371473
  0
ARC
  8
DETAIL
  6
CONTINUOUS
 62
     5
 10
-50.049962981903832
 20
-119.2410750542913
 30
0.0
 40
4.3837344408808976
 50
109.2865885820551
 51
125.3187003224682
  0
ARC
  8
DETAIL
  6
CONTINUOUS
 62
     5
 10
-50.684998255629637
 20
-118.35475548168419
 30
0.0
 40
3.293418836250241
 50
125.2186015593245
 51
144.63145769835739
  0
ARC
  8
DETAIL
  6
CONTINUOUS
 62
     5
 10
-51.417823282050392
 20
-117.8508168912839
 30
0.0
 40
2.4041797495062478
 50
144.31570603631769
 51
178.92273826146919
  0
ARC
  8
DETAIL
  6
CONTINUOUS
 62
     5
 10
-74.905218611630062
 20
-110.1754613407156
 30
0.0
 40
6.2715899868190323
 50
100.2049520006077
 51
244.7410256798351
  0
ARC
  8
DETAIL
  6
CONTINUOUS
 62
     5
 10
-72.039965002847168
 20
-112.7858801186821
 30
0.0
 40
9.6410139066454317
 50
23.69448149989331
 51
114.3585316574632
  0
ARC
  8
DETAIL
  6
CONTINUOUS
 62
     5
 10
-71.724457995018668
 20
-113.51540286388961
 30
0.0
 40
6.6872083426080584
 50
33.744114705968038
 51
173.14624539987071
  0
ARC
  8
DETAIL
  6
CONTINUOUS
 62
     5
 10
-71.99274964891913
 20
-112.5262120175875
 30
0.0
 40
6.373997227513291
 50
181.7186772095553
 51
293.47223581326358
  0
ARC
  8
DETAIL
  6
CONTINUOUS
 62
     5
 10
-56.701753675146733
 20
-138.00551617358261
 30
0.0
 40
23.42887379971188
 50
83.901785600720842
 51
123.5486034346347
  0
ARC
  8
DETAIL
  6
CONTINUOUS
 62
     5
 10
-56.295383222185819
 20
-138.74635447327699
 30
0.0
 40
30.58160202582555
 50
86.095240494795974
 51
121.2821125192516
  0
ARC
  8
DETAIL
  6
CONTINUOUS
 62
     5
 10
-41.795886536709759
 20
-127.15027420424271
 30
0.0
 40
18.306132099198621
 50
18.907720357571279
 51
51.142026201513289
  0
ENDSEC
  0
EOF
