  0
SECTION
  2
HEADER
  9
$ACADVER
  1
AC1009
  9
$INSBASE
 10
0.0
 20
0.0
 30
0.0
  9
$EXTMIN
 10
-531.58720256945514
 20
-294.47935823639818
 30
-0.0015245716247421
  9
$EXTMAX
 10
738.24006250155981
 20
666.82434893076243
 30
100.0015260373428
  9
$LIMMIN
 10
-2970.0
 20
-2100.0
  9
$LIMMAX
 10
2970.0
 20
2100.0
  9
$ORTHOMODE
 70
     1
  9
$REGENMODE
 70
     1
  9
$FILLMODE
 70
     1
  9
$QTEXTMODE
 70
     0
  9
$MIRRTEXT
 70
     0
  9
$DRAGMODE
 70
     2
  9
$LTSCALE
 40
20.0
  9
$OSMODE
 70
    37
  9
$ATTMODE
 70
     1
  9
$TEXTSIZE
 40
64.0
  9
$TRACEWID
 40
0.05
  9
$TEXTSTYLE
  7
STANDARD
  9
$CLAYER
  8
SIZE
  9
$CELTYPE
  6
CONTINUOUS
  9
$CECOLOR
 62
     7
  9
$DIMSCALE
 40
1.0
  9
$DIMASZ
 40
12.0
  9
$DIMEXO
 40
20.0
  9
$DIMDLI
 40
200.0
  9
$DIMRND
 40
0.0
  9
$DIMDLE
 40
0.0
  9
$DIMEXE
 40
20.0
  9
$DIMTP
 40
0.0
  9
$DIMTM
 40
0.0
  9
$DIMTXT
 40
64.0
  9
$DIMCEN
 40
0.09
  9
$DIMTSZ
 40
0.0
  9
$DIMTOL
 70
     0
  9
$DIMLIM
 70
     0
  9
$DIMTIH
 70
     0
  9
$DIMTOH
 70
     0
  9
$DIMSE1
 70
     0
  9
$DIMSE2
 70
     0
  9
$DIMTAD
 70
     1
  9
$DIMZIN
 70
     8
  9
$DIMBLK
  1
DOT1
  9
$DIMASO
 70
     1
  9
$DIMSHO
 70
     0
  9
$DIMPOST
  1

  9
$DIMAPOST
  1

  9
$DIMALT
 70
     0
  9
$DIMALTD
 70
     2
  9
$DIMALTF
 40
25.399999999999999
  9
$DIMLFAC
 40
1.0
  9
$DIMTOFL
 70
     1
  9
$DIMTVP
 40
0.0
  9
$DIMTIX
 70
     1
  9
$DIMSOXD
 70
     0
  9
$DIMSAH
 70
     1
  9
$DIMBLK1
  1
ORIGIN
  9
$DIMBLK2
  1
ORIGIN
  9
$DIMSTYLE
  2
STANDARD
  9
$DIMCLRD
 70
     7
  9
$DIMCLRE
 70
     7
  9
$DIMCLRT
 70
     7
  9
$DIMTFAC
 40
1.0
  9
$DIMGAP
 40
25.0
  9
$LUNITS
 70
     2
  9
$LUPREC
 70
     4
  9
$SKETCHINC
 40
0.1
  9
$FILLETRAD
 40
0.5
  9
$AUNITS
 70
     1
  9
$AUPREC
 70
     3
  9
$MENU
  1
ACAD
  9
$ELEVATION
 40
0.0
  9
$PELEVATION
 40
0.0
  9
$THICKNESS
 40
50.0
  9
$LIMCHECK
 70
     0
  9
$BLIPMODE
 70
     0
  9
$CHAMFERA
 40
0.0
  9
$CHAMFERB
 40
0.0
  9
$SKPOLY
 70
     0
  9
$TDCREATE
 40
2453019.6230103709
  9
$TDUPDATE
 40
2454950.6536339121
  9
$TDINDWG
 40
0.9735440856000001
  9
$TDUSRTIMER
 40
0.9735439005
  9
$USRTIMER
 70
     1
  9
$ANGBASE
 50
0.0
  9
$ANGDIR
 70
     0
  9
$PDMODE
 70
     3
  9
$PDSIZE
 40
-2.0
  9
$PLINEWID
 40
0.0
  9
$COORDS
 70
     0
  9
$SPLFRAME
 70
     0
  9
$SPLINETYPE
 70
     6
  9
$SPLINESEGS
 70
     8
  9
$ATTDIA
 70
     0
  9
$ATTREQ
 70
     1
  9
$HANDLING
 70
     1
  9
$HANDSEED
  5
35A
  9
$SURFTAB1
 70
     6
  9
$SURFTAB2
 70
     6
  9
$SURFTYPE
 70
     6
  9
$SURFU
 70
     6
  9
$SURFV
 70
     6
  9
$UCSNAME
  2

  9
$UCSORG
 10
0.0
 20
0.0
 30
0.0
  9
$UCSXDIR
 10
1.0
 20
0.0
 30
0.0
  9
$UCSYDIR
 10
0.0
 20
1.0
 30
0.0
  9
$PUCSNAME
  2

  9
$PUCSORG
 10
0.0
 20
0.0
 30
0.0
  9
$PUCSXDIR
 10
1.0
 20
0.0
 30
0.0
  9
$PUCSYDIR
 10
0.0
 20
1.0
 30
0.0
  9
$USERI1
 70
     0
  9
$USERI2
 70
     0
  9
$USERI3
 70
     0
  9
$USERI4
 70
     0
  9
$USERI5
 70
     0
  9
$USERR1
 40
20.0
  9
$USERR2
 40
0.0
  9
$USERR3
 40
0.0
  9
$USERR4
 40
0.0
  9
$USERR5
 40
0.0
  9
$WORLDVIEW
 70
     1
  9
$SHADEDGE
 70
     3
  9
$SHADEDIF
 70
    70
  9
$TILEMODE
 70
     1
  9
$MAXACTVP
 70
    48
  9
$PLIMCHECK
 70
     0
  9
$PEXTMIN
 10
-1.0000000000000000E+020
 20
-1.0000000000000000E+020
 30
-1.0000000000000000E+020
  9
$PEXTMAX
 10
1.0000000000000000E+020
 20
1.0000000000000000E+020
 30
1.0000000000000000E+020
  9
$PLIMMIN
 10
0.0
 20
0.0
  9
$PLIMMAX
 10
12.0
 20
9.0
  9
$UNITMODE
 70
     0
  9
$VISRETAIN
 70
     0
  9
$PLINEGEN
 70
     0
  9
$PSLTSCALE
 70
     0
  0
ENDSEC
  0
SECTION
  2
TABLES
  0
TABLE
  2
VPORT
 70
     1
  0
VPORT
  2
*ACTIVE
 70
     0
 10
0.0
 20
0.0
 11
1.0
 21
1.0
 12
131.8618397732458
 22
159.6665140285628
 13
0.0
 23
0.0
 14
1.0
 24
1.0
 15
0.0
 25
0.0
 16
0.0
 26
0.0
 36
1.0
 17
0.0
 27
0.0
 37
0.0
 40
1095.914468183588
 41
1.3098995695839311
 42
50.0
 43
0.0
 44
0.0
 50
0.0
 51
0.0
 71
     0
 72
  1000
 73
     1
 74
     0
 75
     0
 76
     0
 77
     0
 78
     0
  0
ENDTAB
  0
TABLE
  2
LTYPE
 70
     3
  0
LTYPE
  2
CONTINUOUS
 70
     0
  3
実線
 72
    65
 73
     0
 40
0.0
  0
LTYPE
  2
DASHDOT
 70
     0
  3
____ _ ____ _ ____ _ ____ _ ____ _ ____ _ ____
 72
    65
 73
     4
 40
5.5
 49
4.0
 49
-0.6
 49
0.3
 49
-0.6
  0
ENDTAB
  0
TABLE
  2
LAYER
 70
    12
  0
LAYER
  2
0
 70
     0
 62
     7
  6
CONTINUOUS
  0
LAYER
  2
SIZE
 70
     0
 62
    30
  6
CONTINUOUS
  0
LAYER
  2
BASIS
 70
     0
 62
     6
  6
DASHDOT
  0
LAYER
  2
OUTLINE
 70
     0
 62
     3
  6
CONTINUOUS
  0
LAYER
  2
DETAIL
 70
     0
 62
     5
  6
CONTINUOUS
  0
LAYER
  2
ARRANGE
 70
     0
 62
     1
  6
CONTINUOUS
  0
LAYER
  2
DEFPOINTS
 70
     0
 62
     7
  6
CONTINUOUS
  0
LAYER
  2
ETC
 70
     0
 62
    61
  6
CONTINUOUS
  0
LAYER
  2
FIX
 70
     0
 62
    11
  6
CONTINUOUS
  0
LAYER
  2
NOTE
 70
     0
 62
     4
  6
CONTINUOUS
  0
LAYER
  2
SERVICESPACE
 70
     0
 62
     2
  6
DASHDOT
  0
LAYER
  2
SYMBOLLINE
 70
     0
 62
    15
  6
CONTINUOUS
  0
ENDTAB
  0
TABLE
  2
STYLE
 70
     2
  0
STYLE
  2
STANDARD
 70
     0
 40
64.0
 41
0.9
 50
0.0
 71
     0
 42
64.0
  3
SIMPLEX.shx
  4
BIGFONT.shx
  0
STYLE
  2
ANNOTATIVE
 70
     0
 40
0.0
 41
1.0
 50
0.0
 71
     0
 42
0.2
  3
txt
  4

  0
ENDTAB
  0
TABLE
  2
VIEW
 70
     1
  0
VIEW
  2
ALL
 70
     0
 40
4282.6198079999986
 10
0.0
 20
41.309903999999989
 41
5940.0
 11
0.0
 21
0.0
 31
1.0
 12
0.0
 22
0.0
 32
0.0
 42
50.0
 43
0.0
 44
0.0
 50
0.0
 71
     0
  0
ENDTAB
  0
TABLE
  2
UCS
 70
     0
  0
ENDTAB
  0
TABLE
  2
APPID
 70
     7
  0
APPID
  2
ACAD
 70
     0
  0
APPID
  2
ACADANNOTATIVE
 70
     0
  0
APPID
  2
ACAD_MLEADERVER
 70
     0
  0
APPID
  2
AUTOCAD_POSTSCRIPT_FIGURE
 70
     0
  0
APPID
  2
ACAD_EXEMPT_FROM_CAD_STANDARDS
 70
     0
  0
APPID
  2
ACAD_PSEXT
 70
     0
  0
APPID
  2
ACAUTHENVIRON
 70
     0
  0
ENDTAB
  0
TABLE
  2
DIMSTYLE
 70
     2
  0
DIMSTYLE
  2
STANDARD
 70
     0
  3

  4

  5

  6

  7

 40
1.0
 41
0.18
 42
0.0625
 43
0.38
 44
0.18
 45
0.0
 46
0.0
 47
0.0
 48
0.0
140
0.18
141
0.09
142
0.0
143
25.399999999999999
144
1.0
145
0.0
146
1.0
147
0.09
 71
     0
 72
     0
 73
     1
 74
     1
 75
     0
 76
     0
 77
     0
 78
     0
170
     0
171
     2
172
     0
173
     0
174
     0
175
     0
176
     7
177
     7
178
     7
  0
DIMSTYLE
  2
ANNOTATIVE
 70
     0
  3

  4

  5

  6

  7

 40
1.0
 41
0.18
 42
0.0625
 43
0.38
 44
0.18
 45
0.0
 46
0.0
 47
0.0
 48
0.0
140
0.18
141
0.09
142
0.0
143
25.399999999999999
144
1.0
145
0.0
146
1.0
147
0.09
 71
     0
 72
     0
 73
     1
 74
     1
 75
     0
 76
     0
 77
     0
 78
     0
170
     0
171
     2
172
     0
173
     0
174
     0
175
     0
176
     0
177
     0
178
     0
  0
ENDTAB
  0
ENDSEC
  0
SECTION
  2
BLOCKS
  0
BLOCK
  8
0
  2
$MODEL_SPACE
 70
     0
 10
0.0
 20
0.0
 30
0.0
  3
$MODEL_SPACE
  1

  0
ENDBLK
  5
76
  8
0
  0
BLOCK
 67
     1
  8
0
  2
$PAPER_SPACE
 70
     0
 10
0.0
 20
0.0
 30
0.0
  3
$PAPER_SPACE
  1

  0
ENDBLK
  5
72
 67
     1
  8
0
  0
BLOCK
  8
0
  2
DOT1
 70
     0
 10
0.0
 20
0.0
 30
0.0
  3
DOT1
  1

  0
CIRCLE
  5
8F
  8
SIZE
  6
CONTINUOUS
 62
     7
 10
0.0
 20
0.0
 30
0.0
 40
3.0
  0
ENDBLK
  5
90
  8
0
  0
BLOCK
  8
0
  2
_ORIGIN
 70
     0
 10
0.0
 20
0.0
 30
0.0
  3
_ORIGIN
  1

  0
CIRCLE
  5
93
  8
0
  6
CONTINUOUS
 62
     7
 10
0.0
 20
0.0
 30
0.0
 40
0.5
  0
LINE
  5
94
  8
0
  6
CONTINUOUS
 62
     7
 10
0.0
 20
0.0
 30
0.0
 11
-1.0
 21
0.0
 31
0.0
  0
ENDBLK
  5
95
  8
0
  0
ENDSEC
  0
SECTION
  2
ENTITIES
  0
CIRCLE
  5
99
  8
ARRANGE
  6
CONTINUOUS
 62
     1
 39
100.0
 10
0.0
 20
0.0
 30
0.0
 40
80.0
  0
ARC
  5
9A
  8
DETAIL
  6
CONTINUOUS
 62
     5
 10
0.000015
 20
0.0
 30
0.0
 40
116.5
 50
227.169219
 51
307.630019
  0
ARC
  5
9B
  8
DETAIL
  6
CONTINUOUS
 62
     5
 10
0.000015
 20
0.0
 30
0.0
 40
116.5
 50
134.326798
 51
225.673202
  0
ARC
  5
9C
  8
DETAIL
  6
CONTINUOUS
 62
     5
 10
0.000015
 20
0.0
 30
0.0
 40
116.5
 50
47.169218999999998
 51
132.830781
  0
ARC
  5
9D
  8
DETAIL
  6
CONTINUOUS
 62
     5
 10
0.000015
 20
0.0
 30
0.0
 40
116.5
 50
314.326798
 51
45.673202000000011
  0
ARC
  5
9E
  8
DETAIL
  6
CONTINUOUS
 62
     5
 10
75.000015000000005
 20
-132.0
 30
0.0
 40
15.0
 50
2.003042999999999
 51
179.435992
  0
ARC
  5
9F
  8
DETAIL
  6
CONTINUOUS
 62
     5
 10
131.19610599999999
 20
-97.985946000000013
 30
0.0
 40
8.0
 50
359.05987399999998
 51
87.996956999999995
  0
ARC
  5
A0
  8
DETAIL
  6
CONTINUOUS
 62
     5
 10
132.00001499999999
 20
-75.0
 30
0.0
 40
15.0
 50
90.564008000000001
 51
267.99695700000001
  0
ARC
  5
A1
  8
DETAIL
  6
CONTINUOUS
 62
     5
 10
131.77361099999999
 20
-52.001114000000001
 30
0.0
 40
8.0
 50
270.564008
 51
359.50109099999997
  0
ARC
  5
A2
  8
DETAIL
  6
CONTINUOUS
 62
     5
 10
97.985962000000001
 20
-131.196091
 30
0.0
 40
8.0
 50
182.00304299999999
 51
242.575526
  0
ARC
  5
A3
  8
DETAIL
  6
CONTINUOUS
 62
     5
 10
-5839.9999850000013
 20
0.0
 30
0.0
 40
5980.0
 50
359.02471800000001
 51
359.05987399999998
  0
ARC
  5
A4
  8
DETAIL
  6
CONTINUOUS
 62
     5
 10
52.001129999999989
 20
-131.773596
 30
0.0
 40
8.0
 50
270.49890900000003
 51
359.435992
  0
ARC
  5
A5
  8
DETAIL
  6
CONTINUOUS
 62
     5
 10
-5839.9999850000013
 20
0.0
 30
0.0
 40
5980.0
 50
359.50109099999997
 51
0.498909
  0
ARC
  5
A6
  8
DETAIL
  6
CONTINUOUS
 62
     5
 10
-5839.9999850000013
 20
0.0
 30
0.0
 40
5980.0
 50
0.940126
 51
0.9752819999999999
  0
ARC
  5
A7
  8
DETAIL
  6
CONTINUOUS
 62
     5
 10
0.000015
 20
5840.0
 30
0.0
 40
6000.0
 50
268.719649
 51
270.90054800000001
  0
ARC
  5
A8
  8
DETAIL
  6
CONTINUOUS
 62
     5
 10
0.000015
 20
5840.0
 30
0.0
 40
5997.8000000000002
 50
268.719649
 51
270.90087899999997
  0
ARC
  5
A9
  8
DETAIL
  6
CONTINUOUS
 62
     5
 10
-133.5082129999999
 20
-133.508228
 30
0.0
 40
22.800000000000001
 50
181.280351
 51
268.719649
  0
ARC
  5
AA
  8
DETAIL
  6
CONTINUOUS
 62
     5
 10
-133.5082129999999
 20
-133.508228
 30
0.0
 40
25.0
 50
181.280351
 51
268.719649
  0
ARC
  5
AB
  8
DETAIL
  6
CONTINUOUS
 62
     5
 10
-5839.9999850000013
 20
0.0
 30
0.0
 40
5997.8000000000002
 50
358.719649
 51
1.280351
  0
ARC
  5
AC
  8
DETAIL
  6
CONTINUOUS
 62
     5
 10
-5839.9999850000013
 20
0.0
 30
0.0
 40
6000.0
 50
358.719649
 51
1.280351
  0
ARC
  5
AD
  8
DETAIL
  6
CONTINUOUS
 62
     5
 10
133.50824399999999
 20
-133.508228
 30
0.0
 40
25.0
 50
271.280351
 51
358.719649
  0
ARC
  5
AE
  8
DETAIL
  6
CONTINUOUS
 62
     5
 10
133.50824399999999
 20
-133.508228
 30
0.0
 40
22.800000000000001
 50
271.280351
 51
358.719649
  0
ARC
  5
AF
  8
DETAIL
  6
CONTINUOUS
 62
     5
 10
101.13920400000001
 20
101.139189
 30
0.0
 40
38.0
 50
0.9752819999999999
 51
89.024717999999993
  0
ARC
  5
B0
  8
DETAIL
  6
CONTINUOUS
 62
     5
 10
132.00001499999999
 20
75.0
 30
0.0
 40
15.0
 50
92.003042999999991
 51
269.435992
  0
ARC
  5
B1
  8
DETAIL
  6
CONTINUOUS
 62
     5
 10
75.000015000000005
 20
132.0
 30
0.0
 40
15.0
 50
180.564008
 51
357.99695700000001
  0
ARC
  5
B2
  8
DETAIL
  6
CONTINUOUS
 62
     5
 10
131.19610599999999
 20
97.985946000000013
 30
0.0
 40
8.0
 50
272.00304299999999
 51
0.940126
  0
ARC
  5
B3
  8
DETAIL
  6
CONTINUOUS
 62
     5
 10
131.77361099999999
 20
52.001114000000001
 30
0.0
 40
8.0
 50
0.498909
 51
89.435991999999985
  0
ARC
  5
B4
  8
DETAIL
  6
CONTINUOUS
 62
     5
 10
97.985962000000001
 20
131.196091
 30
0.0
 40
8.0
 50
89.059873999999979
 51
177.99695700000001
  0
ARC
  5
B5
  8
DETAIL
  6
CONTINUOUS
 62
     5
 10
52.001129999999989
 20
131.773596
 30
0.0
 40
8.0
 50
0.564008
 51
89.501091000000002
  0
ARC
  5
B6
  8
DETAIL
  6
CONTINUOUS
 62
     5
 10
0.000015
 20
5840.0
 30
0.0
 40
5980.0
 50
269.50109099999997
 51
270.49890900000003
  0
ARC
  5
B7
  8
DETAIL
  6
CONTINUOUS
 62
     5
 10
-52.001099000000004
 20
-131.773596
 30
0.0
 40
8.0
 50
180.564008
 51
269.50109099999997
  0
ARC
  5
B8
  8
DETAIL
  6
CONTINUOUS
 62
     5
 10
-97.985931000000008
 20
-131.196091
 30
0.0
 40
8.0
 50
269.05987399999998
 51
357.99695700000001
  0
ARC
  5
B9
  8
DETAIL
  6
CONTINUOUS
 62
     5
 10
-131.77358100000001
 20
-52.001114000000001
 30
0.0
 40
8.0
 50
180.498909
 51
269.435992
  0
ARC
  5
BA
  8
DETAIL
  6
CONTINUOUS
 62
     5
 10
-131.19607600000001
 20
-97.985946000000013
 30
0.0
 40
8.0
 50
92.003042999999991
 51
180.94012599999999
  0
ARC
  5
BB
  8
DETAIL
  6
CONTINUOUS
 62
     5
 10
0.000015
 20
0.0
 30
0.0
 40
107.5
 50
46.530994
 51
133.46900600000001
  0
ARC
  5
BC
  8
DETAIL
  6
CONTINUOUS
 62
     5
 10
-74.999984999999995
 20
-132.0
 30
0.0
 40
15.0
 50
0.564008
 51
177.99695700000001
  0
ARC
  5
BD
  8
DETAIL
  6
CONTINUOUS
 62
     5
 10
-131.99998500000001
 20
-75.0
 30
0.0
 40
15.0
 50
272.00304299999999
 51
89.435991999999985
  0
ARC
  5
BE
  8
DETAIL
  6
CONTINUOUS
 62
     5
 10
-101.139174
 20
-101.139189
 30
0.0
 40
38.0
 50
180.97528199999999
 51
269.02471800000001
  0
ARC
  5
BF
  8
DETAIL
  6
CONTINUOUS
 62
     5
 10
0.000015
 20
5840.0
 30
0.0
 40
5980.0
 50
269.02471800000001
 51
269.05987399999998
  0
ARC
  5
C0
  8
DETAIL
  6
CONTINUOUS
 62
     5
 10
133.50824399999999
 20
133.508228
 30
0.0
 40
25.0
 50
1.280351
 51
88.719649000000004
  0
ARC
  5
C1
  8
DETAIL
  6
CONTINUOUS
 62
     5
 10
133.50824399999999
 20
133.508228
 30
0.0
 40
22.800000000000001
 50
1.280351
 51
88.719649000000004
  0
ARC
  5
C2
  8
DETAIL
  6
CONTINUOUS
 62
     5
 10
0.000015
 20
-5840.0
 30
0.0
 40
6000.0
 50
88.719649000000004
 51
91.280350999999996
  0
ARC
  5
C3
  8
DETAIL
  6
CONTINUOUS
 62
     5
 10
-133.5082129999999
 20
133.508228
 30
0.0
 40
25.0
 50
91.280350999999996
 51
178.719649
  0
ARC
  5
C4
  8
DETAIL
  6
CONTINUOUS
 62
     5
 10
5840.0000149999996
 20
0.0
 30
0.0
 40
6000.0
 50
178.719649
 51
181.280351
  0
ARC
  5
C5
  8
DETAIL
  6
CONTINUOUS
 62
     5
 10
-52.001099000000004
 20
131.773596
 30
0.0
 40
8.0
 50
90.498908999999983
 51
179.435992
  0
ARC
  5
C6
  8
DETAIL
  6
CONTINUOUS
 62
     5
 10
-74.999984999999995
 20
132.0
 30
0.0
 40
15.0
 50
182.00304299999999
 51
359.435992
  0
ARC
  5
C7
  8
DETAIL
  6
CONTINUOUS
 62
     5
 10
-131.19607600000001
 20
97.985946000000013
 30
0.0
 40
8.0
 50
179.05987400000001
 51
267.99695700000001
  0
ARC
  5
C8
  8
DETAIL
  6
CONTINUOUS
 62
     5
 10
-131.99998500000001
 20
75.0
 30
0.0
 40
15.0
 50
270.564008
 51
87.996956999999995
  0
ARC
  5
C9
  8
DETAIL
  6
CONTINUOUS
 62
     5
 10
5840.0000149999996
 20
0.0
 30
0.0
 40
5997.8000000000002
 50
178.719649
 51
181.280351
  0
ARC
  5
CA
  8
DETAIL
  6
CONTINUOUS
 62
     5
 10
-133.5082129999999
 20
133.508228
 30
0.0
 40
22.800000000000001
 50
91.280350999999996
 51
178.719649
  0
ARC
  5
CB
  8
DETAIL
  6
CONTINUOUS
 62
     5
 10
0.000015
 20
-5840.0
 30
0.0
 40
5997.8000000000002
 50
88.719649000000004
 51
91.280350999999996
  0
ARC
  5
CC
  8
DETAIL
  6
CONTINUOUS
 62
     5
 10
5840.0000149999996
 20
0.0
 30
0.0
 40
5980.0
 50
179.501091
 51
180.498909
  0
ARC
  5
CD
  8
DETAIL
  6
CONTINUOUS
 62
     5
 10
0.000015
 20
-5840.0
 30
0.0
 40
5980.0
 50
89.501091000000002
 51
90.498908999999983
  0
ARC
  5
CE
  8
DETAIL
  6
CONTINUOUS
 62
     5
 10
-97.985931000000008
 20
131.196091
 30
0.0
 40
8.0
 50
2.003042999999999
 51
90.940126000000021
  0
ARC
  5
CF
  8
DETAIL
  6
CONTINUOUS
 62
     5
 10
-131.77358100000001
 20
52.001114000000001
 30
0.0
 40
8.0
 50
90.564008000000001
 51
179.501091
  0
ARC
  5
D0
  8
DETAIL
  6
CONTINUOUS
 62
     5
 10
-101.139174
 20
101.139189
 30
0.0
 40
38.0
 50
90.975281999999993
 51
179.02471800000001
  0
ARC
  5
D1
  8
DETAIL
  6
CONTINUOUS
 62
     5
 10
108.500015
 20
84.500000000000014
 30
0.0
 40
6.5
 50
87.608548999999996
 51
107.741105
  0
ARC
  5
D2
  8
DETAIL
  6
CONTINUOUS
 62
     5
 10
108.500015
 20
84.500000000000014
 30
0.0
 40
6.5
 50
307.91153800000001
 51
358.74683700000003
  0
ARC
  5
D3
  8
DETAIL
  6
CONTINUOUS
 62
     5
 10
108.500015
 20
84.500000000000014
 30
0.0
 40
6.5
 50
267.60872000000001
 51
287.741353
  0
ARC
  5
D4
  8
DETAIL
  6
CONTINUOUS
 62
     5
 10
108.500015
 20
84.500000000000014
 30
0.0
 40
6.5
 50
127.911535
 51
178.746793
  0
ARC
  5
D5
  8
DETAIL
  6
CONTINUOUS
 62
     5
 10
-84.499984999999995
 20
108.5
 30
0.0
 40
6.5
 50
37.911539000000012
 51
83.473517999999999
  0
ARC
  5
D6
  8
DETAIL
  6
CONTINUOUS
 62
     5
 10
-84.499984999999995
 20
108.5
 30
0.0
 40
6.5
 50
217.911539
 51
263.47365400000001
  0
ARC
  5
D7
  8
DETAIL
  6
CONTINUOUS
 62
     5
 10
-108.499985
 20
-84.500000000000014
 30
0.0
 40
6.5
 50
90.0
 51
109.007289
  0
ARC
  5
D8
  8
DETAIL
  6
CONTINUOUS
 62
     5
 10
-108.499985
 20
-84.500000000000014
 30
0.0
 40
6.5
 50
270.0
 51
289.00723299999999
  0
ARC
  5
D9
  8
DETAIL
  6
CONTINUOUS
 62
     5
 10
5840.0000149999996
 20
0.0
 30
0.0
 40
5980.0
 50
179.02471800000001
 51
179.05987400000001
  0
ARC
  5
DA
  8
DETAIL
  6
CONTINUOUS
 62
     5
 10
5840.0000149999996
 20
0.0
 30
0.0
 40
5980.0
 50
180.94012599999999
 51
180.97528199999999
  0
ARC
  5
DB
  8
DETAIL
  6
CONTINUOUS
 62
     5
 10
0.000015
 20
-5840.0
 30
0.0
 40
5980.0
 50
90.940126000000021
 51
90.975281999999993
  0
ARC
  5
DC
  8
DETAIL
  6
CONTINUOUS
 62
     5
 10
0.000015
 20
-5840.0
 30
0.0
 40
5980.0
 50
89.024717999999993
 51
89.059873999999979
  0
LINE
  5
DD
  8
DETAIL
  6
CONTINUOUS
 62
     5
 10
101.786005
 20
139.13368399999999
 30
0.0
 11
98.117221999999998
 21
139.19501399999999
 31
0.0
  0
LINE
  5
DE
  8
DETAIL
  6
CONTINUOUS
 62
     5
 10
139.19502900000001
 20
98.117206999999993
 30
0.0
 11
139.13369900000001
 21
101.78599
 31
0.0
  0
LINE
  5
DF
  8
DETAIL
  6
CONTINUOUS
 62
     5
 10
-84.499984999999995
 20
115.0
 30
0.0
 11
-83.761188999999987
 21
114.957791
 31
0.0
  0
LINE
  5
E0
  8
DETAIL
  6
CONTINUOUS
 62
     5
 10
-79.841536000000005
 20
113.030778
 30
0.0
 11
-79.371741999999998
 21
112.493887
 31
0.0
  0
LINE
  5
E1
  8
DETAIL
  6
CONTINUOUS
 62
     5
 10
-80.373406999999986
 20
113.5138
 30
0.0
 11
-79.841536000000005
 21
113.030778
 31
0.0
  0
LINE
  5
E2
  8
DETAIL
  6
CONTINUOUS
 62
     5
 10
-80.956815000000006
 20
113.932545
 30
0.0
 11
-80.373406999999986
 21
113.5138
 31
0.0
  0
LINE
  5
E3
  8
DETAIL
  6
CONTINUOUS
 62
     5
 10
-81.588200000000001
 20
114.28396100000001
 30
0.0
 11
-80.956815000000006
 21
113.932545
 31
0.0
  0
LINE
  5
E4
  8
DETAIL
  6
CONTINUOUS
 62
     5
 10
-82.260343999999989
 20
114.56262
 30
0.0
 11
-81.588200000000001
 21
114.28396100000001
 31
0.0
  0
LINE
  5
E5
  8
DETAIL
  6
CONTINUOUS
 62
     5
 10
-82.962861000000004
 20
114.76326899999999
 30
0.0
 11
-82.260343999999989
 21
114.56262
 31
0.0
  0
LINE
  5
E6
  8
DETAIL
  6
CONTINUOUS
 62
     5
 10
-83.692942999999985
 20
114.883465
 30
0.0
 11
-82.962861000000004
 21
114.76326899999999
 31
0.0
  0
LINE
  5
E7
  8
DETAIL
  6
CONTINUOUS
 62
     5
 10
-84.436964000000003
 20
114.91907999999999
 30
0.0
 11
-83.692942999999985
 21
114.883465
 31
0.0
  0
LINE
  5
E8
  8
DETAIL
  6
CONTINUOUS
 62
     5
 10
-85.309690000000003
 20
114.94937
 30
0.0
 11
-84.499984999999995
 21
115.0
 31
0.0
  0
LINE
  5
E9
  8
DETAIL
  6
CONTINUOUS
 62
     5
 10
115.000015
 20
84.500000000000014
 30
0.0
 11
114.991896
 21
84.357988000000006
 31
0.0
  0
LINE
  5
EA
  8
DETAIL
  6
CONTINUOUS
 62
     5
 10
113.030798
 20
79.841556999999995
 30
0.0
 11
112.49390200000001
 21
79.371758
 31
0.0
  0
LINE
  5
EB
  8
DETAIL
  6
CONTINUOUS
 62
     5
 10
113.513789
 20
80.373390999999998
 30
0.0
 11
113.030798
 21
79.841556999999995
 31
0.0
  0
LINE
  5
EC
  8
DETAIL
  6
CONTINUOUS
 62
     5
 10
113.932469
 20
80.956687000000002
 30
0.0
 11
113.513789
 21
80.373390999999998
 31
0.0
  0
LINE
  5
ED
  8
DETAIL
  6
CONTINUOUS
 62
     5
 10
114.283889
 20
81.588036999999986
 30
0.0
 11
113.932469
 21
80.956687000000002
 31
0.0
  0
LINE
  5
EE
  8
DETAIL
  6
CONTINUOUS
 62
     5
 10
114.562534
 20
82.260068000000004
 30
0.0
 11
114.283889
 21
81.588036999999986
 31
0.0
  0
LINE
  5
EF
  8
DETAIL
  6
CONTINUOUS
 62
     5
 10
114.763216
 20
82.962569999999999
 30
0.0
 11
114.562534
 21
82.260068000000004
 31
0.0
  0
LINE
  5
F0
  8
DETAIL
  6
CONTINUOUS
 62
     5
 10
114.88345700000001
 20
83.692730999999995
 30
0.0
 11
114.763216
 21
82.962569999999999
 31
0.0
  0
LINE
  5
F1
  8
DETAIL
  6
CONTINUOUS
 62
     5
 10
114.919096
 20
84.436980000000005
 30
0.0
 11
114.88345700000001
 21
83.692730999999995
 31
0.0
  0
LINE
  5
F2
  8
DETAIL
  6
CONTINUOUS
 62
     5
 10
114.949421
 20
85.309421999999998
 30
0.0
 11
115.000015
 21
84.500000000000014
 31
0.0
  0
LINE
  5
F3
  8
DETAIL
  6
CONTINUOUS
 62
     5
 10
-84.499984999999995
 20
102.0
 30
0.0
 11
-85.238765000000001
 21
102.042207
 31
0.0
  0
LINE
  5
F4
  8
DETAIL
  6
CONTINUOUS
 62
     5
 10
-89.158428000000001
 20
103.969216
 30
0.0
 11
-89.628226999999995
 21
104.506113
 31
0.0
  0
LINE
  5
F5
  8
DETAIL
  6
CONTINUOUS
 62
     5
 10
-88.626549999999995
 20
103.48618999999999
 30
0.0
 11
-89.158428000000001
 21
103.969216
 31
0.0
  0
LINE
  5
F6
  8
DETAIL
  6
CONTINUOUS
 62
     5
 10
-88.043142000000003
 20
103.067447
 30
0.0
 11
-88.626549999999995
 21
103.48618999999999
 31
0.0
  0
LINE
  5
F7
  8
DETAIL
  6
CONTINUOUS
 62
     5
 10
-87.411760000000015
 20
102.71603500000001
 30
0.0
 11
-88.043142000000003
 21
103.067447
 31
0.0
  0
LINE
  5
F8
  8
DETAIL
  6
CONTINUOUS
 62
     5
 10
-86.739620000000016
 20
102.437378
 30
0.0
 11
-87.411760000000015
 21
102.71603500000001
 31
0.0
  0
LINE
  5
F9
  8
DETAIL
  6
CONTINUOUS
 62
     5
 10
-86.037107999999989
 20
102.23672999999999
 30
0.0
 11
-86.739620000000016
 21
102.437378
 31
0.0
  0
LINE
  5
FA
  8
DETAIL
  6
CONTINUOUS
 62
     5
 10
-85.307028999999986
 20
102.116535
 30
0.0
 11
-86.037107999999989
 21
102.23672999999999
 31
0.0
  0
LINE
  5
FB
  8
DETAIL
  6
CONTINUOUS
 62
     5
 10
-84.563005000000004
 20
102.08092000000001
 30
0.0
 11
-85.307028999999986
 21
102.116535
 31
0.0
  0
LINE
  5
FC
  8
DETAIL
  6
CONTINUOUS
 62
     5
 10
114.799148
 20
86.103409999999997
 30
0.0
 11
114.949421
 21
85.309421999999998
 31
0.0
  0
LINE
  5
FD
  8
DETAIL
  6
CONTINUOUS
 62
     5
 10
114.552795
 20
86.869356999999994
 30
0.0
 11
114.799148
 21
86.103409999999997
 31
0.0
  0
LINE
  5
FE
  8
DETAIL
  6
CONTINUOUS
 62
     5
 10
114.214743
 20
87.597077999999996
 30
0.0
 11
114.552795
 21
86.869356999999994
 31
0.0
  0
LINE
  5
FF
  8
DETAIL
  6
CONTINUOUS
 62
     5
 10
113.791517
 20
88.274918
 30
0.0
 11
114.214743
 21
87.597077999999996
 31
0.0
  0
LINE
  5
100
  8
DETAIL
  6
CONTINUOUS
 62
     5
 10
113.287986
 20
88.896058999999994
 30
0.0
 11
113.791517
 21
88.274918
 31
0.0
  0
LINE
  5
101
  8
DETAIL
  6
CONTINUOUS
 62
     5
 10
112.712198
 20
89.450507000000016
 30
0.0
 11
113.287986
 21
88.896058999999994
 31
0.0
  0
LINE
  5
102
  8
DETAIL
  6
CONTINUOUS
 62
     5
 10
112.069177
 20
89.932410000000004
 30
0.0
 11
112.712198
 21
89.450507000000016
 31
0.0
  0
LINE
  5
103
  8
DETAIL
  6
CONTINUOUS
 62
     5
 10
111.370015
 20
90.332075000000003
 30
0.0
 11
112.069177
 21
89.932410000000004
 31
0.0
  0
LINE
  5
104
  8
DETAIL
  6
CONTINUOUS
 62
     5
 10
110.621796
 20
90.643943999999991
 30
0.0
 11
111.370015
 21
90.332075000000003
 31
0.0
  0
LINE
  5
105
  8
DETAIL
  6
CONTINUOUS
 62
     5
 10
109.839826
 20
90.860416999999998
 30
0.0
 11
110.621796
 21
90.643943999999991
 31
0.0
  0
LINE
  5
106
  8
DETAIL
  6
CONTINUOUS
 62
     5
 10
109.03398
 20
90.978031000000001
 30
0.0
 11
109.839826
 21
90.860416999999998
 31
0.0
  0
LINE
  5
107
  8
DETAIL
  6
CONTINUOUS
 62
     5
 10
108.49979
 20
90.988584000000003
 30
0.0
 11
109.03398
 21
90.978031000000001
 31
0.0
  0
LINE
  5
108
  8
DETAIL
  6
CONTINUOUS
 62
     5
 10
-83.690278000000006
 20
102.05063
 30
0.0
 11
-84.499984999999995
 21
102.0
 31
0.0
  0
LINE
  5
109
  8
DETAIL
  6
CONTINUOUS
 62
     5
 10
102.000015
 20
84.500000000000014
 30
0.0
 11
102.008134
 21
84.642017000000024
 31
0.0
  0
LINE
  5
10A
  8
DETAIL
  6
CONTINUOUS
 62
     5
 10
103.969227
 20
89.158439000000001
 30
0.0
 11
104.506129
 21
89.628243000000012
 31
0.0
  0
LINE
  5
10B
  8
DETAIL
  6
CONTINUOUS
 62
     5
 10
103.486232
 20
88.626598000000016
 30
0.0
 11
103.969227
 21
89.158439000000001
 31
0.0
  0
LINE
  5
10C
  8
DETAIL
  6
CONTINUOUS
 62
     5
 10
103.067554
 20
88.043301999999997
 30
0.0
 11
103.486232
 21
88.626598000000016
 31
0.0
  0
LINE
  5
10D
  8
DETAIL
  6
CONTINUOUS
 62
     5
 10
102.716138
 20
87.411955000000006
 30
0.0
 11
103.067554
 21
88.043301999999997
 31
0.0
  0
LINE
  5
10E
  8
DETAIL
  6
CONTINUOUS
 62
     5
 10
102.437495
 20
86.739927000000009
 30
0.0
 11
102.716138
 21
87.411955000000006
 31
0.0
  0
LINE
  5
10F
  8
DETAIL
  6
CONTINUOUS
 62
     5
 10
102.23681500000001
 20
86.037429999999986
 30
0.0
 11
102.437495
 21
86.739927000000009
 31
0.0
  0
LINE
  5
110
  8
DETAIL
  6
CONTINUOUS
 62
     5
 10
102.116574
 20
85.307271
 30
0.0
 11
102.23681500000001
 21
86.037429999999986
 31
0.0
  0
LINE
  5
111
  8
DETAIL
  6
CONTINUOUS
 62
     5
 10
102.080935
 20
84.563019999999995
 30
0.0
 11
102.116574
 21
85.307271
 31
0.0
  0
LINE
  5
112
  8
DETAIL
  6
CONTINUOUS
 62
     5
 10
102.05061000000001
 20
83.690574999999995
 30
0.0
 11
102.000015
 21
84.500000000000014
 31
0.0
  0
LINE
  5
113
  8
DETAIL
  6
CONTINUOUS
 62
     5
 10
102.200884
 20
82.896583999999976
 30
0.0
 11
102.05061000000001
 21
83.690574999999995
 31
0.0
  0
LINE
  5
114
  8
DETAIL
  6
CONTINUOUS
 62
     5
 10
102.447239
 20
82.130632999999989
 30
0.0
 11
102.200884
 21
82.896583999999976
 31
0.0
  0
LINE
  5
115
  8
DETAIL
  6
CONTINUOUS
 62
     5
 10
102.78529399999999
 20
81.402909999999991
 30
0.0
 11
102.447239
 21
82.130632999999989
 31
0.0
  0
LINE
  5
116
  8
DETAIL
  6
CONTINUOUS
 62
     5
 10
103.208523
 20
80.725068999999976
 30
0.0
 11
102.78529399999999
 21
81.402909999999991
 31
0.0
  0
LINE
  5
117
  8
DETAIL
  6
CONTINUOUS
 62
     5
 10
103.712058
 20
80.103926000000016
 30
0.0
 11
103.208523
 21
80.725068999999976
 31
0.0
  0
LINE
  5
118
  8
DETAIL
  6
CONTINUOUS
 62
     5
 10
104.28785000000001
 20
79.549478000000008
 30
0.0
 11
103.712058
 21
80.103926000000016
 31
0.0
  0
LINE
  5
119
  8
DETAIL
  6
CONTINUOUS
 62
     5
 10
104.930876
 20
79.067575000000005
 30
0.0
 11
104.28785000000001
 21
79.549478000000008
 31
0.0
  0
LINE
  5
11A
  8
DETAIL
  6
CONTINUOUS
 62
     5
 10
105.630043
 20
78.667911000000004
 30
0.0
 11
104.930876
 21
79.067575000000005
 31
0.0
  0
LINE
  5
11B
  8
DETAIL
  6
CONTINUOUS
 62
     5
 10
106.378266
 20
78.356044999999995
 30
0.0
 11
105.630043
 21
78.667911000000004
 31
0.0
  0
LINE
  5
11C
  8
DETAIL
  6
CONTINUOUS
 62
     5
 10
107.160241
 20
78.139574999999994
 30
0.0
 11
106.378266
 21
78.356044999999995
 31
0.0
  0
LINE
  5
11D
  8
DETAIL
  6
CONTINUOUS
 62
     5
 10
107.96609100000001
 20
78.021966000000006
 30
0.0
 11
107.160241
 21
78.139574999999994
 31
0.0
  0
LINE
  5
11E
  8
DETAIL
  6
CONTINUOUS
 62
     5
 10
108.500241
 20
78.011417000000009
 30
0.0
 11
107.96609100000001
 21
78.021966000000006
 31
0.0
  0
LINE
  5
11F
  8
DETAIL
  6
CONTINUOUS
 62
     5
 10
-107.904436
 20
-90.933918999999975
 30
0.0
 11
-108.436964
 21
-90.950919999999996
 31
0.0
  0
LINE
  5
120
  8
DETAIL
  6
CONTINUOUS
 62
     5
 10
-107.378626
 20
-90.872852000000009
 30
0.0
 11
-107.904436
 21
-90.933918999999975
 31
0.0
  0
LINE
  5
121
  8
DETAIL
  6
CONTINUOUS
 62
     5
 10
-106.861839
 20
-90.768703000000016
 30
0.0
 11
-107.378626
 21
-90.872852000000009
 31
0.0
  0
LINE
  5
122
  8
DETAIL
  6
CONTINUOUS
 62
     5
 10
-106.35630999999999
 20
-90.621922999999995
 30
0.0
 11
-106.861839
 21
-90.768703000000016
 31
0.0
  0
LINE
  5
123
  8
DETAIL
  6
CONTINUOUS
 62
     5
 10
-105.864244
 20
-90.433090000000007
 30
0.0
 11
-106.35630999999999
 21
-90.621922999999995
 31
0.0
  0
LINE
  5
124
  8
DETAIL
  6
CONTINUOUS
 62
     5
 10
-105.38927099999999
 20
-90.203331999999989
 30
0.0
 11
-105.864244
 21
-90.433090000000007
 31
0.0
  0
LINE
  5
125
  8
DETAIL
  6
CONTINUOUS
 62
     5
 10
-104.935025
 20
-89.934128999999999
 30
0.0
 11
-105.38927099999999
 21
-90.203331999999989
 31
0.0
  0
LINE
  5
126
  8
DETAIL
  6
CONTINUOUS
 62
     5
 10
-104.505252
 20
-89.627583999999999
 30
0.0
 11
-104.935025
 21
-89.934128999999999
 31
0.0
  0
LINE
  5
127
  8
DETAIL
  6
CONTINUOUS
 62
     5
 10
-83.753362999999993
 20
102.139521
 30
0.0
 11
-84.563005000000004
 21
102.08092000000001
 31
0.0
  0
LINE
  5
128
  8
DETAIL
  6
CONTINUOUS
 62
     5
 10
-82.958995000000002
 20
102.297663
 30
0.0
 11
-83.753362999999993
 21
102.139521
 31
0.0
  0
LINE
  5
129
  8
DETAIL
  6
CONTINUOUS
 62
     5
 10
-82.192370999999994
 20
102.551467
 30
0.0
 11
-82.958995000000002
 21
102.297663
 31
0.0
  0
LINE
  5
12A
  8
DETAIL
  6
CONTINUOUS
 62
     5
 10
-81.463035000000005
 20
102.896672
 30
0.0
 11
-82.192370999999994
 21
102.551467
 31
0.0
  0
LINE
  5
12B
  8
DETAIL
  6
CONTINUOUS
 62
     5
 10
-80.781734
 20
103.327592
 30
0.0
 11
-81.463035000000005
 21
102.896672
 31
0.0
  0
LINE
  5
12C
  8
DETAIL
  6
CONTINUOUS
 62
     5
 10
-80.157424000000006
 20
103.838278
 30
0.0
 11
-80.781734
 21
103.327592
 31
0.0
  0
LINE
  5
12D
  8
DETAIL
  6
CONTINUOUS
 62
     5
 10
-79.599841999999995
 20
104.420958
 30
0.0
 11
-80.157424000000006
 21
103.838278
 31
0.0
  0
LINE
  5
12E
  8
DETAIL
  6
CONTINUOUS
 62
     5
 10
-79.116636999999997
 20
105.068133
 30
0.0
 11
-79.599841999999995
 21
104.420958
 31
0.0
  0
LINE
  5
12F
  8
DETAIL
  6
CONTINUOUS
 62
     5
 10
-78.716193000000004
 20
105.769758
 30
0.0
 11
-79.116636999999997
 21
105.068133
 31
0.0
  0
LINE
  5
130
  8
DETAIL
  6
CONTINUOUS
 62
     5
 10
-78.405004000000005
 20
106.51544699999999
 30
0.0
 11
-78.716193000000004
 21
105.769758
 31
0.0
  0
LINE
  5
131
  8
DETAIL
  6
CONTINUOUS
 62
     5
 10
-78.18904599999999
 20
107.29186199999999
 30
0.0
 11
-78.405004000000005
 21
106.51544699999999
 31
0.0
  0
LINE
  5
132
  8
DETAIL
  6
CONTINUOUS
 62
     5
 10
-78.071542000000008
 20
108.086201
 30
0.0
 11
-78.18904599999999
 21
107.29186199999999
 31
0.0
  0
LINE
  5
133
  8
DETAIL
  6
CONTINUOUS
 62
     5
 10
-78.05398000000001
 20
108.88358100000001
 30
0.0
 11
-78.071542000000008
 21
108.086201
 31
0.0
  0
LINE
  5
134
  8
DETAIL
  6
CONTINUOUS
 62
     5
 10
-78.135118999999989
 20
109.670749
 30
0.0
 11
-78.05398000000001
 21
108.88358100000001
 31
0.0
  0
LINE
  5
135
  8
DETAIL
  6
CONTINUOUS
 62
     5
 10
-78.311716000000004
 20
110.434333
 30
0.0
 11
-78.135118999999989
 21
109.670749
 31
0.0
  0
LINE
  5
136
  8
DETAIL
  6
CONTINUOUS
 62
     5
 10
-78.579757000000001
 20
111.16529199999999
 30
0.0
 11
-78.311716000000004
 21
110.434333
 31
0.0
  0
LINE
  5
137
  8
DETAIL
  6
CONTINUOUS
 62
     5
 10
-78.934931000000006
 20
111.854933
 30
0.0
 11
-78.579757000000001
 21
111.16529199999999
 31
0.0
  0
LINE
  5
138
  8
DETAIL
  6
CONTINUOUS
 62
     5
 10
-79.371741999999998
 20
112.493887
 30
0.0
 11
-78.934931000000006
 21
111.854933
 31
0.0
  0
LINE
  5
139
  8
DETAIL
  6
CONTINUOUS
 62
     5
 10
102.139532
 20
83.753411999999983
 30
0.0
 11
102.080935
 21
84.563019999999995
 31
0.0
  0
LINE
  5
13A
  8
DETAIL
  6
CONTINUOUS
 62
     5
 10
102.29765500000001
 20
82.959098999999995
 30
0.0
 11
102.139532
 21
83.753411999999983
 31
0.0
  0
LINE
  5
13B
  8
DETAIL
  6
CONTINUOUS
 62
     5
 10
102.55143200000001
 20
82.192509999999984
 30
0.0
 11
102.29765500000001
 21
82.959098999999995
 31
0.0
  0
LINE
  5
13C
  8
DETAIL
  6
CONTINUOUS
 62
     5
 10
102.896601
 20
81.463207999999995
 30
0.0
 11
102.55143200000001
 21
82.192509999999984
 31
0.0
  0
LINE
  5
13D
  8
DETAIL
  6
CONTINUOUS
 62
     5
 10
103.327523
 20
80.781863999999985
 30
0.0
 11
102.896601
 21
81.463207999999995
 31
0.0
  0
LINE
  5
13E
  8
DETAIL
  6
CONTINUOUS
 62
     5
 10
103.83822499999999
 20
80.157512999999994
 30
0.0
 11
103.327523
 21
80.781863999999985
 31
0.0
  0
LINE
  5
13F
  8
DETAIL
  6
CONTINUOUS
 62
     5
 10
104.420948
 20
79.599879000000001
 30
0.0
 11
103.83822499999999
 21
80.157512999999994
 31
0.0
  0
LINE
  5
140
  8
DETAIL
  6
CONTINUOUS
 62
     5
 10
105.068179
 20
79.116631000000012
 30
0.0
 11
104.420948
 21
79.599879000000001
 31
0.0
  0
LINE
  5
141
  8
DETAIL
  6
CONTINUOUS
 62
     5
 10
105.769865
 20
78.716164000000006
 30
0.0
 11
105.068179
 21
79.116631000000012
 31
0.0
  0
LINE
  5
142
  8
DETAIL
  6
CONTINUOUS
 62
     5
 10
106.51565100000001
 20
78.404953000000006
 30
0.0
 11
105.769865
 21
78.716164000000006
 31
0.0
  0
LINE
  5
143
  8
DETAIL
  6
CONTINUOUS
 62
     5
 10
107.292118
 20
78.189012000000005
 30
0.0
 11
106.51565100000001
 21
78.404953000000006
 31
0.0
  0
LINE
  5
144
  8
DETAIL
  6
CONTINUOUS
 62
     5
 10
108.086566
 20
78.071526000000006
 30
0.0
 11
107.292118
 21
78.189012000000005
 31
0.0
  0
LINE
  5
145
  8
DETAIL
  6
CONTINUOUS
 62
     5
 10
108.88395199999999
 20
78.054011000000003
 30
0.0
 11
108.086566
 21
78.071526000000006
 31
0.0
  0
LINE
  5
146
  8
DETAIL
  6
CONTINUOUS
 62
     5
 10
109.67118499999999
 20
78.135204000000002
 30
0.0
 11
108.88395199999999
 21
78.054011000000003
 31
0.0
  0
LINE
  5
147
  8
DETAIL
  6
CONTINUOUS
 62
     5
 10
110.434682
 20
78.311831999999995
 30
0.0
 11
109.67118499999999
 21
78.135204000000002
 31
0.0
  0
LINE
  5
148
  8
DETAIL
  6
CONTINUOUS
 62
     5
 10
111.16560699999999
 20
78.579903999999999
 30
0.0
 11
110.434682
 21
78.311831999999995
 31
0.0
  0
LINE
  5
149
  8
DETAIL
  6
CONTINUOUS
 62
     5
 10
111.855091
 20
78.935031000000009
 30
0.0
 11
111.16560699999999
 21
78.579903999999999
 31
0.0
  0
LINE
  5
14A
  8
DETAIL
  6
CONTINUOUS
 62
     5
 10
112.49390200000001
 20
79.371758
 30
0.0
 11
111.855091
 21
78.935031000000009
 31
0.0
  0
LINE
  5
14B
  8
DETAIL
  6
CONTINUOUS
 62
     5
 10
-109.095538
 20
-78.066081000000011
 30
0.0
 11
-108.563005
 21
-78.049080000000004
 31
0.0
  0
LINE
  5
14C
  8
DETAIL
  6
CONTINUOUS
 62
     5
 10
-109.62135499999999
 20
-78.12715
 30
0.0
 11
-109.095538
 21
-78.066081000000011
 31
0.0
  0
LINE
  5
14D
  8
DETAIL
  6
CONTINUOUS
 62
     5
 10
-110.138148
 20
-78.231301999999999
 30
0.0
 11
-109.62135499999999
 21
-78.12715
 31
0.0
  0
LINE
  5
14E
  8
DETAIL
  6
CONTINUOUS
 62
     5
 10
-110.643683
 20
-78.378084999999999
 30
0.0
 11
-110.138148
 21
-78.231301999999999
 31
0.0
  0
LINE
  5
14F
  8
DETAIL
  6
CONTINUOUS
 62
     5
 10
-111.13575400000001
 20
-78.566921999999991
 30
0.0
 11
-110.643683
 21
-78.378084999999999
 31
0.0
  0
LINE
  5
150
  8
DETAIL
  6
CONTINUOUS
 62
     5
 10
-111.610732
 20
-78.796685999999994
 30
0.0
 11
-111.13575400000001
 21
-78.566921999999991
 31
0.0
  0
LINE
  5
151
  8
DETAIL
  6
CONTINUOUS
 62
     5
 10
-112.064983
 20
-79.065895999999995
 30
0.0
 11
-111.610732
 21
-78.796685999999994
 31
0.0
  0
LINE
  5
152
  8
DETAIL
  6
CONTINUOUS
 62
     5
 10
-112.494758
 20
-79.372447999999991
 30
0.0
 11
-112.064983
 21
-79.065895999999995
 31
0.0
  0
LINE
  5
153
  8
DETAIL
  6
CONTINUOUS
 62
     5
 10
-82.896272999999994
 20
102.20094400000001
 30
0.0
 11
-83.690278000000006
 21
102.05063
 31
0.0
  0
LINE
  5
154
  8
DETAIL
  6
CONTINUOUS
 62
     5
 10
-82.130415999999997
 20
102.44730300000001
 30
0.0
 11
-82.896272999999994
 21
102.20094400000001
 31
0.0
  0
LINE
  5
155
  8
DETAIL
  6
CONTINUOUS
 62
     5
 10
-81.402687
 20
102.785392
 30
0.0
 11
-82.130415999999997
 21
102.44730300000001
 31
0.0
  0
LINE
  5
156
  8
DETAIL
  6
CONTINUOUS
 62
     5
 10
-80.724892999999994
 20
103.20862200000001
 30
0.0
 11
-81.402687
 21
102.785392
 31
0.0
  0
LINE
  5
157
  8
DETAIL
  6
CONTINUOUS
 62
     5
 10
-80.103750000000005
 20
103.71219000000001
 30
0.0
 11
-80.724892999999994
 21
103.20862200000001
 31
0.0
  0
LINE
  5
158
  8
DETAIL
  6
CONTINUOUS
 62
     5
 10
-79.549339000000003
 20
104.287981
 30
0.0
 11
-80.103750000000005
 21
103.71219000000001
 31
0.0
  0
LINE
  5
159
  8
DETAIL
  6
CONTINUOUS
 62
     5
 10
-79.067471999999995
 20
104.930994
 30
0.0
 11
-79.549339000000003
 21
104.287981
 31
0.0
  0
LINE
  5
15A
  8
DETAIL
  6
CONTINUOUS
 62
     5
 10
-78.667830000000009
 20
105.630162
 30
0.0
 11
-79.067471999999995
 21
104.930994
 31
0.0
  0
LINE
  5
15B
  8
DETAIL
  6
CONTINUOUS
 62
     5
 10
-78.356008000000003
 20
106.378315
 30
0.0
 11
-78.667830000000009
 21
105.630162
 31
0.0
  0
LINE
  5
15C
  8
DETAIL
  6
CONTINUOUS
 62
     5
 10
-78.139542000000006
 20
107.160309
 30
0.0
 11
-78.356008000000003
 21
106.378315
 31
0.0
  0
LINE
  5
15D
  8
DETAIL
  6
CONTINUOUS
 62
     5
 10
-78.021955000000005
 20
107.96603
 30
0.0
 11
-78.139542000000006
 21
107.160309
 31
0.0
  0
LINE
  5
15E
  8
DETAIL
  6
CONTINUOUS
 62
     5
 10
-78.005921999999998
 20
108.777748
 30
0.0
 11
-78.021955000000005
 21
107.96603
 31
0.0
  0
LINE
  5
15F
  8
DETAIL
  6
CONTINUOUS
 62
     5
 10
-78.091086000000004
 20
109.58444299999999
 30
0.0
 11
-78.005921999999998
 21
108.777748
 31
0.0
  0
LINE
  5
160
  8
DETAIL
  6
CONTINUOUS
 62
     5
 10
-78.274785999999992
 20
110.370002
 30
0.0
 11
-78.091086000000004
 21
109.58444299999999
 31
0.0
  0
LINE
  5
161
  8
DETAIL
  6
CONTINUOUS
 62
     5
 10
-78.553567999999999
 20
111.124904
 30
0.0
 11
-78.274785999999992
 21
110.370002
 31
0.0
  0
LINE
  5
162
  8
DETAIL
  6
CONTINUOUS
 62
     5
 10
-78.919355999999993
 20
111.832166
 30
0.0
 11
-78.553567999999999
 21
111.124904
 31
0.0
  0
LINE
  5
163
  8
DETAIL
  6
CONTINUOUS
 62
     5
 10
-85.246606999999997
 20
114.860479
 30
0.0
 11
-84.436964000000003
 21
114.91907999999999
 31
0.0
  0
LINE
  5
164
  8
DETAIL
  6
CONTINUOUS
 62
     5
 10
-86.040974000000006
 20
114.702337
 30
0.0
 11
-85.246606999999997
 21
114.860479
 31
0.0
  0
LINE
  5
165
  8
DETAIL
  6
CONTINUOUS
 62
     5
 10
-86.807597999999999
 20
114.448533
 30
0.0
 11
-86.040974000000006
 21
114.702337
 31
0.0
  0
LINE
  5
166
  8
DETAIL
  6
CONTINUOUS
 62
     5
 10
-87.536934000000016
 20
114.103328
 30
0.0
 11
-86.807597999999999
 21
114.448533
 31
0.0
  0
LINE
  5
167
  8
DETAIL
  6
CONTINUOUS
 62
     5
 10
-88.218236000000005
 20
113.672409
 30
0.0
 11
-87.536934000000016
 21
114.103328
 31
0.0
  0
LINE
  5
168
  8
DETAIL
  6
CONTINUOUS
 62
     5
 10
-88.842545000000001
 20
113.16172299999999
 30
0.0
 11
-88.218236000000005
 21
113.672409
 31
0.0
  0
LINE
  5
169
  8
DETAIL
  6
CONTINUOUS
 62
     5
 10
-89.400126999999998
 20
112.579043
 30
0.0
 11
-88.842545000000001
 21
113.16172299999999
 31
0.0
  0
LINE
  5
16A
  8
DETAIL
  6
CONTINUOUS
 62
     5
 10
-89.883331999999996
 20
111.93186799999999
 30
0.0
 11
-89.400126999999998
 21
112.579043
 31
0.0
  0
LINE
  5
16B
  8
DETAIL
  6
CONTINUOUS
 62
     5
 10
-90.283776000000003
 20
111.230243
 30
0.0
 11
-89.883331999999996
 21
111.93186799999999
 31
0.0
  0
LINE
  5
16C
  8
DETAIL
  6
CONTINUOUS
 62
     5
 10
-90.594964999999988
 20
110.484554
 30
0.0
 11
-90.283776000000003
 21
111.230243
 31
0.0
  0
LINE
  5
16D
  8
DETAIL
  6
CONTINUOUS
 62
     5
 10
-90.810922999999988
 20
109.708139
 30
0.0
 11
-90.594964999999988
 21
110.484554
 31
0.0
  0
LINE
  5
16E
  8
DETAIL
  6
CONTINUOUS
 62
     5
 10
-90.928427999999997
 20
108.91379999999999
 30
0.0
 11
-90.810922999999988
 21
109.708139
 31
0.0
  0
LINE
  5
16F
  8
DETAIL
  6
CONTINUOUS
 62
     5
 10
-90.945988999999983
 20
108.11641899999999
 30
0.0
 11
-90.928427999999997
 21
108.91379999999999
 31
0.0
  0
LINE
  5
170
  8
DETAIL
  6
CONTINUOUS
 62
     5
 10
-90.864850000000004
 20
107.32925
 30
0.0
 11
-90.945988999999983
 21
108.11641899999999
 31
0.0
  0
LINE
  5
171
  8
DETAIL
  6
CONTINUOUS
 62
     5
 10
-90.688252000000006
 20
106.565663
 30
0.0
 11
-90.864850000000004
 21
107.32925
 31
0.0
  0
LINE
  5
172
  8
DETAIL
  6
CONTINUOUS
 62
     5
 10
-90.420209
 20
105.834701
 30
0.0
 11
-90.688252000000006
 21
106.565663
 31
0.0
  0
LINE
  5
173
  8
DETAIL
  6
CONTINUOUS
 62
     5
 10
-90.065036000000006
 20
105.145062
 30
0.0
 11
-90.420209
 21
105.834701
 31
0.0
  0
LINE
  5
174
  8
DETAIL
  6
CONTINUOUS
 62
     5
 10
-89.628226999999995
 20
104.506113
 30
0.0
 11
-90.065036000000006
 21
105.145062
 31
0.0
  0
LINE
  5
175
  8
DETAIL
  6
CONTINUOUS
 62
     5
 10
114.860499
 20
85.246588000000003
 30
0.0
 11
114.919096
 21
84.436980000000005
 31
0.0
  0
LINE
  5
176
  8
DETAIL
  6
CONTINUOUS
 62
     5
 10
114.702376
 20
86.040899999999993
 30
0.0
 11
114.860499
 21
85.246588000000003
 31
0.0
  0
LINE
  5
177
  8
DETAIL
  6
CONTINUOUS
 62
     5
 10
114.448598
 20
86.807489000000004
 30
0.0
 11
114.702376
 21
86.040899999999993
 31
0.0
  0
LINE
  5
178
  8
DETAIL
  6
CONTINUOUS
 62
     5
 10
114.10343
 20
87.536792000000005
 30
0.0
 11
114.448598
 21
86.807489000000004
 31
0.0
  0
LINE
  5
179
  8
DETAIL
  6
CONTINUOUS
 62
     5
 10
113.672507
 20
88.218135000000004
 30
0.0
 11
114.10343
 21
87.536792000000005
 31
0.0
  0
LINE
  5
17A
  8
DETAIL
  6
CONTINUOUS
 62
     5
 10
113.161806
 20
88.842487000000006
 30
0.0
 11
113.672507
 21
88.218135000000004
 31
0.0
  0
LINE
  5
17B
  8
DETAIL
  6
CONTINUOUS
 62
     5
 10
112.579083
 20
89.400120999999999
 30
0.0
 11
113.161806
 21
88.842487000000006
 31
0.0
  0
LINE
  5
17C
  8
DETAIL
  6
CONTINUOUS
 62
     5
 10
111.93185200000001
 20
89.883368999999973
 30
0.0
 11
112.579083
 21
89.400120999999999
 31
0.0
  0
LINE
  5
17D
  8
DETAIL
  6
CONTINUOUS
 62
     5
 10
111.230166
 20
90.283835999999994
 30
0.0
 11
111.93185200000001
 21
89.883368999999973
 31
0.0
  0
LINE
  5
17E
  8
DETAIL
  6
CONTINUOUS
 62
     5
 10
110.48438
 20
90.595046999999994
 30
0.0
 11
111.230166
 21
90.283835999999994
 31
0.0
  0
LINE
  5
17F
  8
DETAIL
  6
CONTINUOUS
 62
     5
 10
109.707913
 20
90.810987999999995
 30
0.0
 11
110.48438
 21
90.595046999999994
 31
0.0
  0
LINE
  5
180
  8
DETAIL
  6
CONTINUOUS
 62
     5
 10
108.913465
 20
90.928473999999994
 30
0.0
 11
109.707913
 21
90.810987999999995
 31
0.0
  0
LINE
  5
181
  8
DETAIL
  6
CONTINUOUS
 62
     5
 10
108.116079
 20
90.945988999999983
 30
0.0
 11
108.913465
 21
90.928473999999994
 31
0.0
  0
LINE
  5
182
  8
DETAIL
  6
CONTINUOUS
 62
     5
 10
107.328844
 20
90.864795999999998
 30
0.0
 11
108.116079
 21
90.945988999999983
 31
0.0
  0
LINE
  5
183
  8
DETAIL
  6
CONTINUOUS
 62
     5
 10
106.56534499999999
 20
90.688167000000007
 30
0.0
 11
107.328844
 21
90.864795999999998
 31
0.0
  0
LINE
  5
184
  8
DETAIL
  6
CONTINUOUS
 62
     5
 10
105.834418
 20
90.420093999999992
 30
0.0
 11
106.56534499999999
 21
90.688167000000007
 31
0.0
  0
LINE
  5
185
  8
DETAIL
  6
CONTINUOUS
 62
     5
 10
105.144936
 20
90.06496700000001
 30
0.0
 11
105.834418
 21
90.420093999999992
 31
0.0
  0
LINE
  5
186
  8
DETAIL
  6
CONTINUOUS
 62
     5
 10
104.506129
 20
89.628243000000012
 30
0.0
 11
105.144936
 21
90.06496700000001
 31
0.0
  0
LINE
  5
187
  8
DETAIL
  6
CONTINUOUS
 62
     5
 10
-86.103695000000002
 20
114.79905599999999
 30
0.0
 11
-85.309690000000003
 21
114.94937
 31
0.0
  0
LINE
  5
188
  8
DETAIL
  6
CONTINUOUS
 62
     5
 10
-86.869551999999985
 20
114.55269800000001
 30
0.0
 11
-86.103695000000002
 21
114.79905599999999
 31
0.0
  0
LINE
  5
189
  8
DETAIL
  6
CONTINUOUS
 62
     5
 10
-87.597279999999998
 20
114.214609
 30
0.0
 11
-86.869551999999985
 21
114.55269800000001
 31
0.0
  0
LINE
  5
18A
  8
DETAIL
  6
CONTINUOUS
 62
     5
 10
-88.275074000000004
 20
113.79138
 30
0.0
 11
-87.597279999999998
 21
114.214609
 31
0.0
  0
LINE
  5
18B
  8
DETAIL
  6
CONTINUOUS
 62
     5
 10
-88.89621600000001
 20
113.287813
 30
0.0
 11
-88.275074000000004
 21
113.79138
 31
0.0
  0
LINE
  5
18C
  8
DETAIL
  6
CONTINUOUS
 62
     5
 10
-89.450627999999995
 20
112.712023
 30
0.0
 11
-88.89621600000001
 21
113.287813
 31
0.0
  0
LINE
  5
18D
  8
DETAIL
  6
CONTINUOUS
 62
     5
 10
-89.932494999999989
 20
112.06901000000001
 30
0.0
 11
-89.450627999999995
 21
112.712023
 31
0.0
  0
LINE
  5
18E
  8
DETAIL
  6
CONTINUOUS
 62
     5
 10
-90.332137000000003
 20
111.369844
 30
0.0
 11
-89.932494999999989
 21
112.06901000000001
 31
0.0
  0
LINE
  5
18F
  8
DETAIL
  6
CONTINUOUS
 62
     5
 10
-90.643958999999995
 20
110.621692
 30
0.0
 11
-90.332137000000003
 21
111.369844
 31
0.0
  0
LINE
  5
190
  8
DETAIL
  6
CONTINUOUS
 62
     5
 10
-90.860426000000004
 20
109.839699
 30
0.0
 11
-90.643958999999995
 21
110.621692
 31
0.0
  0
LINE
  5
191
  8
DETAIL
  6
CONTINUOUS
 62
     5
 10
-90.978013999999988
 20
109.033978
 30
0.0
 11
-90.860426000000004
 21
109.839699
 31
0.0
  0
LINE
  5
192
  8
DETAIL
  6
CONTINUOUS
 62
     5
 10
-90.994048000000006
 20
108.222262
 30
0.0
 11
-90.978013999999988
 21
109.033978
 31
0.0
  0
LINE
  5
193
  8
DETAIL
  6
CONTINUOUS
 62
     5
 10
-90.908884999999998
 20
107.415567
 30
0.0
 11
-90.994048000000006
 21
108.222262
 31
0.0
  0
LINE
  5
194
  8
DETAIL
  6
CONTINUOUS
 62
     5
 10
-90.725185999999994
 20
106.630008
 30
0.0
 11
-90.908884999999998
 21
107.415567
 31
0.0
  0
LINE
  5
195
  8
DETAIL
  6
CONTINUOUS
 62
     5
 10
-90.446404999999984
 20
105.875103
 30
0.0
 11
-90.725185999999994
 21
106.630008
 31
0.0
  0
LINE
  5
196
  8
DETAIL
  6
CONTINUOUS
 62
     5
 10
-90.080618000000001
 20
105.167841
 30
0.0
 11
-90.446404999999984
 21
105.875103
 31
0.0
  0
LINE
  5
197
  8
DETAIL
  6
CONTINUOUS
 62
     5
 10
-103.411973
 20
-88.532961999999998
 30
0.0
 11
-103.925066
 21
-89.114699999999985
 31
0.0
  0
LINE
  5
198
  8
DETAIL
  6
CONTINUOUS
 62
     5
 10
-102.973857
 20
-87.890905000000004
 30
0.0
 11
-103.411973
 21
-88.532961999999998
 31
0.0
  0
LINE
  5
199
  8
DETAIL
  6
CONTINUOUS
 62
     5
 10
-102.61605
 20
-87.194742000000005
 30
0.0
 11
-102.973857
 21
-87.890905000000004
 31
0.0
  0
LINE
  5
19A
  8
DETAIL
  6
CONTINUOUS
 62
     5
 10
-102.34478300000001
 20
-86.452456999999995
 30
0.0
 11
-102.61605
 21
-87.194742000000005
 31
0.0
  0
LINE
  5
19B
  8
DETAIL
  6
CONTINUOUS
 62
     5
 10
-102.16639499999999
 20
-85.675752000000003
 30
0.0
 11
-102.34478300000001
 21
-86.452456999999995
 31
0.0
  0
LINE
  5
19C
  8
DETAIL
  6
CONTINUOUS
 62
     5
 10
-102.08548999999999
 20
-84.877763000000002
 30
0.0
 11
-102.16639499999999
 21
-85.675752000000003
 31
0.0
  0
LINE
  5
19D
  8
DETAIL
  6
CONTINUOUS
 62
     5
 10
-102.104218
 20
-84.072903999999994
 30
0.0
 11
-102.08548999999999
 21
-84.877763000000002
 31
0.0
  0
LINE
  5
19E
  8
DETAIL
  6
CONTINUOUS
 62
     5
 10
-102.22258100000001
 20
-83.274544999999989
 30
0.0
 11
-102.104218
 21
-84.072903999999994
 31
0.0
  0
LINE
  5
19F
  8
DETAIL
  6
CONTINUOUS
 62
     5
 10
-102.438097
 20
-82.496842000000001
 30
0.0
 11
-102.22258100000001
 21
-83.274544999999989
 31
0.0
  0
LINE
  5
1A0
  8
DETAIL
  6
CONTINUOUS
 62
     5
 10
-102.747024
 20
-81.751519999999999
 30
0.0
 11
-102.438097
 21
-82.496842000000001
 31
0.0
  0
LINE
  5
1A1
  8
DETAIL
  6
CONTINUOUS
 62
     5
 10
-103.143682
 20
-81.050380999999987
 30
0.0
 11
-102.747024
 21
-81.751519999999999
 31
0.0
  0
LINE
  5
1A2
  8
DETAIL
  6
CONTINUOUS
 62
     5
 10
-103.622573
 20
-80.402455000000003
 30
0.0
 11
-103.143682
 21
-81.050380999999987
 31
0.0
  0
LINE
  5
1A3
  8
DETAIL
  6
CONTINUOUS
 62
     5
 10
-104.176334
 20
-79.817518000000007
 30
0.0
 11
-103.622573
 21
-80.402455000000003
 31
0.0
  0
LINE
  5
1A4
  8
DETAIL
  6
CONTINUOUS
 62
     5
 10
-104.798159
 20
-79.303336999999999
 30
0.0
 11
-104.176334
 21
-79.817518000000007
 31
0.0
  0
LINE
  5
1A5
  8
DETAIL
  6
CONTINUOUS
 62
     5
 10
-105.478049
 20
-78.868870000000001
 30
0.0
 11
-104.798159
 21
-79.303336999999999
 31
0.0
  0
LINE
  5
1A6
  8
DETAIL
  6
CONTINUOUS
 62
     5
 10
-106.206271
 20
-78.520946999999992
 30
0.0
 11
-105.478049
 21
-78.868870000000001
 31
0.0
  0
LINE
  5
1A7
  8
DETAIL
  6
CONTINUOUS
 62
     5
 10
-106.970876
 20
-78.265763000000007
 30
0.0
 11
-106.206271
 21
-78.520946999999992
 31
0.0
  0
LINE
  5
1A8
  8
DETAIL
  6
CONTINUOUS
 62
     5
 10
-107.761224
 20
-78.107405
 30
0.0
 11
-106.970876
 21
-78.265763000000007
 31
0.0
  0
LINE
  5
1A9
  8
DETAIL
  6
CONTINUOUS
 62
     5
 10
-108.563005
 20
-78.049080000000004
 30
0.0
 11
-107.761224
 21
-78.107405
 31
0.0
  0
LINE
  5
1AA
  8
DETAIL
  6
CONTINUOUS
 62
     5
 10
-103.906418
 20
-89.098819999999989
 30
0.0
 11
-104.505252
 21
-89.627583999999999
 31
0.0
  0
LINE
  5
1AB
  8
DETAIL
  6
CONTINUOUS
 62
     5
 10
-103.37325300000001
 20
-88.495825999999994
 30
0.0
 11
-103.906418
 21
-89.098819999999989
 31
0.0
  0
LINE
  5
1AC
  8
DETAIL
  6
CONTINUOUS
 62
     5
 10
-102.918623
 20
-87.831426000000008
 30
0.0
 11
-103.37325300000001
 21
-88.495825999999994
 31
0.0
  0
LINE
  5
1AD
  8
DETAIL
  6
CONTINUOUS
 62
     5
 10
-102.549442
 20
-87.115538000000001
 30
0.0
 11
-102.918623
 21
-87.831426000000008
 31
0.0
  0
LINE
  5
1AE
  8
DETAIL
  6
CONTINUOUS
 62
     5
 10
-102.270533
 20
-86.355781999999991
 30
0.0
 11
-102.549442
 21
-87.115538000000001
 31
0.0
  0
LINE
  5
1AF
  8
DETAIL
  6
CONTINUOUS
 62
     5
 10
-102.08801699999999
 20
-85.566148999999996
 30
0.0
 11
-102.270533
 21
-86.355781999999991
 31
0.0
  0
LINE
  5
1B0
  8
DETAIL
  6
CONTINUOUS
 62
     5
 10
-102.005101
 20
-84.757855000000006
 30
0.0
 11
-102.08801699999999
 21
-85.566148999999996
 31
0.0
  0
LINE
  5
1B1
  8
DETAIL
  6
CONTINUOUS
 62
     5
 10
-102.023456
 20
-83.948117000000011
 30
0.0
 11
-102.005101
 21
-84.757855000000006
 31
0.0
  0
LINE
  5
1B2
  8
DETAIL
  6
CONTINUOUS
 62
     5
 10
-102.14215
 20
-83.147986000000003
 30
0.0
 11
-102.023456
 21
-83.948117000000011
 31
0.0
  0
LINE
  5
1B3
  8
DETAIL
  6
CONTINUOUS
 62
     5
 10
-102.357631
 20
-82.373619999999988
 30
0.0
 11
-102.14215
 21
-83.147986000000003
 31
0.0
  0
LINE
  5
1B4
  8
DETAIL
  6
CONTINUOUS
 62
     5
 10
-102.666259
 20
-81.633358000000001
 30
0.0
 11
-102.357631
 21
-82.373619999999988
 31
0.0
  0
LINE
  5
1B5
  8
DETAIL
  6
CONTINUOUS
 62
     5
 10
-103.06136600000001
 20
-80.940306000000007
 30
0.0
 11
-102.666259
 21
-81.633358000000001
 31
0.0
  0
LINE
  5
1B6
  8
DETAIL
  6
CONTINUOUS
 62
     5
 10
-103.53869400000001
 20
-80.300524999999993
 30
0.0
 11
-103.06136600000001
 21
-80.940306000000007
 31
0.0
  0
LINE
  5
1B7
  8
DETAIL
  6
CONTINUOUS
 62
     5
 10
-104.090148
 20
-79.724715000000003
 30
0.0
 11
-103.53869400000001
 21
-80.300524999999993
 31
0.0
  0
LINE
  5
1B8
  8
DETAIL
  6
CONTINUOUS
 62
     5
 10
-104.710819
 20
-79.218691000000007
 30
0.0
 11
-104.090148
 21
-79.724715000000003
 31
0.0
  0
LINE
  5
1B9
  8
DETAIL
  6
CONTINUOUS
 62
     5
 10
-105.390884
 20
-78.791805000000011
 30
0.0
 11
-104.710819
 21
-79.218691000000007
 31
0.0
  0
LINE
  5
1BA
  8
DETAIL
  6
CONTINUOUS
 62
     5
 10
-106.12268299999999
 20
-78.450335999999993
 30
0.0
 11
-105.390884
 21
-78.791805000000011
 31
0.0
  0
LINE
  5
1BB
  8
DETAIL
  6
CONTINUOUS
 62
     5
 10
-106.89319399999999
 20
-78.201729
 30
0.0
 11
-106.12268299999999
 21
-78.450335999999993
 31
0.0
  0
LINE
  5
1BC
  8
DETAIL
  6
CONTINUOUS
 62
     5
 10
-107.690512
 20
-78.050601
 30
0.0
 11
-106.89319399999999
 21
-78.201729
 31
0.0
  0
LINE
  5
1BD
  8
DETAIL
  6
CONTINUOUS
 62
     5
 10
-108.499985
 20
-78.0
 30
0.0
 11
-107.690512
 21
-78.050601
 31
0.0
  0
LINE
  5
1BE
  8
DETAIL
  6
CONTINUOUS
 62
     5
 10
-113.588016
 20
-80.467062999999996
 30
0.0
 11
-113.07493100000001
 21
-79.885328999999999
 31
0.0
  0
LINE
  5
1BF
  8
DETAIL
  6
CONTINUOUS
 62
     5
 10
-114.02613100000001
 20
-81.109126000000003
 30
0.0
 11
-113.588016
 21
-80.467062999999996
 31
0.0
  0
LINE
  5
1C0
  8
DETAIL
  6
CONTINUOUS
 62
     5
 10
-114.38393499999999
 20
-81.805291999999994
 30
0.0
 11
-114.02613100000001
 21
-81.109126000000003
 31
0.0
  0
LINE
  5
1C1
  8
DETAIL
  6
CONTINUOUS
 62
     5
 10
-114.655197
 20
-82.547578999999985
 30
0.0
 11
-114.38393499999999
 21
-81.805291999999994
 31
0.0
  0
LINE
  5
1C2
  8
DETAIL
  6
CONTINUOUS
 62
     5
 10
-114.83358
 20
-83.324280999999985
 30
0.0
 11
-114.655197
 21
-82.547578999999985
 31
0.0
  0
LINE
  5
1C3
  8
DETAIL
  6
CONTINUOUS
 62
     5
 10
-114.91448
 20
-84.122268999999974
 30
0.0
 11
-114.83358
 21
-83.324280999999985
 31
0.0
  0
LINE
  5
1C4
  8
DETAIL
  6
CONTINUOUS
 62
     5
 10
-114.895749
 20
-84.927126000000001
 30
0.0
 11
-114.91448
 21
-84.122268999999974
 31
0.0
  0
LINE
  5
1C5
  8
DETAIL
  6
CONTINUOUS
 62
     5
 10
-114.777382
 20
-85.725482999999997
 30
0.0
 11
-114.895749
 21
-84.927126000000001
 31
0.0
  0
LINE
  5
1C6
  8
DETAIL
  6
CONTINUOUS
 62
     5
 10
-114.561864
 20
-86.503181999999995
 30
0.0
 11
-114.777382
 21
-85.725482999999997
 31
0.0
  0
LINE
  5
1C7
  8
DETAIL
  6
CONTINUOUS
 62
     5
 10
-114.25293499999999
 20
-87.248502000000002
 30
0.0
 11
-114.561864
 21
-86.503181999999995
 31
0.0
  0
LINE
  5
1C8
  8
DETAIL
  6
CONTINUOUS
 62
     5
 10
-113.85627599999999
 20
-87.949636999999996
 30
0.0
 11
-114.25293499999999
 21
-87.248502000000002
 31
0.0
  0
LINE
  5
1C9
  8
DETAIL
  6
CONTINUOUS
 62
     5
 10
-113.37738400000001
 20
-88.597560000000001
 30
0.0
 11
-113.85627599999999
 21
-87.949636999999996
 31
0.0
  0
LINE
  5
1CA
  8
DETAIL
  6
CONTINUOUS
 62
     5
 10
-112.823623
 20
-89.182493000000008
 30
0.0
 11
-113.37738400000001
 21
-88.597560000000001
 31
0.0
  0
LINE
  5
1CB
  8
DETAIL
  6
CONTINUOUS
 62
     5
 10
-112.20179899999999
 20
-89.696670999999995
 30
0.0
 11
-112.823623
 21
-89.182493000000008
 31
0.0
  0
LINE
  5
1CC
  8
DETAIL
  6
CONTINUOUS
 62
     5
 10
-111.521911
 20
-90.131135999999998
 30
0.0
 11
-112.20179899999999
 21
-89.696670999999995
 31
0.0
  0
LINE
  5
1CD
  8
DETAIL
  6
CONTINUOUS
 62
     5
 10
-110.793691
 20
-90.479055999999986
 30
0.0
 11
-111.521911
 21
-90.131135999999998
 31
0.0
  0
LINE
  5
1CE
  8
DETAIL
  6
CONTINUOUS
 62
     5
 10
-110.029088
 20
-90.734238000000005
 30
0.0
 11
-110.793691
 21
-90.479055999999986
 31
0.0
  0
LINE
  5
1CF
  8
DETAIL
  6
CONTINUOUS
 62
     5
 10
-109.238743
 20
-90.892595
 30
0.0
 11
-110.029088
 21
-90.734238000000005
 31
0.0
  0
LINE
  5
1D0
  8
DETAIL
  6
CONTINUOUS
 62
     5
 10
-108.436964
 20
-90.950919999999996
 30
0.0
 11
-109.238743
 21
-90.892595
 31
0.0
  0
LINE
  5
1D1
  8
DETAIL
  6
CONTINUOUS
 62
     5
 10
-113.09350499999999
 20
-79.901133999999999
 30
0.0
 11
-112.494758
 21
-79.372447999999991
 31
0.0
  0
LINE
  5
1D2
  8
DETAIL
  6
CONTINUOUS
 62
     5
 10
-113.626627
 20
-80.504059999999996
 30
0.0
 11
-113.09350499999999
 21
-79.901133999999999
 31
0.0
  0
LINE
  5
1D3
  8
DETAIL
  6
CONTINUOUS
 62
     5
 10
-114.081259
 20
-81.168427000000008
 30
0.0
 11
-113.626627
 21
-80.504059999999996
 31
0.0
  0
LINE
  5
1D4
  8
DETAIL
  6
CONTINUOUS
 62
     5
 10
-114.450461
 20
-81.884310999999997
 30
0.0
 11
-114.081259
 21
-81.168427000000008
 31
0.0
  0
LINE
  5
1D5
  8
DETAIL
  6
CONTINUOUS
 62
     5
 10
-114.729393
 20
-82.644071999999994
 30
0.0
 11
-114.450461
 21
-81.884310999999997
 31
0.0
  0
LINE
  5
1D6
  8
DETAIL
  6
CONTINUOUS
 62
     5
 10
-114.911929
 20
-83.433711999999986
 30
0.0
 11
-114.729393
 21
-82.644071999999994
 31
0.0
  0
LINE
  5
1D7
  8
DETAIL
  6
CONTINUOUS
 62
     5
 10
-114.994863
 20
-84.242013999999983
 30
0.0
 11
-114.911929
 21
-83.433711999999986
 31
0.0
  0
LINE
  5
1D8
  8
DETAIL
  6
CONTINUOUS
 62
     5
 10
-114.976524
 20
-85.051761999999997
 30
0.0
 11
-114.994863
 21
-84.242013999999983
 31
0.0
  0
LINE
  5
1D9
  8
DETAIL
  6
CONTINUOUS
 62
     5
 10
-114.85784200000001
 20
-85.851906
 30
0.0
 11
-114.976524
 21
-85.051761999999997
 31
0.0
  0
LINE
  5
1DA
  8
DETAIL
  6
CONTINUOUS
 62
     5
 10
-114.642371
 20
-86.626285999999993
 30
0.0
 11
-114.85784200000001
 21
-85.851906
 31
0.0
  0
LINE
  5
1DB
  8
DETAIL
  6
CONTINUOUS
 62
     5
 10
-114.33375100000001
 20
-87.366562000000002
 30
0.0
 11
-114.642371
 21
-86.626285999999993
 31
0.0
  0
LINE
  5
1DC
  8
DETAIL
  6
CONTINUOUS
 62
     5
 10
-113.938648
 20
-88.059627000000006
 30
0.0
 11
-114.33375100000001
 21
-87.366562000000002
 31
0.0
  0
LINE
  5
1DD
  8
DETAIL
  6
CONTINUOUS
 62
     5
 10
-113.461321
 20
-88.699421999999998
 30
0.0
 11
-113.938648
 21
-88.059627000000006
 31
0.0
  0
LINE
  5
1DE
  8
DETAIL
  6
CONTINUOUS
 62
     5
 10
-112.909865
 20
-89.275244000000015
 30
0.0
 11
-113.461321
 21
-88.699421999999998
 31
0.0
  0
LINE
  5
1DF
  8
DETAIL
  6
CONTINUOUS
 62
     5
 10
-112.289191
 20
-89.78128000000001
 30
0.0
 11
-112.909865
 21
-89.275244000000015
 31
0.0
  0
LINE
  5
1E0
  8
DETAIL
  6
CONTINUOUS
 62
     5
 10
-111.60912
 20
-90.208175999999995
 30
0.0
 11
-112.289191
 21
-89.78128000000001
 31
0.0
  0
LINE
  5
1E1
  8
DETAIL
  6
CONTINUOUS
 62
     5
 10
-110.877314
 20
-90.549653000000006
 30
0.0
 11
-111.60912
 21
-90.208175999999995
 31
0.0
  0
LINE
  5
1E2
  8
DETAIL
  6
CONTINUOUS
 62
     5
 10
-110.10679500000001
 20
-90.798265999999998
 30
0.0
 11
-110.877314
 21
-90.549653000000006
 31
0.0
  0
LINE
  5
1E3
  8
DETAIL
  6
CONTINUOUS
 62
     5
 10
-109.309468
 20
-90.949398000000002
 30
0.0
 11
-110.10679500000001
 21
-90.798265999999998
 31
0.0
  0
LINE
  5
1E4
  8
DETAIL
  6
CONTINUOUS
 62
     5
 10
-108.499985
 20
-91.0
 30
0.0
 11
-109.309468
 21
-90.949398000000002
 31
0.0
  0
LINE
  5
1E5
  8
DETAIL
  6
CONTINUOUS
 62
     5
 10
-101.785974
 20
-139.13368399999999
 30
0.0
 11
-98.117192000000003
 21
-139.19501399999999
 31
0.0
  0
LINE
  5
1E6
  8
DETAIL
  6
CONTINUOUS
 62
     5
 10
-139.194999
 20
-98.117206999999993
 30
0.0
 11
-139.133669
 21
-101.78599
 31
0.0
  0
CIRCLE
  5
1E7
  8
DETAIL
  6
CONTINUOUS
 62
     5
 10
140.00001499999999
 20
140.0
 30
0.0
 40
5.0
  0
CIRCLE
  5
1E8
  8
DETAIL
  6
CONTINUOUS
 62
     5
 10
-139.99998500000001
 20
140.0
 30
0.0
 40
5.0
  0
CIRCLE
  5
1E9
  8
DETAIL
  6
CONTINUOUS
 62
     5
 10
-139.99998500000001
 20
-140.0
 30
0.0
 40
5.0
  0
CIRCLE
  5
1EA
  8
DETAIL
  6
CONTINUOUS
 62
     5
 10
140.00001499999999
 20
-140.0
 30
0.0
 40
5.0
  0
CIRCLE
  5
1EB
  8
DETAIL
  6
CONTINUOUS
 62
     5
 10
-131.99998500000001
 20
-75.0
 30
0.0
 40
4.0
  0
CIRCLE
  5
1EC
  8
DETAIL
  6
CONTINUOUS
 62
     5
 10
-74.999984999999995
 20
-132.0
 30
0.0
 40
4.0
  0
CIRCLE
  5
1ED
  8
DETAIL
  6
CONTINUOUS
 62
     5
 10
75.000015000000005
 20
-132.0
 30
0.0
 40
4.0
  0
CIRCLE
  5
1EE
  8
DETAIL
  6
CONTINUOUS
 62
     5
 10
132.00001499999999
 20
-75.0
 30
0.0
 40
4.0
  0
CIRCLE
  5
1EF
  8
DETAIL
  6
CONTINUOUS
 62
     5
 10
132.00001499999999
 20
75.0
 30
0.0
 40
4.0
  0
CIRCLE
  5
1F0
  8
DETAIL
  6
CONTINUOUS
 62
     5
 10
75.000015000000005
 20
132.0
 30
0.0
 40
4.0
  0
CIRCLE
  5
1F1
  8
DETAIL
  6
CONTINUOUS
 62
     5
 10
-74.999984999999995
 20
132.0
 30
0.0
 40
4.0
  0
CIRCLE
  5
1F2
  8
DETAIL
  6
CONTINUOUS
 62
     5
 10
-131.99998500000001
 20
75.0
 30
0.0
 40
4.0
  0
ARC
  5
1F3
  8
DETAIL
  6
CONTINUOUS
 62
     5
 10
0.000015
 20
0.0
 30
0.0
 40
107.5
 50
135.089213
 51
224.910787
  0
ARC
  5
1F4
  8
DETAIL
  6
CONTINUOUS
 62
     5
 10
0.000015
 20
0.0
 30
0.0
 40
107.5
 50
226.53099399999999
 51
307.84303499999999
  0
ARC
  5
1F5
  8
DETAIL
  6
CONTINUOUS
 62
     5
 10
0.000015
 20
0.0
 30
0.0
 40
107.5
 50
315.08921299999997
 51
44.910786999999999
  0
ARC
  5
1F6
  8
DETAIL
  6
CONTINUOUS
 62
     5
 10
0.000015
 20
5840.0
 30
0.0
 40
5997.8000000000002
 50
270.99642
 51
271.280351
  0
ARC
  5
1F7
  8
DETAIL
  6
CONTINUOUS
 62
     5
 10
0.000015
 20
5840.0
 30
0.0
 40
6000.0
 50
270.99605400000002
 51
271.280351
  0
ARC
  5
1F8
  8
DETAIL
  6
CONTINUOUS
 62
     5
 10
101.13920400000001
 20
-101.139189
 30
0.0
 40
38.0
 50
274.77332100000001
 51
359.02471800000001
  0
ARC
  5
1F9
  8
DETAIL
  6
CONTINUOUS
 62
     5
 10
-54.505111999999997
 20
-7.3612979999999988
 30
0.0
 40
5.0
 50
187.69173900000001
 51
203.22380899999999
  0
ARC
  5
1FA
  8
DETAIL
  6
CONTINUOUS
 62
     5
 10
0.000031
 20
0.0
 30
0.0
 40
60.0
 50
170.06363300000001
 51
187.69162999999989
  0
ARC
  5
1FB
  8
DETAIL
  6
CONTINUOUS
 62
     5
 10
0.00003
 20
0.0
 30
0.0
 40
104.0
 50
226.327808
 51
294.589992
  0
ARC
  5
1FC
  8
DETAIL
  6
CONTINUOUS
 62
     5
 10
54.808746999999997
 20
20.030830000000002
 30
0.0
 40
60.881020999999997
 50
123.03431999999999
 51
138.741095
  0
ARC
  5
1FD
  8
DETAIL
  6
CONTINUOUS
 62
     5
 10
68.847118000000009
 20
-1.9012290000000001
 30
0.0
 40
87.089737999999997
 50
95.658747999999989
 51
122.91103200000001
  0
ARC
  5
1FE
  8
DETAIL
  6
CONTINUOUS
 62
     5
 10
26.097708999999998
 20
-50.887225999999998
 30
0.0
 40
66.846337000000005
 50
43.954925999999993
 51
60.968911999999989
  0
ARC
  5
1FF
  8
DETAIL
  6
CONTINUOUS
 62
     5
 10
8.7025909999999982
 20
-63.245704000000003
 30
0.0
 40
88.156824
 50
18.599843
 51
41.883575999999991
  0
ARC
  5
200
  8
DETAIL
  6
CONTINUOUS
 62
     5
 10
0.00003
 20
0.0
 30
0.0
 40
104.0
 50
46.327821999999998
 51
54.589968000000013
  0
ARC
  5
201
  8
DETAIL
  6
CONTINUOUS
 62
     5
 10
-44.751536000000002
 20
37.450325999999997
 30
0.0
 40
60.881020999999997
 50
243.03430299999999
 51
256.91274099999998
  0
ARC
  5
202
  8
DETAIL
  6
CONTINUOUS
 62
     5
 10
-32.777000000000001
 20
60.573945999999999
 30
0.0
 40
87.089737999999997
 50
215.65874099999999
 51
242.91103199999989
  0
ARC
  5
203
  8
DETAIL
  6
CONTINUOUS
 62
     5
 10
31.020845000000001
 20
48.044865999999999
 30
0.0
 40
66.846337000000005
 50
163.95491899999999
 51
173.84793199999999
  0
ARC
  5
204
  8
DETAIL
  6
CONTINUOUS
 62
     5
 10
50.421140999999999
 20
39.159492
 30
0.0
 40
88.156824
 50
138.599829
 51
161.88361599999999
  0
ARC
  5
205
  8
DETAIL
  6
CONTINUOUS
 62
     5
 10
0.00003
 20
0.0
 30
0.0
 40
104.0
 50
135.33204499999999
 51
174.59000900000001
  0
ARC
  5
206
  8
DETAIL
  6
CONTINUOUS
 62
     5
 10
-59.123641999999997
 20
24.086212
 30
0.0
 40
88.156824
 50
266.88460400000002
 51
278.40214800000001
  0
ARC
  5
207
  8
DETAIL
  6
CONTINUOUS
 62
     5
 10
-36.070028000000001
 20
-58.672716999999999
 30
0.0
 40
87.089737999999997
 50
335.658772
 51
356.84393899999998
  0
ARC
  5
208
  8
DETAIL
  6
CONTINUOUS
 62
     5
 10
-77.136068999999992
 20
-65.244128000000003
 30
0.0
 40
2.9714290000000001
 50
78.599684999999994
 51
220.2257330000001
  0
ARC
  5
209
  8
DETAIL
  6
CONTINUOUS
 62
     5
 10
-17.934985000000001
 20
99.423884000000001
 30
0.0
 40
2.9714290000000001
 50
318.59969100000001
 51
100.22574
  0
ARC
  5
20A
  8
DETAIL
  6
CONTINUOUS
 62
     5
 10
95.071151999999984
 20
-34.179741999999997
 30
0.0
 40
2.9714290000000001
 50
198.599715
 51
340.22576400000003
  0
ARC
  5
20B
  8
DETAIL
  6
CONTINUOUS
 62
     5
 10
-59.123641999999997
 20
24.086212
 30
0.0
 40
88.156824
 50
258.59975800000001
 51
264.63704999999999
  0
ARC
  5
20C
  8
DETAIL
  6
CONTINUOUS
 62
     5
 10
0.00003
 20
0.0
 30
0.0
 40
104.0
 50
220.22556900000001
 51
224.66795500000001
  0
ARC
  5
20D
  8
DETAIL
  6
CONTINUOUS
 62
     5
 10
0.00003
 20
0.0
 30
0.0
 40
104.0
 50
340.22559999999999
 51
44.667968999999999
  0
ARC
  5
20E
  8
DETAIL
  6
CONTINUOUS
 62
     5
 10
0.00003
 20
0.0
 30
0.0
 40
104.0
 50
100.22563100000001
 51
133.672192
  0
LINE
  5
20F
  8
DETAIL
  6
CONTINUOUS
 62
     5
 10
-57.459797999999999
 20
-48.888730000000002
 30
0.0
 11
-48.761963999999999
 21
-57.586565
 31
0.0
  0
LINE
  5
210
  8
DETAIL
  6
CONTINUOUS
 62
     5
 10
-59.100000000000001
 20
-44.928932000000003
 30
0.0
 11
-59.100000000000001
 21
42.489129999999989
 31
0.0
  0
LINE
  5
211
  8
DETAIL
  6
CONTINUOUS
 62
     5
 10
-43.885725999999991
 20
-79.617184999999992
 30
0.0
 11
-47.262377999999998
 21
-60.467241000000001
 31
0.0
  0
LINE
  5
212
  8
DETAIL
  6
CONTINUOUS
 62
     5
 10
47.262377999999998
 20
-60.467241000000001
 30
0.0
 11
43.885725999999991
 21
-79.617184999999992
 31
0.0
  0
LINE
  5
213
  8
DETAIL
  6
CONTINUOUS
 62
     5
 10
59.100000000000001
 20
-44.928932000000003
 30
0.0
 11
59.100000000000001
 21
42.489129999999989
 31
0.0
  0
LINE
  5
214
  8
DETAIL
  6
CONTINUOUS
 62
     5
 10
57.459797999999999
 20
-48.888730000000002
 30
0.0
 11
48.761963999999999
 21
-57.586565
 31
0.0
  0
ARC
  5
215
  8
DETAIL
  6
CONTINUOUS
 62
     5
 10
53.5
 20
42.489129999999989
 30
0.0
 40
5.5999999999999988
 50
0.0
 51
62.662731000000008
  0
ARC
  5
216
  8
DETAIL
  6
CONTINUOUS
 62
     5
 10
-53.5
 20
42.489129999999989
 30
0.0
 40
5.5999999999999988
 50
117.33726900000001
 51
180.0
  0
ARC
  5
217
  8
DETAIL
  6
CONTINUOUS
 62
     5
 10
0.0
 20
-61.0
 30
0.0
 40
122.09999999999999
 50
62.662731000000008
 51
117.33726900000001
  0
ARC
  5
218
  8
DETAIL
  6
CONTINUOUS
 62
     5
 10
0.0
 20
63.0
 30
0.0
 40
154.09999999999999
 50
255.91202000000001
 51
284.08798000000002
  0
ARC
  5
219
  8
DETAIL
  6
CONTINUOUS
 62
     5
 10
-53.5
 20
-44.928932000000003
 30
0.0
 40
5.5999999999999988
 50
180.0
 51
225.0
  0
ARC
  5
21A
  8
DETAIL
  6
CONTINUOUS
 62
     5
 10
-52.58034
 20
-61.404941000000001
 30
0.0
 40
5.4000000000000004
 50
10.0
 51
45.0
  0
ARC
  5
21B
  8
DETAIL
  6
CONTINUOUS
 62
     5
 10
-35.416379999999997
 20
-78.123811000000003
 30
0.0
 40
8.5999999999999996
 50
190.0
 51
255.91202000000001
  0
ARC
  5
21C
  8
DETAIL
  6
CONTINUOUS
 62
     5
 10
53.5
 20
-44.928932000000003
 30
0.0
 40
5.5999999999999988
 50
315.0
 51
0.0
  0
ARC
  5
21D
  8
DETAIL
  6
CONTINUOUS
 62
     5
 10
52.58034
 20
-61.404941000000001
 30
0.0
 40
5.4000000000000004
 50
135.0
 51
170.0
  0
ARC
  5
21E
  8
DETAIL
  6
CONTINUOUS
 62
     5
 10
35.416379999999997
 20
-78.123811000000003
 30
0.0
 40
8.5999999999999996
 50
284.08798000000002
 51
350.0
  0
CIRCLE
  5
21F
  8
DETAIL
  6
CONTINUOUS
 62
     5
 10
0.0
 20
0.0
 30
0.0
 40
41.0
  0
ARC
  5
220
  8
DETAIL
  6
CONTINUOUS
 62
     5
 10
35.000015000000012
 20
-78.748493999999994
 30
0.0
 40
5.0
 50
280.61510800000002
 51
0.0
  0
ARC
  5
221
  8
DETAIL
  6
CONTINUOUS
 62
     5
 10
0.000015
 20
108.0
 30
0.0
 40
195.0
 50
259.38489199999998
 51
280.61510800000002
  0
ARC
  5
222
  8
DETAIL
  6
CONTINUOUS
 62
     5
 10
-34.999985000000002
 20
-78.748493999999994
 30
0.0
 40
5.0
 50
180.0
 51
259.38489199999998
  0
LINE
  5
223
  8
DETAIL
  6
CONTINUOUS
 62
     5
 10
-39.999985000000002
 20
-58.0
 30
0.0
 11
-39.999985000000002
 21
-78.748493999999994
 31
0.0
  0
ARC
  5
224
  8
DETAIL
  6
CONTINUOUS
 62
     5
 10
-34.999985000000002
 20
-58.0
 30
0.0
 40
5.0
 50
90.0
 51
180.0
  0
LINE
  5
225
  8
DETAIL
  6
CONTINUOUS
 62
     5
 10
40.000014999999998
 20
-58.0
 30
0.0
 11
40.000014999999998
 21
-78.748493999999994
 31
0.0
  0
ARC
  5
226
  8
DETAIL
  6
CONTINUOUS
 62
     5
 10
35.000015000000012
 20
-58.0
 30
0.0
 40
5.0
 50
0.0
 51
90.0
  0
LINE
  5
227
  8
DETAIL
  6
CONTINUOUS
 62
     5
 10
35.000015000000012
 20
-53.0
 30
0.0
 11
-34.999985000000002
 21
-53.0
 31
0.0
  0
LINE
  5
228
  8
DETAIL
  6
CONTINUOUS
 62
     5
 10
40.000014999999998
 20
-60.251488000000002
 30
0.0
 11
40.000014999999998
 21
-75.248465999999993
 31
0.0
  0
LINE
  5
229
  8
DETAIL
  6
CONTINUOUS
 62
     5
 10
-39.999985000000002
 20
-75.248465999999993
 30
0.0
 11
-39.999985000000002
 21
-60.251488000000002
 31
0.0
  0
LINE
  5
22A
  8
DETAIL
  6
CONTINUOUS
 62
     5
 10
95.205569999999994
 20
-125.799847
 30
0.0
 11
89.112606
 21
-117.098192
 31
0.0
  0
ARC
  5
22B
  8
DETAIL
  6
CONTINUOUS
 62
     5
 10
99.301330000000007
 20
-122.93196399999999
 30
0.0
 40
5.0
 50
215.0
 51
35.0
  0
LINE
  5
22C
  8
DETAIL
  6
CONTINUOUS
 62
     5
 10
56.627647000000003
 20
-53.270394999999994
 30
0.0
 11
55.165827
 21
-51.182701000000002
 31
0.0
  0
LINE
  5
22D
  8
DETAIL
  6
CONTINUOUS
 62
     5
 10
67.014088000000001
 20
-68.103769999999983
 30
0.0
 11
57.593839000000003
 21
-74.699899000000002
 31
0.0
  0
LINE
  5
22E
  8
DETAIL
  6
CONTINUOUS
 62
     5
 10
72.749852000000004
 20
-76.295291000000006
 30
0.0
 11
63.32960400000001
 21
-82.891419999999997
 31
0.0
  0
LINE
  5
22F
  8
DETAIL
  6
CONTINUOUS
 62
     5
 10
102.73146800000001
 20
-114.77831
 30
0.0
 11
88.552593999999985
 21
-117.19358699999999
 31
0.0
  0
LINE
  5
230
  8
DETAIL
  6
CONTINUOUS
 62
     5
 10
101.318794
 20
-112.763977
 30
0.0
 11
87.124573999999996
 21
-115.15733899999999
 31
0.0
  0
LINE
  5
231
  8
DETAIL
  6
CONTINUOUS
 62
     5
 10
103.512941
 20
-112.90705800000001
 30
0.0
 11
92.910950999999983
 21
-97.765846999999994
 31
0.0
  0
ARC
  5
232
  8
DETAIL
  6
CONTINUOUS
 62
     5
 10
102.52995799999999
 20
-113.59535
 30
0.0
 40
1.1999999999999991
 50
279.66716600000001
 51
35.0
  0
LINE
  5
233
  8
DETAIL
  6
CONTINUOUS
 62
     5
 10
87.368101999999993
 20
-116.698919
 30
0.0
 11
83.333446999999992
 21
-110.936835
 31
0.0
  0
ARC
  5
234
  8
DETAIL
  6
CONTINUOUS
 62
     5
 10
88.351084000000014
 20
-116.010627
 30
0.0
 40
1.1999999999999991
 50
215.0
 51
279.66716600000001
  0
ARC
  5
235
  8
DETAIL
  6
CONTINUOUS
 62
     5
 10
86.925052000000008
 20
-113.97404299999999
 30
0.0
 40
1.1999999999999991
 50
215.0
 51
279.57091700000001
  0
LINE
  5
236
  8
DETAIL
  6
CONTINUOUS
 62
     5
 10
101.337023
 20
-111.891661
 30
0.0
 11
87.142803999999984
 21
-114.285023
 31
0.0
  0
ARC
  5
237
  8
DETAIL
  6
CONTINUOUS
 62
     5
 10
101.119272
 20
-111.58068
 30
0.0
 40
1.1999999999999991
 50
279.57091700000001
 51
35.0
  0
ARC
  5
238
  8
DETAIL
  6
CONTINUOUS
 62
     5
 10
91.927968000000007
 20
-98.454138000000015
 30
0.0
 40
1.1999999999999991
 50
35.0
 51
125.0
  0
ARC
  5
239
  8
DETAIL
  6
CONTINUOUS
 62
     5
 10
84.316430000000011
 20
-110.248543
 30
0.0
 40
1.1999999999999991
 50
125.0
 51
215.0
  0
LINE
  5
23A
  8
DETAIL
  6
CONTINUOUS
 62
     5
 10
98.313283999999996
 20
-127.833369
 30
0.0
 11
110.566795
 21
-130.303483
 31
0.0
  0
LINE
  5
23B
  8
DETAIL
  6
CONTINUOUS
 62
     5
 10
98.076153000000005
 20
-129.00970599999999
 30
0.0
 11
110.32966500000001
 21
-131.47981999999999
 31
0.0
  0
ARC
  5
23C
  8
DETAIL
  6
CONTINUOUS
 62
     5
 10
99.301330000000007
 20
-122.93196399999999
 30
0.0
 40
6.2000000000000002
 50
178.75067899999999
 51
258.60281900000001
  0
LINE
  5
23D
  8
DETAIL
  6
CONTINUOUS
 62
     5
 10
111.255087
 20
-131.28646499999999
 30
0.0
 11
113.712543
 21
-129.56573599999999
 31
0.0
  0
LINE
  5
23E
  8
DETAIL
  6
CONTINUOUS
 62
     5
 10
114.007234
 20
-127.894462
 30
0.0
 11
103.512941
 21
-112.90705800000001
 31
0.0
  0
ARC
  5
23F
  8
DETAIL
  6
CONTINUOUS
 62
     5
 10
113.024252
 20
-128.582753
 30
0.0
 40
1.1999999999999991
 50
305.0
 51
35.0
  0
ARC
  5
240
  8
DETAIL
  6
CONTINUOUS
 62
     5
 10
110.566795
 20
-130.303483
 30
0.0
 40
1.1999999999999991
 50
258.60281900000001
 51
305.0
  0
LINE
  5
241
  8
DETAIL
  6
CONTINUOUS
 62
     5
 10
104.30132999999999
 20
-129.04046399999999
 30
0.0
 11
104.30132999999999
 21
-122.93196399999999
 31
0.0
  0
LINE
  5
242
  8
DETAIL
  6
CONTINUOUS
 62
     5
 10
87.142803999999984
 20
-114.285023
 30
0.0
 11
73.161978000000005
 21
-94.318336000000002
 31
0.0
  0
ARC
  5
243
  8
DETAIL
  6
CONTINUOUS
 62
     5
 10
96.801330000000007
 20
-175.19229999999999
 30
0.0
 40
5.0
 50
240.0
 51
300.0
  0
ARC
  5
244
  8
DETAIL
  6
CONTINUOUS
 62
     5
 10
101.80132999999999
 20
-175.19229999999999
 30
0.0
 40
5.0
 50
240.0
 51
300.0
  0
ARC
  5
245
  8
DETAIL
  6
CONTINUOUS
 62
     5
 10
101.80132999999999
 20
-183.852554
 30
0.0
 40
5.0
 50
60.0
 51
120.0
  0
LINE
  5
246
  8
DETAIL
  6
CONTINUOUS
 62
     5
 10
104.30132999999999
 20
-179.52242699999999
 30
0.0
 11
104.30132999999999
 21
-130.26460299999999
 31
0.0
  0
LINE
  5
247
  8
DETAIL
  6
CONTINUOUS
 62
     5
 10
94.301330000000007
 20
-179.52242699999999
 30
0.0
 11
94.301330000000007
 21
-126.59802500000001
 31
0.0
  0
LINE
  5
248
  8
DETAIL
  6
CONTINUOUS
 62
     5
 10
81.353498999999985
 20
-88.582571000000016
 30
0.0
 11
72.752402000000004
 21
-94.605124000000004
 31
0.0
  0
LINE
  5
249
  8
DETAIL
  6
CONTINUOUS
 62
     5
 10
72.752402000000004
 20
-94.605124000000004
 30
0.0
 11
64.148756000000006
 21
-82.317843000000011
 31
0.0
  0
LINE
  5
24A
  8
DETAIL
  6
CONTINUOUS
 62
     5
 10
63.32960400000001
 20
-82.891419999999997
 30
0.0
 11
57.593839000000003
 21
-74.699899000000002
 31
0.0
  0
LINE
  5
24B
  8
DETAIL
  6
CONTINUOUS
 62
     5
 10
58.412990999999998
 20
-74.126322999999999
 30
0.0
 11
47.644304999999989
 21
-58.747044999999993
 31
0.0
  0
LINE
  5
24C
  8
DETAIL
  6
CONTINUOUS
 62
     5
 10
-118.199983
 20
116.075
 30
0.0
 11
-113.199985
 21
118.94999900000001
 31
0.0
  0
LINE
  5
24D
  8
DETAIL
  6
CONTINUOUS
 62
     5
 10
-118.199985
 20
110.325
 30
0.0
 11
-118.199985
 21
116.075
 31
0.0
  0
LINE
  5
24E
  8
DETAIL
  6
CONTINUOUS
 62
     5
 10
-113.199985
 20
107.450001
 30
0.0
 11
-118.199983
 21
110.325
 31
0.0
  0
LINE
  5
24F
  8
DETAIL
  6
CONTINUOUS
 62
     5
 10
-108.199986
 20
110.325
 30
0.0
 11
-113.199984
 21
107.450001
 31
0.0
  0
LINE
  5
250
  8
DETAIL
  6
CONTINUOUS
 62
     5
 10
-108.199985
 20
116.075
 30
0.0
 11
-108.199985
 21
110.325
 31
0.0
  0
LINE
  5
251
  8
DETAIL
  6
CONTINUOUS
 62
     5
 10
-113.199984
 20
118.94999900000001
 30
0.0
 11
-108.199986
 21
116.075
 31
0.0
  0
CIRCLE
  5
252
  8
DETAIL
  6
CONTINUOUS
 62
     5
 10
-113.199985
 20
113.2
 30
0.0
 40
4.9000000000000004
  0
LINE
  5
253
  8
DETAIL
  6
CONTINUOUS
 62
     5
 10
118.200014
 20
116.075
 30
0.0
 11
113.20001600000001
 21
118.94999900000001
 31
0.0
  0
LINE
  5
254
  8
DETAIL
  6
CONTINUOUS
 62
     5
 10
118.20001499999999
 20
110.325
 30
0.0
 11
118.20001499999999
 21
116.075
 31
0.0
  0
LINE
  5
255
  8
DETAIL
  6
CONTINUOUS
 62
     5
 10
113.20001600000001
 20
107.450001
 30
0.0
 11
118.200014
 21
110.325
 31
0.0
  0
LINE
  5
256
  8
DETAIL
  6
CONTINUOUS
 62
     5
 10
108.200017
 20
110.325
 30
0.0
 11
113.20001499999999
 21
107.450001
 31
0.0
  0
LINE
  5
257
  8
DETAIL
  6
CONTINUOUS
 62
     5
 10
108.20001499999999
 20
116.075
 30
0.0
 11
108.20001499999999
 21
110.325
 31
0.0
  0
LINE
  5
258
  8
DETAIL
  6
CONTINUOUS
 62
     5
 10
113.20001499999999
 20
118.94999900000001
 30
0.0
 11
108.200017
 21
116.075
 31
0.0
  0
CIRCLE
  5
259
  8
DETAIL
  6
CONTINUOUS
 62
     5
 10
113.20001499999999
 20
113.2
 30
0.0
 40
4.9000000000000004
  0
LINE
  5
25A
  8
DETAIL
  6
CONTINUOUS
 62
     5
 10
118.200014
 20
-116.075
 30
0.0
 11
113.20001600000001
 21
-118.94999900000001
 31
0.0
  0
LINE
  5
25B
  8
DETAIL
  6
CONTINUOUS
 62
     5
 10
118.20001499999999
 20
-110.325
 30
0.0
 11
118.20001499999999
 21
-116.075
 31
0.0
  0
LINE
  5
25C
  8
DETAIL
  6
CONTINUOUS
 62
     5
 10
113.20001600000001
 20
-107.450001
 30
0.0
 11
118.200014
 21
-110.325
 31
0.0
  0
LINE
  5
25D
  8
DETAIL
  6
CONTINUOUS
 62
     5
 10
108.200017
 20
-110.325
 30
0.0
 11
113.20001499999999
 21
-107.450001
 31
0.0
  0
LINE
  5
25E
  8
DETAIL
  6
CONTINUOUS
 62
     5
 10
108.20001499999999
 20
-116.075
 30
0.0
 11
108.20001499999999
 21
-110.325
 31
0.0
  0
LINE
  5
25F
  8
DETAIL
  6
CONTINUOUS
 62
     5
 10
113.20001499999999
 20
-118.94999900000001
 30
0.0
 11
108.200017
 21
-116.075
 31
0.0
  0
CIRCLE
  5
260
  8
DETAIL
  6
CONTINUOUS
 62
     5
 10
113.20001499999999
 20
-113.2
 30
0.0
 40
4.9000000000000004
  0
LINE
  5
261
  8
DETAIL
  6
CONTINUOUS
 62
     5
 10
-118.200014
 20
-116.075
 30
0.0
 11
-113.20001600000001
 21
-118.94999900000001
 31
0.0
  0
LINE
  5
262
  8
DETAIL
  6
CONTINUOUS
 62
     5
 10
-118.20001499999999
 20
-110.325
 30
0.0
 11
-118.20001499999999
 21
-116.075
 31
0.0
  0
LINE
  5
263
  8
DETAIL
  6
CONTINUOUS
 62
     5
 10
-113.20001600000001
 20
-107.450001
 30
0.0
 11
-118.200014
 21
-110.325
 31
0.0
  0
LINE
  5
264
  8
DETAIL
  6
CONTINUOUS
 62
     5
 10
-108.200017
 20
-110.325
 30
0.0
 11
-113.20001499999999
 21
-107.450001
 31
0.0
  0
LINE
  5
265
  8
DETAIL
  6
CONTINUOUS
 62
     5
 10
-108.20001499999999
 20
-116.075
 30
0.0
 11
-108.20001499999999
 21
-110.325
 31
0.0
  0
LINE
  5
266
  8
DETAIL
  6
CONTINUOUS
 62
     5
 10
-113.20001499999999
 20
-118.94999900000001
 30
0.0
 11
-108.200017
 21
-116.075
 31
0.0
  0
CIRCLE
  5
267
  8
DETAIL
  6
CONTINUOUS
 62
     5
 10
-113.20001499999999
 20
-113.2
 30
0.0
 40
4.9000000000000004
  0
LINE
  5
268
  8
DETAIL
  6
CONTINUOUS
 62
     5
 10
-4.7000000000000002
 20
61.388444999999997
 30
0.0
 11
4.7000000000000002
 21
61.388444999999997
 31
0.0
  0
LINE
  5
269
  8
DETAIL
  6
CONTINUOUS
 62
     5
 10
4.7000000000000002
 20
61.100000000000001
 30
0.0
 11
4.7000000000000002
 21
61.388444999999997
 31
0.0
  0
LINE
  5
26A
  8
DETAIL
  6
CONTINUOUS
 62
     5
 10
-4.7000000000000002
 20
61.100000000000001
 30
0.0
 11
-4.7000000000000002
 21
61.388444999999997
 31
0.0
  0
LINE
  5
26B
  8
DETAIL
  6
CONTINUOUS
 62
     5
 10
4.7000000000000002
 20
61.100000000000001
 30
0.0
 11
-4.7000000000000002
 21
61.100000000000001
 31
0.0
  0
ARC
  5
26C
  8
DETAIL
  6
CONTINUOUS
 62
     5
 10
0.0
 20
57.5
 30
0.0
 40
6.0999999999999988
 50
39.601965
 51
140.39801700000001
  0
LINE
  5
26D
  8
DETAIL
  6
CONTINUOUS
 62
     5
 10
-4.7000000000000002
 20
-91.38844499999999
 30
0.0
 11
4.7000000000000002
 21
-91.38844499999999
 31
0.0
  0
LINE
  5
26E
  8
DETAIL
  6
CONTINUOUS
 62
     5
 10
4.7000000000000002
 20
-91.099999999999994
 30
0.0
 11
4.7000000000000002
 21
-91.38844499999999
 31
0.0
  0
LINE
  5
26F
  8
DETAIL
  6
CONTINUOUS
 62
     5
 10
-4.7000000000000002
 20
-91.099999999999994
 30
0.0
 11
-4.7000000000000002
 21
-91.38844499999999
 31
0.0
  0
LINE
  5
270
  8
DETAIL
  6
CONTINUOUS
 62
     5
 10
4.7000000000000002
 20
-91.099999999999994
 30
0.0
 11
-4.7000000000000002
 21
-91.099999999999994
 31
0.0
  0
ARC
  5
271
  8
DETAIL
  6
CONTINUOUS
 62
     5
 10
0.0
 20
-87.5
 30
0.0
 40
6.0999999999999988
 50
219.60198299999999
 51
320.39803499999999
  0
LINE
  5
272
  8
DETAIL
  6
CONTINUOUS
 62
     5
 10
58.000014999999998
 20
45.822276000000002
 30
0.0
 11
58.000014999999998
 21
48.108207
 31
0.0
  0
LINE
  5
273
  8
DETAIL
  6
CONTINUOUS
 62
     5
 10
113.024252
 20
128.582753
 30
0.0
 11
59.085102999999997
 21
51.549665999999988
 31
0.0
  0
ARC
  5
274
  8
DETAIL
  6
CONTINUOUS
 62
     5
 10
64.000015000000005
 20
48.108207
 30
0.0
 40
6.0
 50
145.0
 51
180.0
  0
LINE
  5
275
  8
DETAIL
  6
CONTINUOUS
 62
     5
 10
98.684841000000006
 20
108.10395200000001
 30
0.0
 11
114.22183
 21
97.224834999999999
 31
0.0
  0
LINE
  5
276
  8
DETAIL
  6
CONTINUOUS
 62
     5
 10
110.566795
 20
130.303483
 30
0.0
 11
128.561241
 21
117.703636
 31
0.0
  0
LINE
  5
277
  8
DETAIL
  6
CONTINUOUS
 62
     5
 10
117.00728700000001
 20
97.715986000000001
 30
0.0
 11
129.052392
 21
114.91817899999999
 31
0.0
  0
LINE
  5
278
  8
DETAIL
  6
CONTINUOUS
 62
     5
 10
114.22183
 20
97.224834999999999
 30
0.0
 11
117.00728700000001
 21
97.715986000000001
 31
0.0
  0
LINE
  5
279
  8
DETAIL
  6
CONTINUOUS
 62
     5
 10
129.052392
 20
114.91817899999999
 30
0.0
 11
128.561241
 21
117.703636
 31
0.0
  0
LINE
  5
27A
  8
DETAIL
  6
CONTINUOUS
 62
     5
 10
110.566795
 20
130.303483
 30
0.0
 11
56.627647000000003
 21
53.270394999999994
 31
0.0
  0
ARC
  5
27B
  8
DETAIL
  6
CONTINUOUS
 62
     5
 10
64.000015000000005
 20
48.108207
 30
0.0
 40
9.0
 50
145.0
 51
180.0
  0
LINE
  5
27C
  8
DETAIL
  6
CONTINUOUS
 62
     5
 10
99.667822999999999
 20
-107.415661
 30
0.0
 11
114.22183
 21
-97.224834999999999
 31
0.0
  0
LINE
  5
27D
  8
DETAIL
  6
CONTINUOUS
 62
     5
 10
110.566795
 20
-130.303483
 30
0.0
 11
100.01943199999999
 21
-115.240287
 31
0.0
  0
LINE
  5
27E
  8
DETAIL
  6
CONTINUOUS
 62
     5
 10
113.024252
 20
-128.582753
 30
0.0
 11
103.29148000000001
 21
-114.68291499999999
 31
0.0
  0
LINE
  5
27F
  8
DETAIL
  6
CONTINUOUS
 62
     5
 10
110.566795
 20
-130.303483
 30
0.0
 11
113.024252
 21
-128.582753
 31
0.0
  0
LINE
  5
280
  8
DETAIL
  6
CONTINUOUS
 62
     5
 10
129.052392
 20
-114.91817899999999
 30
0.0
 11
128.561241
 21
-117.703636
 31
0.0
  0
LINE
  5
281
  8
DETAIL
  6
CONTINUOUS
 62
     5
 10
117.00728700000001
 20
-97.715986000000001
 30
0.0
 11
129.052392
 21
-114.91817899999999
 31
0.0
  0
LINE
  5
282
  8
DETAIL
  6
CONTINUOUS
 62
     5
 10
114.22183
 20
-97.224834999999999
 30
0.0
 11
117.00728700000001
 21
-97.715986000000001
 31
0.0
  0
ARC
  5
283
  8
DETAIL
  6
CONTINUOUS
 62
     5
 10
64.000015000000005
 20
-48.108207
 30
0.0
 40
9.0
 50
198.09424200000001
 51
215.0
  0
ARC
  5
284
  8
DETAIL
  6
CONTINUOUS
 62
     5
 10
64.000015000000005
 20
-48.108207
 30
0.0
 40
6.0
 50
181.44490200000001
 51
215.0
  0
LINE
  5
285
  8
DETAIL
  6
CONTINUOUS
 62
     5
 10
-98.684809999999999
 20
-108.10395200000001
 30
0.0
 11
-114.2218
 21
-97.224834999999999
 31
0.0
  0
LINE
  5
286
  8
DETAIL
  6
CONTINUOUS
 62
     5
 10
-110.566765
 20
-130.303483
 30
0.0
 11
-56.627616000000003
 21
-53.270394999999994
 31
0.0
  0
LINE
  5
287
  8
DETAIL
  6
CONTINUOUS
 62
     5
 10
-113.024221
 20
-128.582753
 30
0.0
 11
-59.08507199999999
 21
-51.549665999999988
 31
0.0
  0
LINE
  5
288
  8
DETAIL
  6
CONTINUOUS
 62
     5
 10
-110.566765
 20
-130.303483
 30
0.0
 11
-128.56121099999999
 21
-117.703636
 31
0.0
  0
LINE
  5
289
  8
DETAIL
  6
CONTINUOUS
 62
     5
 10
-129.05236199999999
 20
-114.91817899999999
 30
0.0
 11
-128.56121099999999
 21
-117.703636
 31
0.0
  0
LINE
  5
28A
  8
DETAIL
  6
CONTINUOUS
 62
     5
 10
-117.007257
 20
-97.715986000000001
 30
0.0
 11
-129.05236199999999
 21
-114.91817899999999
 31
0.0
  0
LINE
  5
28B
  8
DETAIL
  6
CONTINUOUS
 62
     5
 10
-114.2218
 20
-97.224834999999999
 30
0.0
 11
-117.007257
 21
-97.715986000000001
 31
0.0
  0
ARC
  5
28C
  8
DETAIL
  6
CONTINUOUS
 62
     5
 10
-63.999984999999988
 20
-48.108207
 30
0.0
 40
9.0
 50
325.0
 51
341.90560399999998
  0
ARC
  5
28D
  8
DETAIL
  6
CONTINUOUS
 62
     5
 10
-63.999984999999988
 20
-48.108207
 30
0.0
 40
6.0
 50
325.0
 51
357.74860699999999
  0
LINE
  5
28E
  8
DETAIL
  6
CONTINUOUS
 62
     5
 10
-98.684809999999999
 20
108.10395200000001
 30
0.0
 11
-114.2218
 21
97.224834999999999
 31
0.0
  0
LINE
  5
28F
  8
DETAIL
  6
CONTINUOUS
 62
     5
 10
-110.566765
 20
130.303483
 30
0.0
 11
-56.627616000000003
 21
53.270394999999994
 31
0.0
  0
LINE
  5
290
  8
DETAIL
  6
CONTINUOUS
 62
     5
 10
-113.024221
 20
128.582753
 30
0.0
 11
-59.08507199999999
 21
51.549665999999988
 31
0.0
  0
LINE
  5
291
  8
DETAIL
  6
CONTINUOUS
 62
     5
 10
-110.566765
 20
130.303483
 30
0.0
 11
-128.56121099999999
 21
117.703636
 31
0.0
  0
LINE
  5
292
  8
DETAIL
  6
CONTINUOUS
 62
     5
 10
-129.05236199999999
 20
114.91817899999999
 30
0.0
 11
-128.56121099999999
 21
117.703636
 31
0.0
  0
LINE
  5
293
  8
DETAIL
  6
CONTINUOUS
 62
     5
 10
-117.007257
 20
97.715986000000001
 30
0.0
 11
-129.05236199999999
 21
114.91817899999999
 31
0.0
  0
LINE
  5
294
  8
DETAIL
  6
CONTINUOUS
 62
     5
 10
-114.2218
 20
97.224834999999999
 30
0.0
 11
-117.007257
 21
97.715986000000001
 31
0.0
  0
LINE
  5
295
  8
DETAIL
  6
CONTINUOUS
 62
     5
 10
-57.999985000000002
 20
45.822316999999998
 30
0.0
 11
-57.999985000000002
 21
48.108207
 31
0.0
  0
ARC
  5
296
  8
DETAIL
  6
CONTINUOUS
 62
     5
 10
-63.999984999999988
 20
48.108207
 30
0.0
 40
9.0
 50
0.0
 51
35.0
  0
ARC
  5
297
  8
DETAIL
  6
CONTINUOUS
 62
     5
 10
-63.999984999999988
 20
48.108207
 30
0.0
 40
6.0
 50
0.0
 51
35.0
  0
LINE
  5
298
  8
DETAIL
  6
CONTINUOUS
 62
     5
 10
114.007234
 20
-127.894462
 30
0.0
 11
128.561241
 21
-117.703636
 31
0.0
  0
LINE
  5
299
  8
DETAIL
  6
CONTINUOUS
 62
     5
 10
101.337023
 20
-111.891661
 30
0.0
 11
59.085102999999997
 21
-51.549665999999988
 31
0.0
  0
LINE
  5
29A
  8
DETAIL
  6
CONTINUOUS
 62
     5
 10
98.061433999999991
 20
-112.44397499999999
 30
0.0
 11
56.627647000000003
 21
-53.270394999999994
 31
0.0
  0
LINE
  5
29B
  8
BASIS
  6
DASHDOT
 62
     6
 39
50.0
 10
-175.0
 20
0.0
 30
0.0
 11
175.0
 21
0.0
 31
0.0
  0
POINT
  5
29C
  8
ARRANGE
  6
CONTINUOUS
 62
     1
 10
0.0
 20
0.0
 30
0.0
 39
50.0
  0
LINE
  5
29D
  8
BASIS
  6
DASHDOT
 62
     6
 39
50.0
 10
0.0
 20
175.0
 30
0.0
 11
0.0
 21
-175.0
 31
0.0
  0
LINE
  5
29E
  8
NOTE
  6
CONTINUOUS
 62
     4
 10
-139.99998500000001
 20
-160.0
 30
0.0
 11
-139.99998500000001
 21
-120.0
 31
0.0
  0
LINE
  5
29F
  8
NOTE
  6
CONTINUOUS
 62
     4
 10
-159.99998500000001
 20
-140.0
 30
0.0
 11
-119.999985
 21
-140.0
 31
0.0
  0
LINE
  5
2A0
  8
NOTE
  6
CONTINUOUS
 62
     4
 10
140.0
 20
-160.0
 30
0.0
 11
140.0
 21
-120.0
 31
0.0
  0
LINE
  5
2A1
  8
NOTE
  6
CONTINUOUS
 62
     4
 10
120.0
 20
-140.0
 30
0.0
 11
160.0
 21
-140.0
 31
0.0
  0
LINE
  5
2A2
  8
NOTE
  6
CONTINUOUS
 62
     4
 10
140.00001499999999
 20
120.0
 30
0.0
 11
140.00001499999999
 21
160.0
 31
0.0
  0
LINE
  5
2A3
  8
NOTE
  6
CONTINUOUS
 62
     4
 10
120.000015
 20
140.0
 30
0.0
 11
160.00001499999999
 21
140.0
 31
0.0
  0
LINE
  5
2A4
  8
NOTE
  6
CONTINUOUS
 62
     4
 10
-140.0
 20
120.0
 30
0.0
 11
-140.0
 21
160.0
 31
0.0
  0
LINE
  5
2A5
  8
NOTE
  6
CONTINUOUS
 62
     4
 10
-160.0
 20
140.0
 30
0.0
 11
-120.0
 21
140.0
 31
0.0
  0
CIRCLE
  5
2A6
  8
FIX
  6
CONTINUOUS
 62
    11
 10
-139.99998500000001
 20
140.0
 30
0.0
 40
5.0
  0
CIRCLE
  5
2A7
  8
FIX
  6
CONTINUOUS
 62
    11
 10
-139.99998500000001
 20
-140.0
 30
0.0
 40
5.0
  0
CIRCLE
  5
2A8
  8
FIX
  6
CONTINUOUS
 62
    11
 10
140.00001499999999
 20
-140.0
 30
0.0
 40
5.0
  0
CIRCLE
  5
2A9
  8
FIX
  6
CONTINUOUS
 62
    11
 10
140.00001499999999
 20
140.0
 30
0.0
 40
5.0
  0
CIRCLE
  5
2AA
  8
DETAIL
  6
CONTINUOUS
 62
     5
 39
50.0
 10
0.0
 20
0.0
 30
0.0
 40
48.5
  0
TEXT
  5
2AB
  8
NOTE
  6
CONTINUOUS
 62
     4
 10
265.13635599999998
 20
257.57447300000001
 30
0.0
 40
64.0
  1
4-φ10
 41
0.9
  0
LINE
  5
2AC
  8
NOTE
  6
CONTINUOUS
 62
     4
 39
50.0
 10
263.176402
 20
242.55670499999999
 30
0.0
 11
541.489689
 21
242.55670499999999
 31
0.0
  0
LINE
  5
2AD
  8
NOTE
  6
CONTINUOUS
 62
     4
 10
166.59195600000001
 20
176.10005799999999
 30
0.0
 11
143.84250599999999
 21
143.19926000000001
 31
0.0
  0
LINE
  5
2AE
  8
NOTE
  6
CONTINUOUS
 62
     4
 10
143.84250599999999
 20
143.19926000000001
 30
0.0
 11
179.994507
 21
160.31746200000001
 31
0.0
  0
LINE
  5
2AF
  8
NOTE
  6
CONTINUOUS
 62
     4
 39
50.0
 10
143.84250599999999
 20
143.19926000000001
 30
0.0
 11
263.176402
 21
242.55670499999999
 31
0.0
  0
ARC
  5
2B0
  8
DETAIL
  6
CONTINUOUS
 62
     5
 39
50.0
 10
84.609759999999994
 20
-108.332622
 30
0.0
 40
6.5
 50
136.88992999999999
 51
293.09389700000003
  0
LINE
  5
2B1
  8
NOTE
  6
CONTINUOUS
 62
     4
 10
99.301330000000007
 20
-147.93196399999999
 30
0.0
 11
99.301330000000007
 21
-107.93196399999999
 31
0.0
  0
LINE
  5
2B2
  8
NOTE
  6
CONTINUOUS
 62
     4
 10
79.301330000000007
 20
-127.93196399999999
 30
0.0
 11
119.30132999999999
 21
-127.93196399999999
 31
0.0
  0
LINE
  5
2B3
  8
NOTE
  6
CONTINUOUS
 62
     4
 10
97.110852000000008
 20
-167.91055800000001
 30
0.0
 11
99.188741000000007
 21
-127.96456499999999
 31
0.0
  0
LINE
  5
2B4
  8
NOTE
  6
CONTINUOUS
 62
     4
 10
99.188741000000007
 20
-127.96456499999999
 30
0.0
 11
77.416240000000002
 21
-161.51986500000001
 31
0.0
  0
TEXT
  5
2B5
  8
NOTE
  6
CONTINUOUS
 62
     4
 10
-51.835301999999992
 20
-280.38412399999999
 30
0.0
 40
64.0
  1
EL
 41
0.9
  0
LINE
  5
2B6
  8
NOTE
  6
CONTINUOUS
 62
     4
 39
50.0
 10
-55.351500999999999
 20
-294.31502999999998
 30
0.0
 11
39.194976000000011
 21
-294.31502999999998
 31
0.0
  0
LINE
  5
2B7
  8
NOTE
  6
CONTINUOUS
 62
     4
 39
50.0
 10
39.194976000000011
 20
-294.31502999999998
 30
0.0
 11
99.301330000000007
 21
-127.93196399999999
 31
0.0
  0
ARC
  5
2B8
  8
OUTLINE
  6
CONTINUOUS
 62
     3
 10
0.000015
 20
5840.0
 30
0.0
 40
6000.0
 50
268.719649
 51
270.90054800000001
  0
ARC
  5
2B9
  8
OUTLINE
  6
CONTINUOUS
 62
     3
 10
-133.5082129999999
 20
-133.508228
 30
0.0
 40
25.0
 50
181.280351
 51
268.719649
  0
ARC
  5
2BA
  8
OUTLINE
  6
CONTINUOUS
 62
     3
 10
-5839.9999850000013
 20
0.0
 30
0.0
 40
6000.0
 50
358.719649
 51
1.280351
  0
ARC
  5
2BB
  8
OUTLINE
  6
CONTINUOUS
 62
     3
 10
133.50824399999999
 20
-133.508228
 30
0.0
 40
25.0
 50
271.280351
 51
358.719649
  0
ARC
  5
2BC
  8
OUTLINE
  6
CONTINUOUS
 62
     3
 10
133.50824399999999
 20
133.508228
 30
0.0
 40
25.0
 50
1.280351
 51
88.719649000000004
  0
ARC
  5
2BD
  8
OUTLINE
  6
CONTINUOUS
 62
     3
 10
0.000015
 20
-5840.0
 30
0.0
 40
6000.0
 50
88.719649000000004
 51
91.280350999999996
  0
ARC
  5
2BE
  8
OUTLINE
  6
CONTINUOUS
 62
     3
 10
-133.5082129999999
 20
133.508228
 30
0.0
 40
25.0
 50
91.280350999999996
 51
178.719649
  0
ARC
  5
2BF
  8
OUTLINE
  6
CONTINUOUS
 62
     3
 10
5840.0000149999996
 20
0.0
 30
0.0
 40
6000.0
 50
178.719649
 51
181.280351
  0
ARC
  5
2C0
  8
OUTLINE
  6
CONTINUOUS
 62
     3
 10
0.000015
 20
5840.0
 30
0.0
 40
6000.0
 50
270.99605400000002
 51
271.280351
  0
LINE
  5
2C1
  8
SIZE
  6
CONTINUOUS
 62
    30
 10
-159.99998500000001
 20
20.0
 30
0.0
 11
-159.99998500000001
 21
352.53604200000001
 31
0.0
  0
LINE
  5
2C2
  8
SIZE
  6
CONTINUOUS
 62
    30
 10
160.00001499999999
 20
20.0
 30
0.0
 11
160.00001499999999
 21
352.53604200000001
 31
0.0
  0
LINE
  5
2C3
  8
SIZE
  6
CONTINUOUS
 62
    30
 10
-147.99998500000001
 20
332.53604200000001
 30
0.0
 11
148.00001499999999
 21
332.53604200000001
 31
0.0
  0
CIRCLE
  5
2C4
  8
SIZE
  6
CONTINUOUS
 62
    30
 10
-159.99998500000001
 20
332.53604200000001
 30
0.0
 40
6.0
  0
LINE
  5
2C5
  8
SIZE
  6
CONTINUOUS
 62
    30
 10
-159.99998500000001
 20
332.53604200000001
 30
0.0
 11
-147.99998500000001
 21
332.53604200000001
 31
0.0
  0
CIRCLE
  5
2C6
  8
SIZE
  6
CONTINUOUS
 62
    30
 10
160.00001499999999
 20
332.53604200000001
 30
0.0
 40
6.0
  0
LINE
  5
2C7
  8
SIZE
  6
CONTINUOUS
 62
    30
 10
160.00001499999999
 20
332.53604200000001
 30
0.0
 11
148.00001499999999
 21
332.53604200000001
 31
0.0
  0
TEXT
  5
2C8
  8
SIZE
  6
CONTINUOUS
 62
    30
 10
-74.057127857142845
 20
357.53604200000001
 30
0.0
 40
64.0
  1
320
 41
0.9
 72
     1
 11
0.000015
 21
357.53604200000001
 31
0.0
  0
POINT
  5
2C9
  8
DEFPOINTS
  6
CONTINUOUS
 62
    30
 10
-159.99998500000001
 20
0.0
 30
0.0
  0
POINT
  5
2CA
  8
DEFPOINTS
  6
CONTINUOUS
 62
    30
 10
160.00001499999999
 20
0.0
 30
0.0
  0
POINT
  5
2CB
  8
DEFPOINTS
  6
CONTINUOUS
 62
    30
 10
160.00001499999999
 20
332.53604200000001
 30
0.0
  0
LINE
  5
2CC
  8
SIZE
  6
CONTINUOUS
 62
    30
 10
-140.0
 20
180.0
 30
0.0
 11
-140.0
 21
227.58262400000001
 31
0.0
  0
LINE
  5
2CD
  8
SIZE
  6
CONTINUOUS
 62
    30
 10
140.00001499999999
 20
180.0
 30
0.0
 11
140.00001499999999
 21
227.58262400000001
 31
0.0
  0
LINE
  5
2CE
  8
SIZE
  6
CONTINUOUS
 62
    30
 10
-128.0
 20
207.58262400000001
 30
0.0
 11
128.00001499999999
 21
207.58262400000001
 31
0.0
  0
CIRCLE
  5
2CF
  8
SIZE
  6
CONTINUOUS
 62
    30
 10
-140.0
 20
207.58262400000001
 30
0.0
 40
6.0
  0
LINE
  5
2D0
  8
SIZE
  6
CONTINUOUS
 62
    30
 10
-140.0
 20
207.58262400000001
 30
0.0
 11
-128.0
 21
207.58262400000001
 31
0.0
  0
CIRCLE
  5
2D1
  8
SIZE
  6
CONTINUOUS
 62
    30
 10
140.00001499999999
 20
207.58262400000001
 30
0.0
 40
6.0
  0
LINE
  5
2D2
  8
SIZE
  6
CONTINUOUS
 62
    30
 10
140.00001499999999
 20
207.58262400000001
 30
0.0
 11
128.00001499999999
 21
207.58262400000001
 31
0.0
  0
TEXT
  5
2D3
  8
SIZE
  6
CONTINUOUS
 62
    30
 10
-74.057134857142842
 20
232.58262400000001
 30
0.0
 40
64.0
  1
280
 41
0.9
 72
     1
 11
0.000008
 21
232.58262400000001
 31
0.0
  0
POINT
  5
2D4
  8
DEFPOINTS
  6
CONTINUOUS
 62
    30
 10
-140.0
 20
160.0
 30
0.0
  0
POINT
  5
2D5
  8
DEFPOINTS
  6
CONTINUOUS
 62
    30
 10
140.00001499999999
 20
160.0
 30
0.0
  0
POINT
  5
2D6
  8
DEFPOINTS
  6
CONTINUOUS
 62
    30
 10
140.00001499999999
 20
207.58262400000001
 30
0.0
  0
LINE
  5
2D7
  8
SIZE
  6
CONTINUOUS
 62
    30
 10
180.00001499999999
 20
140.0
 30
0.0
 11
325.88785100000001
 21
140.0
 31
0.0
  0
LINE
  5
2D8
  8
SIZE
  6
CONTINUOUS
 62
    30
 10
180.0
 20
-140.0
 30
0.0
 11
325.88785100000001
 21
-140.0
 31
0.0
  0
LINE
  5
2D9
  8
SIZE
  6
CONTINUOUS
 62
    30
 10
305.8878509999999
 20
128.0
 30
0.0
 11
305.8878509999999
 21
-128.0
 31
0.0
  0
CIRCLE
  5
2DA
  8
SIZE
  6
CONTINUOUS
 62
    30
 10
305.8878509999999
 20
140.0
 30
0.0
 40
6.0
  0
LINE
  5
2DB
  8
SIZE
  6
CONTINUOUS
 62
    30
 10
305.8878509999999
 20
140.0
 30
0.0
 11
305.8878509999999
 21
128.0
 31
0.0
  0
CIRCLE
  5
2DC
  8
SIZE
  6
CONTINUOUS
 62
    30
 10
305.8878509999999
 20
-140.0
 30
0.0
 40
6.0
  0
LINE
  5
2DD
  8
SIZE
  6
CONTINUOUS
 62
    30
 10
305.8878509999999
 20
-140.0
 30
0.0
 11
305.8878509999999
 21
-128.0
 31
0.0
  0
TEXT
  5
2DE
  8
SIZE
  6
CONTINUOUS
 62
    30
 10
280.8878509999999
 20
-74.057142857142836
 30
0.0
 40
64.0
  1
280
 50
90.0
 41
0.9
 72
     1
 11
280.8878509999999
 21
0.0
 31
0.0
  0
POINT
  5
2DF
  8
DEFPOINTS
  6
CONTINUOUS
 62
    30
 10
160.00001499999999
 20
140.0
 30
0.0
  0
POINT
  5
2E0
  8
DEFPOINTS
  6
CONTINUOUS
 62
    30
 10
160.0
 20
-140.0
 30
0.0
  0
POINT
  5
2E1
  8
DEFPOINTS
  6
CONTINUOUS
 62
    30
 10
305.8878509999999
 20
-140.0
 30
0.0
  0
LINE
  5
2E2
  8
SIZE
  6
CONTINUOUS
 62
    30
 10
20.0
 20
160.0
 30
0.0
 11
469.30307299999998
 21
160.0
 31
0.0
  0
LINE
  5
2E3
  8
SIZE
  6
CONTINUOUS
 62
    30
 10
20.000015000000001
 20
-160.0
 30
0.0
 11
469.30307299999998
 21
-160.0
 31
0.0
  0
LINE
  5
2E4
  8
SIZE
  6
CONTINUOUS
 62
    30
 10
449.30307299999998
 20
148.0
 30
0.0
 11
449.30307299999998
 21
-148.0
 31
0.0
  0
CIRCLE
  5
2E5
  8
SIZE
  6
CONTINUOUS
 62
    30
 10
449.30307299999998
 20
160.0
 30
0.0
 40
6.0
  0
LINE
  5
2E6
  8
SIZE
  6
CONTINUOUS
 62
    30
 10
449.30307299999998
 20
160.0
 30
0.0
 11
449.30307299999998
 21
148.0
 31
0.0
  0
CIRCLE
  5
2E7
  8
SIZE
  6
CONTINUOUS
 62
    30
 10
449.30307299999998
 20
-160.0
 30
0.0
 40
6.0
  0
LINE
  5
2E8
  8
SIZE
  6
CONTINUOUS
 62
    30
 10
449.30307299999998
 20
-160.0
 30
0.0
 11
449.30307299999998
 21
-148.0
 31
0.0
  0
TEXT
  5
2E9
  8
SIZE
  6
CONTINUOUS
 62
    30
 10
424.30307299999998
 20
-74.05714285714285
 30
0.0
 40
64.0
  1
320
 50
90.0
 41
0.9
 72
     1
 11
424.30307299999998
 21
0.0
 31
0.0
  0
POINT
  5
2EA
  8
DEFPOINTS
  6
CONTINUOUS
 62
    30
 10
0.0
 20
160.0
 30
0.0
  0
POINT
  5
2EB
  8
DEFPOINTS
  6
CONTINUOUS
 62
    30
 10
0.000015
 20
-160.0
 30
0.0
  0
POINT
  5
2EC
  8
DEFPOINTS
  6
CONTINUOUS
 62
    30
 10
449.30307299999998
 20
-160.0
 30
0.0
  0
LINE
  5
2ED
  8
SIZE
  6
CONTINUOUS
 62
    30
 10
-402.3920829999999
 20
325.70415000000003
 30
0.0
 11
-99.881029000000012
 21
80.845698999999996
 31
0.0
  0
LINE
  5
2EE
  8
SIZE
  6
CONTINUOUS
 62
    30
 10
99.881058999999993
 20
-80.845698999999996
 30
0.0
 11
109.208472
 21
-88.395492000000004
 31
0.0
  0
TEXT
  5
2EF
  8
SIZE
  6
CONTINUOUS
 62
    30
 10
-378.31753800821031
 20
338.38098513093382
 30
0.0
 40
64.0
  1
φ233
 50
321.012609
 41
0.9
 72
     1
 11
-289.41396500000002
 21
266.42068
 31
0.0
  0
LINE
  5
2F0
  8
SIZE
  6
CONTINUOUS
 62
    30
 10
90.553646999999998
 20
-73.295906000000002
 30
0.0
 11
-90.553616000000005
 21
73.295906000000002
 31
0.0
  0
CIRCLE
  5
2F1
  8
SIZE
  6
CONTINUOUS
 62
    30
 10
90.553646999999998
 20
-73.295906000000002
 30
0.0
 40
6.0
  0
LINE
  5
2F2
  8
SIZE
  6
CONTINUOUS
 62
    30
 10
90.553646999999998
 20
-73.295906000000002
 30
0.0
 11
99.881060000000005
 21
-80.845698999999996
 31
0.0
  0
CIRCLE
  5
2F3
  8
SIZE
  6
CONTINUOUS
 62
    30
 10
-90.553616000000005
 20
73.295906000000002
 30
0.0
 40
6.0
  0
LINE
  5
2F4
  8
SIZE
  6
CONTINUOUS
 62
    30
 10
-90.553616000000005
 20
73.295906000000002
 30
0.0
 11
-99.881029000000012
 21
80.845698999999996
 31
0.0
  0
POINT
  5
2F5
  8
DEFPOINTS
  6
CONTINUOUS
 62
    30
 10
-90.553616000000005
 20
73.295906000000002
 30
0.0
  0
POINT
  5
2F6
  8
DEFPOINTS
  6
CONTINUOUS
 62
    30
 10
90.553646999999998
 20
-73.295906000000002
 30
0.0
  0
LINE
  5
2F7
  8
SIZE
  6
CONTINUOUS
 62
    30
 10
-496.34092399999997
 20
115.799674
 30
0.0
 11
-112.966216
 21
26.35578300000001
 31
0.0
  0
LINE
  5
2F8
  8
SIZE
  6
CONTINUOUS
 62
    30
 10
112.96627599999999
 20
-26.35578300000001
 30
0.0
 11
124.652439
 21
-29.082242999999998
 31
0.0
  0
TEXT
  5
2F9
  8
SIZE
  6
CONTINUOUS
 62
    30
 10
-480.20446454942208
 20
137.7063086905018
 30
0.0
 40
64.0
  1
φ208
 50
346.86742700000002
 41
0.9
 72
     1
 11
-368.81863199999998
 21
111.719252
 31
0.0
  0
LINE
  5
2FA
  8
SIZE
  6
CONTINUOUS
 62
    30
 10
101.280113
 20
-23.629322999999999
 30
0.0
 11
-101.280052
 21
23.629322999999999
 31
0.0
  0
CIRCLE
  5
2FB
  8
SIZE
  6
CONTINUOUS
 62
    30
 10
101.280113
 20
-23.629322999999999
 30
0.0
 40
6.0
  0
LINE
  5
2FC
  8
SIZE
  6
CONTINUOUS
 62
    30
 10
101.280113
 20
-23.629322999999999
 30
0.0
 11
112.96627599999999
 21
-26.35578300000001
 31
0.0
  0
CIRCLE
  5
2FD
  8
SIZE
  6
CONTINUOUS
 62
    30
 10
-101.280052
 20
23.629322999999999
 30
0.0
 40
6.0
  0
LINE
  5
2FE
  8
SIZE
  6
CONTINUOUS
 62
    30
 10
-101.280052
 20
23.629322999999999
 30
0.0
 11
-112.96621500000001
 21
26.35578300000001
 31
0.0
  0
POINT
  5
2FF
  8
DEFPOINTS
  6
CONTINUOUS
 62
    30
 10
-101.280052
 20
23.629322999999999
 30
0.0
  0
POINT
  5
300
  8
DEFPOINTS
  6
CONTINUOUS
 62
    30
 10
101.280113
 20
-23.629322999999999
 30
0.0
  0
LINE
  5
301
  8
SIZE
  6
CONTINUOUS
 62
    30
 10
-531.33330199999989
 20
-108.476544
 30
0.0
 11
-117.08479199999999
 21
-23.903932000000001
 31
0.0
  0
LINE
  5
302
  8
SIZE
  6
CONTINUOUS
 62
    30
 10
117.084822
 20
23.903932000000001
 30
0.0
 11
128.84229300000001
 21
26.304326
 31
0.0
  0
TEXT
  5
303
  8
SIZE
  6
CONTINUOUS
 62
    30
 10
-525.81398053831617
 20
-81.834047248477788
 30
0.0
 40
64.0
  1
φ215
 50
11.538891
 41
0.9
 72
     1
 11
-419.12333999999993
 21
-60.052164000000012
 31
0.0
  0
LINE
  5
304
  8
SIZE
  6
CONTINUOUS
 62
    30
 10
105.327352
 20
21.503537000000001
 30
0.0
 11
-105.327322
 21
-21.503537000000001
 31
0.0
  0
CIRCLE
  5
305
  8
SIZE
  6
CONTINUOUS
 62
    30
 10
105.327352
 20
21.503537000000001
 30
0.0
 40
6.0
  0
LINE
  5
306
  8
SIZE
  6
CONTINUOUS
 62
    30
 10
105.327352
 20
21.503537000000001
 30
0.0
 11
117.084822
 21
23.903932000000001
 31
0.0
  0
CIRCLE
  5
307
  8
SIZE
  6
CONTINUOUS
 62
    30
 10
-105.327322
 20
-21.503537000000001
 30
0.0
 40
6.0
  0
LINE
  5
308
  8
SIZE
  6
CONTINUOUS
 62
    30
 10
-105.327322
 20
-21.503537000000001
 30
0.0
 11
-117.08479199999999
 21
-23.903932000000001
 31
0.0
  0
POINT
  5
309
  8
DEFPOINTS
  6
CONTINUOUS
 62
    30
 10
-105.327322
 20
-21.503537000000001
 30
0.0
  0
POINT
  5
30A
  8
DEFPOINTS
  6
CONTINUOUS
 62
    30
 10
105.327352
 20
21.503537000000001
 30
0.0
  0
LINE
  5
30B
  8
SIZE
  6
CONTINUOUS
 62
    30
 10
-375.840778
 20
-239.01698400000001
 30
0.0
 11
-51.051017999999992
 21
-32.466037
 31
0.0
  0
LINE
  5
30C
  8
SIZE
  6
CONTINUOUS
 62
    30
 10
51.051017999999992
 20
32.466037
 30
0.0
 11
61.176839999999999
 21
38.905580999999998
 31
0.0
  0
TEXT
  5
30D
  8
SIZE
  6
CONTINUOUS
 62
    30
 10
-380.1962588459337
 20
-212.15969176320809
 30
0.0
 40
64.0
  1
φ97
 50
32.454462999999997
 41
0.9
 72
     1
 11
-306.827471
 21
-165.50055499999999
 31
0.0
  0
LINE
  5
30E
  8
SIZE
  6
CONTINUOUS
 62
    30
 10
40.925196
 20
26.026492000000001
 30
0.0
 11
-40.925196
 21
-26.026492000000001
 31
0.0
  0
CIRCLE
  5
30F
  8
SIZE
  6
CONTINUOUS
 62
    30
 10
40.925196
 20
26.026492000000001
 30
0.0
 40
6.0
  0
LINE
  5
310
  8
SIZE
  6
CONTINUOUS
 62
    30
 10
40.925196
 20
26.026492000000001
 30
0.0
 11
51.051017999999992
 21
32.466037
 31
0.0
  0
CIRCLE
  5
311
  8
SIZE
  6
CONTINUOUS
 62
    30
 10
-40.925196
 20
-26.026492000000001
 30
0.0
 40
6.0
  0
LINE
  5
312
  8
SIZE
  6
CONTINUOUS
 62
    30
 10
-40.925196
 20
-26.026492000000001
 30
0.0
 11
-51.051017999999992
 21
-32.466037
 31
0.0
  0
POINT
  5
313
  8
DEFPOINTS
  6
CONTINUOUS
 62
    30
 10
-40.925196
 20
-26.026492000000001
 30
0.0
  0
POINT
  5
314
  8
DEFPOINTS
  6
CONTINUOUS
 62
    30
 10
40.925196
 20
26.026492000000001
 30
0.0
  0
TEXT
  5
31D
  8
ETC
  6
CONTINUOUS
 62
    61
 10
275.28017366478451
 20
626.77342192501635
 30
0.0
 40
40.0
  1
EF-20YSB3-Q_2
 41
0.9
  0
TEXT
  5
31E
  8
ETC
  6
CONTINUOUS
 62
    61
 10
269.85432966478447
 20
566.70330592501625
 30
0.0
 40
40.0
  1
産業扇
 41
0.9
  0
TEXT
  5
31F
  8
ETC
  6
CONTINUOUS
 62
    61
 10
325.2761416647844
 20
500.15876692501632
 30
0.0
 40
40.0
  1
EF-20YSB1-Q
 41
0.9
  0
TEXT
  5
320
  8
ETC
  6
CONTINUOUS
 62
    61
 10
325.2761416647844
 20
440.8738947991539
 30
0.0
 40
40.0
  1
EF-20YSB3-Q
 41
0.9
  0
ENDSEC
  0
EOF
