  0
SECTION
  2
HEADER
  9
$ACADVER
  1
AC1009
  9
$DWGCODEPAGE
  3
dos932
  9
$INSBASE
 10
0.0
 20
0.0
 30
0.0
  9
$EXTMIN
 10
-606.362898
 20
-454.055774
 30
-0.001526
  9
$EXTMAX
 10
598.205577
 20
431.304939
 30
50.001526
  9
$LIMMIN
 10
-2970.0
 20
-2100.0
  9
$LIMMAX
 10
2970.0
 20
2100.0
  9
$ORTHOMODE
 70
     1
  9
$REGENMODE
 70
     0
  9
$FILLMODE
 70
     1
  9
$QTEXTMODE
 70
     0
  9
$MIRRTEXT
 70
     0
  9
$DRAGMODE
 70
     2
  9
$LTSCALE
 40
20.0
  9
$OSMODE
 70
    33
  9
$ATTMODE
 70
     1
  9
$TEXTSIZE
 40
64.0
  9
$TRACEWID
 40
0.05
  9
$TEXTSTYLE
  7
STANDARD
  9
$CLAYER
  8
SIZE
  9
$CELTYPE
  6
CONTINUOUS
  9
$CECOLOR
 62
    30
  9
$DIMSCALE
 40
1.0
  9
$DIMASZ
 40
12.0
  9
$DIMEXO
 40
20.0
  9
$DIMDLI
 40
200.0
  9
$DIMRND
 40
0.0
  9
$DIMDLE
 40
0.0
  9
$DIMEXE
 40
20.0
  9
$DIMTP
 40
0.0
  9
$DIMTM
 40
0.0
  9
$DIMTXT
 40
64.0
  9
$DIMCEN
 40
0.09
  9
$DIMTSZ
 40
0.0
  9
$DIMTOL
 70
     0
  9
$DIMLIM
 70
     0
  9
$DIMTIH
 70
     0
  9
$DIMTOH
 70
     0
  9
$DIMSE1
 70
     0
  9
$DIMSE2
 70
     0
  9
$DIMTAD
 70
     1
  9
$DIMZIN
 70
     8
  9
$DIMBLK
  1
DOT1
  9
$DIMASO
 70
     1
  9
$DIMSHO
 70
     0
  9
$DIMPOST
  1

  9
$DIMAPOST
  1

  9
$DIMALT
 70
     0
  9
$DIMALTD
 70
     2
  9
$DIMALTF
 40
25.4
  9
$DIMLFAC
 40
1.0
  9
$DIMTOFL
 70
     1
  9
$DIMTVP
 40
0.0
  9
$DIMTIX
 70
     1
  9
$DIMSOXD
 70
     0
  9
$DIMSAH
 70
     1
  9
$DIMBLK1
  1
_ORIGIN
  9
$DIMBLK2
  1
_ORIGIN
  9
$DIMSTYLE
  2
STANDARD
  9
$DIMCLRD
 70
     7
  9
$DIMCLRE
 70
     7
  9
$DIMCLRT
 70
     7
  9
$DIMTFAC
 40
1.0
  9
$DIMGAP
 40
25.0
  9
$LUNITS
 70
     2
  9
$LUPREC
 70
     4
  9
$SKETCHINC
 40
0.1
  9
$FILLETRAD
 40
2.5
  9
$AUNITS
 70
     1
  9
$AUPREC
 70
     3
  9
$MENU
  1
ACAD
  9
$ELEVATION
 40
0.0
  9
$PELEVATION
 40
0.0
  9
$THICKNESS
 40
50.0
  9
$LIMCHECK
 70
     0
  9
$BLIPMODE
 70
     0
  9
$CHAMFERA
 40
0.0
  9
$CHAMFERB
 40
0.0
  9
$SKPOLY
 70
     0
  9
$TDCREATE
 40
2452809.687024549
  9
$TDUPDATE
 40
2452815.586531909
  9
$TDINDWG
 40
0.1457089583
  9
$TDUSRTIMER
 40
0.1457089583
  9
$USRTIMER
 70
     1
  9
$ANGBASE
 50
0.0
  9
$ANGDIR
 70
     0
  9
$PDMODE
 70
     3
  9
$PDSIZE
 40
-2.0
  9
$PLINEWID
 40
0.0
  9
$COORDS
 70
     2
  9
$SPLFRAME
 70
     0
  9
$SPLINETYPE
 70
     6
  9
$SPLINESEGS
 70
     8
  9
$ATTDIA
 70
     0
  9
$ATTREQ
 70
     1
  9
$HANDLING
 70
     0
  9
$HANDSEED
  5
37F9
  9
$SURFTAB1
 70
     6
  9
$SURFTAB2
 70
     6
  9
$SURFTYPE
 70
     6
  9
$SURFU
 70
     6
  9
$SURFV
 70
     6
  9
$UCSNAME
  2

  9
$UCSORG
 10
0.0
 20
0.0
 30
0.0
  9
$UCSXDIR
 10
1.0
 20
0.0
 30
0.0
  9
$UCSYDIR
 10
0.0
 20
1.0
 30
0.0
  9
$PUCSNAME
  2

  9
$PUCSORG
 10
0.0
 20
0.0
 30
0.0
  9
$PUCSXDIR
 10
1.0
 20
0.0
 30
0.0
  9
$PUCSYDIR
 10
0.0
 20
1.0
 30
0.0
  9
$USERI1
 70
     0
  9
$USERI2
 70
     0
  9
$USERI3
 70
     0
  9
$USERI4
 70
     0
  9
$USERI5
 70
     0
  9
$USERR1
 40
20.0
  9
$USERR2
 40
0.0
  9
$USERR3
 40
0.0
  9
$USERR4
 40
0.0
  9
$USERR5
 40
0.0
  9
$WORLDVIEW
 70
     1
  9
$SHADEDGE
 70
     3
  9
$SHADEDIF
 70
    70
  9
$TILEMODE
 70
     1
  9
$MAXACTVP
 70
    48
  9
$PINSBASE
 10
0.0
 20
0.0
 30
0.0
  9
$PLIMCHECK
 70
     0
  9
$PEXTMIN
 10
100000000000000000000.0
 20
100000000000000000000.0
 30
100000000000000000000.0
  9
$PEXTMAX
 10
-100000000000000000000.0
 20
-100000000000000000000.0
 30
-100000000000000000000.0
  9
$PLIMMIN
 10
0.0
 20
0.0
  9
$PLIMMAX
 10
12.0
 20
9.0
  9
$UNITMODE
 70
     0
  9
$VISRETAIN
 70
     0
  9
$PLINEGEN
 70
     0
  9
$PSLTSCALE
 70
     0
  9
$TREEDEPTH
 70
  3020
  0
ENDSEC
  0
SECTION
  2
TABLES
  0
TABLE
  2
LTYPE
 70
     2
  0
LTYPE
  2
CONTINUOUS
 70
     0
  3
実線
 72
    65
 73
     0
 40
0.0
  0
LTYPE
  2
DASHDOT
 70
     0
  3
____ _ ____ _ ____ _ ____ _ ____ _ ____ _ ____
 72
    65
 73
     4
 40
5.5
 49
4.0
 49
-0.6
 49
0.3
 49
-0.6
  0
ENDTAB
  0
TABLE
  2
LAYER
 70
    12
  0
LAYER
  2
0
 70
     0
 62
     7
  6
CONTINUOUS
  0
LAYER
  2
BASIS
 70
     0
 62
     6
  6
DASHDOT
  0
LAYER
  2
OUTLINE
 70
     0
 62
     3
  6
CONTINUOUS
  0
LAYER
  2
DETAIL
 70
     0
 62
     5
  6
CONTINUOUS
  0
LAYER
  2
SIZE
 70
     0
 62
    30
  6
CONTINUOUS
  0
LAYER
  2
ARRANGE
 70
     0
 62
     1
  6
CONTINUOUS
  0
LAYER
  2
DEFPOINTS
 70
     0
 62
     7
  6
CONTINUOUS
  0
LAYER
  2
ETC
 70
     0
 62
    61
  6
CONTINUOUS
  0
LAYER
  2
FIX
 70
     0
 62
    11
  6
CONTINUOUS
  0
LAYER
  2
NOTE
 70
     0
 62
     4
  6
CONTINUOUS
  0
LAYER
  2
SERVICESPACE
 70
     0
 62
     2
  6
DASHDOT
  0
LAYER
  2
SYMBOLLINE
 70
     0
 62
    15
  6
CONTINUOUS
  0
ENDTAB
  0
TABLE
  2
STYLE
 70
     1
  0
STYLE
  2
STANDARD
 70
     0
 40
64.0
 41
0.9
 50
0.0
 71
     0
 42
64.0
  3
SIMPLEX.shx
  4
BIGFONT.shx
  0
ENDTAB
  0
TABLE
  2
APPID
 70
     2
  0
APPID
  2
ACAD
 70
     0
  0
APPID
  2
AUTOCAD_POSTSCRIPT_FIGURE
 70
     0
  0
ENDTAB
  0
TABLE
  2
DIMSTYLE
 70
     1
  0
DIMSTYLE
 70
     0
  3

  4

  5

  2
STANDARD
  6

  7

 40
1.0
 41
0.18
 42
0.0625
 43
0.38
 44
0.18
 45
0.0
 46
0.0
 47
0.0
 48
0.0
140
0.18
141
0.09
142
0.0
143
25.4
144
1.0
145
0.0
146
1.0
147
0.09
 71
     0
 72
     0
 73
     1
 74
     1
 75
     0
 76
     0
 77
     0
 78
     0
170
     0
171
     2
172
     0
173
     0
174
     0
175
     0
176
     7
177
     7
178
     7
  0
ENDTAB
  0
TABLE
  2
VIEW
 70
     1
  0
VIEW
  2
ALL
 70
     0
 40
4282.619808
 10
0.0
 20
41.309904
 41
5940.0
 11
0.0
 21
0.0
 31
1.0
 12
0.0
 22
0.0
 32
0.0
 42
50.0
 43
0.0
 44
0.0
 50
0.0
 71
     0
  0
ENDTAB
  0
TABLE
  2
UCS
 70
     0
  0
ENDTAB
  0
TABLE
  2
VPORT
 70
     1
  0
VPORT
  2
*ACTIVE
 70
     0
 10
0.0
 20
0.0
 11
1.0
 21
1.0
 12
-4.07866
 22
-11.375417
 13
0.0
 23
0.0
 14
1.0
 24
1.0
 15
0.0
 25
0.0
 16
0.0
 26
0.0
 36
1.0
 17
0.0
 27
0.0
 37
0.0
 40
892.277594
 41
1.485007
 42
50.0
 43
0.0
 44
0.0
 50
0.0
 51
0.0
 71
     0
 72
   100
 73
     1
 74
     0
 75
     0
 76
     0
 77
     0
 78
     0
  0
ENDTAB
  0
ENDSEC
  0
SECTION
  2
BLOCKS
  0
BLOCK
  8
0
  6
CONTINUOUS
 62
     7
  2
DOT1
 70
     0
 10
0.0
 20
0.0
 30
0.0
  3
DOT1
  1

  0
CIRCLE
  8
SIZE
  6
CONTINUOUS
 62
     7
 10
0.0
 20
0.0
 30
0.0
 40
3.0
  0
ENDBLK
  8
0
  6
CONTINUOUS
 62
     7
  0
BLOCK
  8
0
  6
CONTINUOUS
 62
     7
  2
_ORIGIN
 70
     0
 10
0.0
 20
0.0
 30
0.0
  3
_ORIGIN
  1

  0
CIRCLE
  8
0
  6
CONTINUOUS
 62
     7
 10
0.0
 20
0.0
 30
0.0
 40
0.5
  0
LINE
  8
0
  6
CONTINUOUS
 62
     7
 10
0.0
 20
0.0
 30
0.0
 11
-1.0
 21
0.0
 31
0.0
  0
ENDBLK
  8
0
  6
CONTINUOUS
 62
     7
  0
ENDSEC
  0
SECTION
  2
ENTITIES
  0
TEXT
  8
ETC
  6
CONTINUOUS
 62
    61
 10
237.381934
 20
265.812373
 30
0.0
 40
64.0
  1
産業扇
 41
0.9
  0
TEXT
  8
ETC
  6
CONTINUOUS
 62
    61
 10
246.67794
 20
367.194771
 30
0.0
 40
64.0
  1
NEF0166
 41
0.9
  0
POINT
  8
ARRANGE
  6
CONTINUOUS
 62
     1
 10
0.0
 20
0.0
 30
0.0
 39
50.0
  0
CIRCLE
  8
ARRANGE
  6
CONTINUOUS
 62
     1
 39
50.0
 10
0.0
 20
0.0
 30
0.0
 40
40.0
  0
LINE
  8
DETAIL
  6
CONTINUOUS
 62
     5
 10
-160.0
 20
0.0
 30
0.0
 11
160.0
 21
0.0
 31
0.0
  0
LINE
  8
DETAIL
  6
CONTINUOUS
 62
     5
 10
-154.779984
 20
-10.0
 30
0.0
 11
154.779984
 21
-10.0
 31
0.0
  0
LINE
  8
DETAIL
  6
CONTINUOUS
 62
     5
 10
-138.530395
 20
-20.0
 30
0.0
 11
138.530395
 21
-20.0
 31
0.0
  0
LINE
  8
DETAIL
  6
CONTINUOUS
 62
     5
 10
160.0
 20
0.0
 30
0.0
 11
160.0
 21
-2.121261
 31
0.0
  0
LINE
  8
DETAIL
  6
CONTINUOUS
 62
     5
 10
47.980394
 20
-168.005131
 30
0.0
 11
-47.5
 21
-168.005131
 31
0.0
  0
LINE
  8
DETAIL
  6
CONTINUOUS
 62
     5
 10
-16.956602
 20
-184.005131
 30
0.0
 11
0.0
 21
-184.005131
 31
0.0
  0
LINE
  8
DETAIL
  6
CONTINUOUS
 62
     5
 10
50.0
 20
-142.005131
 30
0.0
 11
-50.0
 21
-142.005131
 31
0.0
  0
LINE
  8
DETAIL
  6
CONTINUOUS
 62
     5
 10
-25.182189
 20
-87.005131
 30
0.0
 11
25.182189
 21
-87.005131
 31
0.0
  0
LINE
  8
DETAIL
  6
CONTINUOUS
 62
     5
 10
-22.0
 20
-77.005131
 30
0.0
 11
22.0
 21
-77.005131
 31
0.0
  0
LINE
  8
DETAIL
  6
CONTINUOUS
 62
     5
 10
52.05571
 20
-199.005131
 30
0.0
 11
-51.956602
 21
-199.005131
 31
0.0
  0
LINE
  8
DETAIL
  6
CONTINUOUS
 62
     5
 10
54.980394
 20
-194.005131
 30
0.0
 11
-51.956602
 21
-194.005131
 31
0.0
  0
LINE
  8
DETAIL
  6
CONTINUOUS
 62
     5
 10
-24.946237
 20
-189.221711
 30
0.0
 11
25.056101
 21
-189.221711
 31
0.0
  0
LINE
  8
DETAIL
  6
CONTINUOUS
 62
     5
 10
42.006819
 20
-284.005131
 30
0.0
 11
-52.998781
 21
-284.005131
 31
0.0
  0
LINE
  8
DETAIL
  6
CONTINUOUS
 62
     5
 10
54.13881
 20
-279.005131
 30
0.0
 11
-54.13881
 21
-279.005131
 31
0.0
  0
LINE
  8
DETAIL
  6
CONTINUOUS
 62
     5
 10
-8.281065
 20
-63.605131
 30
0.0
 11
0.0
 21
-63.605131
 31
0.0
  0
LINE
  8
DETAIL
  6
CONTINUOUS
 62
     5
 10
-6.0
 20
-66.177624
 30
0.0
 11
-8.759188
 21
-63.566285
 31
0.0
  0
LINE
  8
DETAIL
  6
CONTINUOUS
 62
     5
 10
-20.533335
 20
-72.678527
 30
0.0
 11
-7.230211
 21
-77.005131
 31
0.0
  0
LINE
  8
DETAIL
  6
CONTINUOUS
 62
     5
 10
0.0
 20
-167.005131
 30
0.0
 11
-65.364711
 21
-167.005131
 31
0.0
  0
LINE
  8
DETAIL
  6
CONTINUOUS
 62
     5
 10
0.0
 20
-142.005131
 30
0.0
 11
-69.652958
 21
-142.005131
 31
0.0
  0
LINE
  8
DETAIL
  6
CONTINUOUS
 62
     5
 10
-35.811662
 20
-216.005131
 30
0.0
 11
-35.811662
 21
-177.005131
 31
0.0
  0
LINE
  8
DETAIL
  6
CONTINUOUS
 62
     5
 10
-51.956602
 20
-213.221711
 30
0.0
 11
-51.956602
 21
-179.005131
 31
0.0
  0
LINE
  8
DETAIL
  6
CONTINUOUS
 62
     5
 10
-26.556101
 20
-225.10697
 30
0.0
 11
-26.556101
 21
-278.788551
 31
0.0
  0
LINE
  8
DETAIL
  6
CONTINUOUS
 62
     5
 10
-39.992375
 20
-278.788551
 30
0.0
 11
-39.992375
 21
-224.568574
 31
0.0
  0
ARC
  8
DETAIL
  6
CONTINUOUS
 62
     5
 10
-48.956602
 20
-216.835453
 30
0.0
 40
3.0
 50
180.0
 51
252.728102
  0
LINE
  8
DETAIL
  6
CONTINUOUS
 62
     5
 10
-51.956602
 20
-216.835453
 30
0.0
 11
-51.956602
 21
-213.221711
 31
0.0
  0
LINE
  8
DETAIL
  6
CONTINUOUS
 62
     5
 10
-35.811662
 20
-216.221711
 30
0.0
 11
-35.811662
 21
-194.221711
 31
0.0
  0
LINE
  8
DETAIL
  6
CONTINUOUS
 62
     5
 10
-76.007627
 20
-64.457559
 30
0.0
 11
-90.582378
 21
-72.678547
 31
0.0
  0
LINE
  8
DETAIL
  6
CONTINUOUS
 62
     5
 10
-60.99847
 20
-67.55443
 30
0.0
 11
-75.601161
 21
-73.703275
 31
0.0
  0
LINE
  8
DETAIL
  6
CONTINUOUS
 62
     5
 10
-20.533332
 20
-72.678548
 30
0.0
 11
-40.442809
 21
-64.457562
 31
0.0
  0
LINE
  8
DETAIL
  6
CONTINUOUS
 62
     5
 10
-130.364711
 20
-102.005131
 30
0.0
 11
-130.364711
 21
-23.005131
 31
0.0
  0
LINE
  8
DETAIL
  6
CONTINUOUS
 62
     5
 10
-109.652958
 20
-26.605128
 30
0.0
 11
-109.652958
 21
-102.005131
 31
0.0
  0
LINE
  8
DETAIL
  6
CONTINUOUS
 62
     5
 10
-75.60116
 20
-73.703283
 30
0.0
 11
-90.266525
 21
-79.469326
 31
0.0
  0
ARC
  8
DETAIL
  6
CONTINUOUS
 62
     5
 10
-69.652958
 20
-102.005131
 30
0.0
 40
40.0
 50
180.0
 51
270.0
  0
ARC
  8
DETAIL
  6
CONTINUOUS
 62
     5
 10
-65.364711
 20
-102.005131
 30
0.0
 40
65.0
 50
180.0
 51
270.0
  0
LINE
  8
DETAIL
  6
CONTINUOUS
 62
     5
 10
-90.58238
 20
-72.678402
 30
0.0
 11
-109.652958
 21
-83.450818
 31
0.0
  0
LINE
  8
DETAIL
  6
CONTINUOUS
 62
     5
 10
-90.266525
 20
-79.469278
 30
0.0
 11
-109.652958
 21
-86.808628
 31
0.0
  0
LINE
  8
DETAIL
  6
CONTINUOUS
 62
     5
 10
-50.0
 20
-142.005131
 30
0.0
 11
-48.482809
 21
-96.466722
 31
0.0
  0
LINE
  8
DETAIL
  6
CONTINUOUS
 62
     5
 10
-49.956602
 20
-177.005131
 30
0.0
 11
-19.956602
 21
-177.005131
 31
0.0
  0
ARC
  8
DETAIL
  6
CONTINUOUS
 62
     5
 10
-49.956602
 20
-179.005131
 30
0.0
 40
2.0
 50
90.0
 51
180.0
  0
LINE
  8
DETAIL
  6
CONTINUOUS
 62
     5
 10
-18.956602
 20
-182.005131
 30
0.0
 11
-18.956602
 21
-178.005131
 31
0.0
  0
LINE
  8
DETAIL
  6
CONTINUOUS
 62
     5
 10
-47.5
 20
-168.005131
 30
0.0
 11
-47.5
 21
-177.005131
 31
0.0
  0
ARC
  8
DETAIL
  6
CONTINUOUS
 62
     5
 10
-19.956602
 20
-178.005131
 30
0.0
 40
1.0
 50
0.0
 51
90.0
  0
ARC
  8
DETAIL
  6
CONTINUOUS
 62
     5
 10
-16.956602
 20
-182.005131
 30
0.0
 40
2.0
 50
180.0
 51
270.0
  0
LINE
  8
DETAIL
  6
CONTINUOUS
 62
     5
 10
-51.700216
 20
-159.505129
 30
0.0
 11
-47.393724
 21
-159.505129
 31
0.0
  0
LINE
  8
DETAIL
  6
CONTINUOUS
 62
     5
 10
-54.944804
 20
-159.505129
 30
0.0
 11
-51.700216
 21
-159.505129
 31
0.0
  0
LINE
  8
DETAIL
  6
CONTINUOUS
 62
     5
 10
-19.595917
 20
-166.005131
 30
0.0
 11
-19.595917
 21
-143.005131
 31
0.0
  0
LINE
  8
DETAIL
  6
CONTINUOUS
 62
     5
 10
-43.693158
 20
-143.005131
 30
0.0
 11
-43.693158
 21
-166.005131
 31
0.0
  0
LINE
  8
DETAIL
  6
CONTINUOUS
 62
     5
 10
-49.54697
 20
-149.505131
 30
0.0
 11
-48.815382
 21
-149.601204
 31
0.0
  0
LINE
  8
DETAIL
  6
CONTINUOUS
 62
     5
 10
-48.815382
 20
-149.601204
 30
0.0
 11
-48.111907
 21
-149.885733
 31
0.0
  0
LINE
  8
DETAIL
  6
CONTINUOUS
 62
     5
 10
-48.111907
 20
-149.885733
 30
0.0
 11
-47.463582
 21
-150.347783
 31
0.0
  0
LINE
  8
DETAIL
  6
CONTINUOUS
 62
     5
 10
-47.463582
 20
-150.347783
 30
0.0
 11
-46.89532
 21
-150.969597
 31
0.0
  0
LINE
  8
DETAIL
  6
CONTINUOUS
 62
     5
 10
-46.89532
 20
-150.969597
 30
0.0
 11
-46.428959
 21
-151.72728
 31
0.0
  0
LINE
  8
DETAIL
  6
CONTINUOUS
 62
     5
 10
-46.428959
 20
-151.72728
 30
0.0
 11
-46.082422
 21
-152.591714
 31
0.0
  0
LINE
  8
DETAIL
  6
CONTINUOUS
 62
     5
 10
-46.082422
 20
-152.591714
 30
0.0
 11
-45.869025
 21
-153.529679
 31
0.0
  0
LINE
  8
DETAIL
  6
CONTINUOUS
 62
     5
 10
-45.869025
 20
-153.529679
 30
0.0
 11
-45.79697
 21
-154.505131
 31
0.0
  0
LINE
  8
DETAIL
  6
CONTINUOUS
 62
     5
 10
-45.79697
 20
-154.505131
 30
0.0
 11
-45.869025
 21
-155.480582
 31
0.0
  0
LINE
  8
DETAIL
  6
CONTINUOUS
 62
     5
 10
-45.869025
 20
-155.480582
 30
0.0
 11
-46.082422
 21
-156.418548
 31
0.0
  0
LINE
  8
DETAIL
  6
CONTINUOUS
 62
     5
 10
-46.082422
 20
-156.418548
 30
0.0
 11
-46.428959
 21
-157.282982
 31
0.0
  0
LINE
  8
DETAIL
  6
CONTINUOUS
 62
     5
 10
-46.428959
 20
-157.282982
 30
0.0
 11
-46.89532
 21
-158.040665
 31
0.0
  0
LINE
  8
DETAIL
  6
CONTINUOUS
 62
     5
 10
-46.89532
 20
-158.040665
 30
0.0
 11
-47.463582
 21
-158.662479
 31
0.0
  0
LINE
  8
DETAIL
  6
CONTINUOUS
 62
     5
 10
-47.463582
 20
-158.662479
 30
0.0
 11
-48.111907
 21
-159.124529
 31
0.0
  0
LINE
  8
DETAIL
  6
CONTINUOUS
 62
     5
 10
-48.111907
 20
-159.124529
 30
0.0
 11
-48.815382
 21
-159.409057
 31
0.0
  0
LINE
  8
DETAIL
  6
CONTINUOUS
 62
     5
 10
-48.815382
 20
-159.409057
 30
0.0
 11
-49.54697
 21
-159.505131
 31
0.0
  0
LINE
  8
DETAIL
  6
CONTINUOUS
 62
     5
 10
-49.54697
 20
-159.505131
 30
0.0
 11
-50.278559
 21
-159.409057
 31
0.0
  0
LINE
  8
DETAIL
  6
CONTINUOUS
 62
     5
 10
-50.278559
 20
-159.409057
 30
0.0
 11
-50.982033
 21
-159.124529
 31
0.0
  0
LINE
  8
DETAIL
  6
CONTINUOUS
 62
     5
 10
-50.982033
 20
-159.124529
 30
0.0
 11
-51.630359
 21
-158.662479
 31
0.0
  0
LINE
  8
DETAIL
  6
CONTINUOUS
 62
     5
 10
-51.630359
 20
-158.662479
 30
0.0
 11
-52.198621
 21
-158.040665
 31
0.0
  0
LINE
  8
DETAIL
  6
CONTINUOUS
 62
     5
 10
-52.198621
 20
-158.040665
 30
0.0
 11
-52.664981
 21
-157.282982
 31
0.0
  0
LINE
  8
DETAIL
  6
CONTINUOUS
 62
     5
 10
-52.664981
 20
-157.282982
 30
0.0
 11
-53.011519
 21
-156.418548
 31
0.0
  0
LINE
  8
DETAIL
  6
CONTINUOUS
 62
     5
 10
-53.011519
 20
-156.418548
 30
0.0
 11
-53.224915
 21
-155.480582
 31
0.0
  0
LINE
  8
DETAIL
  6
CONTINUOUS
 62
     5
 10
-53.224915
 20
-155.480582
 30
0.0
 11
-53.29697
 21
-154.505131
 31
0.0
  0
LINE
  8
DETAIL
  6
CONTINUOUS
 62
     5
 10
-53.29697
 20
-154.505131
 30
0.0
 11
-53.224915
 21
-153.529679
 31
0.0
  0
LINE
  8
DETAIL
  6
CONTINUOUS
 62
     5
 10
-53.224915
 20
-153.529679
 30
0.0
 11
-53.011519
 21
-152.591714
 31
0.0
  0
LINE
  8
DETAIL
  6
CONTINUOUS
 62
     5
 10
-53.011519
 20
-152.591714
 30
0.0
 11
-52.664981
 21
-151.72728
 31
0.0
  0
LINE
  8
DETAIL
  6
CONTINUOUS
 62
     5
 10
-52.664981
 20
-151.72728
 30
0.0
 11
-52.198621
 21
-150.969597
 31
0.0
  0
LINE
  8
DETAIL
  6
CONTINUOUS
 62
     5
 10
-52.198621
 20
-150.969597
 30
0.0
 11
-51.630359
 21
-150.347783
 31
0.0
  0
LINE
  8
DETAIL
  6
CONTINUOUS
 62
     5
 10
-51.630359
 20
-150.347783
 30
0.0
 11
-50.982033
 21
-149.885733
 31
0.0
  0
LINE
  8
DETAIL
  6
CONTINUOUS
 62
     5
 10
-50.982033
 20
-149.885733
 30
0.0
 11
-50.278559
 21
-149.601204
 31
0.0
  0
LINE
  8
DETAIL
  6
CONTINUOUS
 62
     5
 10
-50.278559
 20
-149.601204
 30
0.0
 11
-49.54697
 21
-149.505131
 31
0.0
  0
LINE
  8
DETAIL
  6
CONTINUOUS
 62
     5
 10
-57.09805
 20
-154.505131
 30
0.0
 11
-54.944804
 21
-149.50513
 31
0.0
  0
LINE
  8
DETAIL
  6
CONTINUOUS
 62
     5
 10
-57.09805
 20
-154.505131
 30
0.0
 11
-54.944804
 21
-159.505129
 31
0.0
  0
LINE
  8
DETAIL
  6
CONTINUOUS
 62
     5
 10
-45.240474
 20
-154.505131
 30
0.0
 11
-47.393724
 21
-149.50513
 31
0.0
  0
LINE
  8
DETAIL
  6
CONTINUOUS
 62
     5
 10
-47.393724
 20
-159.505129
 30
0.0
 11
-45.240474
 21
-154.505131
 31
0.0
  0
LINE
  8
DETAIL
  6
CONTINUOUS
 62
     5
 10
-53.853462
 20
-154.505131
 30
0.0
 11
-51.700216
 21
-159.505129
 31
0.0
  0
LINE
  8
DETAIL
  6
CONTINUOUS
 62
     5
 10
-53.853462
 20
-154.505131
 30
0.0
 11
-51.700216
 21
-149.50513
 31
0.0
  0
LINE
  8
DETAIL
  6
CONTINUOUS
 62
     5
 10
-53.853462
 20
-154.505131
 30
0.0
 11
-57.09805
 21
-154.505131
 31
0.0
  0
LINE
  8
DETAIL
  6
CONTINUOUS
 62
     5
 10
-54.944804
 20
-149.50513
 30
0.0
 11
-47.393724
 21
-149.50513
 31
0.0
  0
LINE
  8
DETAIL
  6
CONTINUOUS
 62
     5
 10
-62.263692
 20
-167.005131
 30
0.0
 11
-62.263692
 21
-142.005131
 31
0.0
  0
LINE
  8
DETAIL
  6
CONTINUOUS
 62
     5
 10
-64.251552
 20
-167.005131
 30
0.0
 11
-64.251552
 21
-142.005131
 31
0.0
  0
LINE
  8
DETAIL
  6
CONTINUOUS
 62
     5
 10
-26.325421
 20
-87.541767
 30
0.0
 11
-44.60988
 21
-91.761257
 31
0.0
  0
ARC
  8
DETAIL
  6
CONTINUOUS
 62
     5
 10
-43.485582
 20
-96.633213
 30
0.0
 40
5.0
 50
102.994617
 51
178.091798
  0
ARC
  8
DETAIL
  6
CONTINUOUS
 62
     5
 10
-27.0
 20
-84.618593
 30
0.0
 40
3.0
 50
282.994617
 51
0.0
  0
LINE
  8
DETAIL
  6
CONTINUOUS
 62
     5
 10
-24.0
 20
-84.618593
 30
0.0
 11
-24.0
 21
-79.005131
 31
0.0
  0
ARC
  8
DETAIL
  6
CONTINUOUS
 62
     5
 10
-22.0
 20
-79.005131
 30
0.0
 40
2.0
 50
90.0
 51
180.0
  0
ARC
  8
DETAIL
  6
CONTINUOUS
 62
     5
 10
-87.544992
 20
-12.500008
 30
0.0
 40
2.499999
 50
90.000019
 51
180.0
  0
ARC
  8
DETAIL
  6
CONTINUOUS
 62
     5
 10
-92.545005
 20
-17.505125
 30
0.0
 40
2.499999
 50
270.0
 51
0.0
  0
LINE
  8
DETAIL
  6
CONTINUOUS
 62
     5
 10
-113.290472
 20
-23.005131
 30
0.0
 11
-113.290472
 21
-20.005131
 31
0.0
  0
LINE
  8
DETAIL
  6
CONTINUOUS
 62
     5
 10
-94.566579
 20
-23.005131
 30
0.0
 11
-94.566579
 21
-20.005131
 31
0.0
  0
LINE
  8
DETAIL
  6
CONTINUOUS
 62
     5
 10
-125.376851
 20
-23.005131
 30
0.0
 11
-94.566579
 21
-23.005131
 31
0.0
  0
ARC
  8
DETAIL
  6
CONTINUOUS
 62
     5
 10
-127.364711
 20
-23.005131
 30
0.0
 40
3.0
 50
90.0
 51
180.0
  0
LINE
  8
DETAIL
  6
CONTINUOUS
 62
     5
 10
-110.341893
 20
-26.105131
 30
0.0
 11
-110.341893
 21
-23.505131
 31
0.0
  0
ARC
  8
DETAIL
  6
CONTINUOUS
 62
     5
 10
-108.904392
 20
-24.288725
 30
0.0
 40
2.316406
 50
231.642003
 51
270.000018
  0
ARC
  8
DETAIL
  6
CONTINUOUS
 62
     5
 10
-113.216892
 20
-18.089506
 30
0.0
 40
8.515625
 50
250.268421
 51
289.73167
  0
ARC
  8
DETAIL
  6
CONTINUOUS
 62
     5
 10
-117.529392
 20
-24.288725
 30
0.0
 40
2.316406
 50
270.000018
 51
308.358053
  0
LINE
  8
DETAIL
  6
CONTINUOUS
 62
     5
 10
-116.091892
 20
-26.105131
 30
0.0
 11
-116.091892
 21
-23.505131
 31
0.0
  0
LINE
  8
DETAIL
  6
CONTINUOUS
 62
     5
 10
-118.966892
 20
-26.105131
 30
0.0
 11
-118.966892
 21
-23.505118
 31
0.0
  0
LINE
  8
DETAIL
  6
CONTINUOUS
 62
     5
 10
-118.116897
 20
-26.60514
 30
0.0
 11
-118.966898
 21
-26.10514
 31
0.0
  0
LINE
  8
DETAIL
  6
CONTINUOUS
 62
     5
 10
-107.466887
 20
-23.505121
 30
0.0
 11
-108.316888
 21
-23.005121
 31
0.0
  0
ARC
  8
DETAIL
  6
CONTINUOUS
 62
     5
 10
-108.904392
 20
-25.321537
 30
0.0
 40
2.316406
 50
89.999999
 51
128.358014
  0
ARC
  8
DETAIL
  6
CONTINUOUS
 62
     5
 10
-113.216892
 20
-31.520756
 30
0.0
 40
8.515625
 50
70.268348
 51
109.731596
  0
ARC
  8
DETAIL
  6
CONTINUOUS
 62
     5
 10
-117.529392
 20
-25.321537
 30
0.0
 40
2.316406
 50
51.641985
 51
89.999999
  0
LINE
  8
DETAIL
  6
CONTINUOUS
 62
     5
 10
-118.116897
 20
-23.005121
 30
0.0
 11
-118.966898
 21
-23.505121
 31
0.0
  0
LINE
  8
DETAIL
  6
CONTINUOUS
 62
     5
 10
-108.316894
 20
-26.605128
 30
0.0
 11
-118.116891
 21
-26.605128
 31
0.0
  0
LINE
  8
DETAIL
  6
CONTINUOUS
 62
     5
 10
-107.466887
 20
-26.10514
 30
0.0
 11
-108.316888
 21
-26.60514
 31
0.0
  0
LINE
  8
DETAIL
  6
CONTINUOUS
 62
     5
 10
-107.466892
 20
-26.105131
 30
0.0
 11
-107.466892
 21
-23.505118
 31
0.0
  0
LINE
  8
DETAIL
  6
CONTINUOUS
 62
     5
 10
-118.116914
 20
-23.005131
 30
0.0
 11
-108.316871
 21
-23.005131
 31
0.0
  0
LINE
  8
DETAIL
  6
CONTINUOUS
 62
     5
 10
-110.716892
 20
-26.605128
 30
0.0
 11
-110.716892
 21
-30.005113
 31
0.0
  0
LINE
  8
DETAIL
  6
CONTINUOUS
 62
     5
 10
-110.216892
 20
-26.605128
 30
0.0
 11
-110.216892
 21
-30.005113
 31
0.0
  0
LINE
  8
DETAIL
  6
CONTINUOUS
 62
     5
 10
-116.216892
 20
-30.005113
 30
0.0
 11
-110.216892
 21
-30.005113
 31
0.0
  0
LINE
  8
DETAIL
  6
CONTINUOUS
 62
     5
 10
-115.716892
 20
-26.605128
 30
0.0
 11
-115.716892
 21
-30.005113
 31
0.0
  0
LINE
  8
DETAIL
  6
CONTINUOUS
 62
     5
 10
-116.216892
 20
-26.605128
 30
0.0
 11
-116.216892
 21
-30.005113
 31
0.0
  0
ARC
  8
DETAIL
  6
CONTINUOUS
 62
     5
 10
-118.154005
 20
-30.005131
 30
0.0
 40
10.0
 50
0.0
 51
19.907619
  0
LINE
  8
DETAIL
  6
CONTINUOUS
 62
     5
 10
-90.044999
 20
-17.505125
 30
0.0
 11
-90.044999
 21
-12.500008
 31
0.0
  0
LINE
  8
DETAIL
  6
CONTINUOUS
 62
     5
 10
-90.044999
 20
-14.499748
 30
0.0
 11
-90.044999
 21
-14.504897
 31
0.0
  0
LINE
  8
DETAIL
  6
CONTINUOUS
 62
     5
 10
-108.154005
 20
-34.681575
 30
0.0
 11
-108.154005
 21
-30.005131
 31
0.0
  0
ARC
  8
DETAIL
  6
CONTINUOUS
 62
     5
 10
-123.153996
 20
-34.681575
 30
0.0
 40
15.0
 50
334.167171
 51
359.999873
  0
ARC
  8
DETAIL
  6
CONTINUOUS
 62
     5
 10
-62.529984
 20
-12.500008
 30
0.0
 40
2.499999
 50
0.0
 51
90.000019
  0
ARC
  8
DETAIL
  6
CONTINUOUS
 62
     5
 10
-8.281065
 20
-60.643295
 30
0.0
 40
2.961836
 50
260.710212
 51
270.0
  0
LINE
  8
DETAIL
  6
CONTINUOUS
 62
     5
 10
-46.993183
 20
-61.022748
 30
0.0
 11
-46.976514
 21
-61.01507
 31
0.0
  0
LINE
  8
DETAIL
  6
CONTINUOUS
 62
     5
 10
-60.998459
 20
-67.554521
 30
0.0
 11
-46.976506
 21
-61.015074
 31
0.0
  0
LINE
  8
DETAIL
  6
CONTINUOUS
 62
     5
 10
-15.466522
 20
-54.130651
 30
0.0
 11
-16.578618
 21
-50.020083
 31
0.0
  0
LINE
  8
DETAIL
  6
CONTINUOUS
 62
     5
 10
-65.773038
 20
-50.020083
 30
0.0
 11
-59.123427
 21
-54.61497
 31
0.0
  0
LINE
  8
DETAIL
  6
CONTINUOUS
 62
     5
 10
-11.446815
 20
-61.022784
 30
0.0
 11
-15.4665
 21
-54.13067
 31
0.0
  0
LINE
  8
DETAIL
  6
CONTINUOUS
 62
     5
 10
-59.123432
 20
-54.614837
 30
0.0
 11
-76.007628
 21
-64.4575
 31
0.0
  0
LINE
  8
DETAIL
  6
CONTINUOUS
 62
     5
 10
-40.442824
 20
-64.457561
 30
0.0
 11
-59.123438
 21
-54.614871
 31
0.0
  0
ARC
  8
DETAIL
  6
CONTINUOUS
 62
     5
 10
-57.529972
 20
-17.505125
 30
0.0
 40
2.499999
 50
180.0
 51
269.999928
  0
LINE
  8
DETAIL
  6
CONTINUOUS
 62
     5
 10
-60.029978
 20
-17.505125
 30
0.0
 11
-60.029978
 21
-12.500008
 31
0.0
  0
LINE
  8
DETAIL
  6
CONTINUOUS
 62
     5
 10
-60.029978
 20
-14.499748
 30
0.0
 11
-60.029978
 21
-14.504897
 31
0.0
  0
LINE
  8
DETAIL
  6
CONTINUOUS
 62
     5
 10
18.428355
 20
-183.459725
 30
0.0
 11
24.712198
 21
-188.92273
 31
0.0
  0
LINE
  8
DETAIL
  6
CONTINUOUS
 62
     5
 10
52.05571
 20
-199.005131
 30
0.0
 11
52.05571
 21
-179.005131
 31
0.0
  0
LINE
  8
DETAIL
  6
CONTINUOUS
 62
     5
 10
35.91077
 20
-216.005131
 30
0.0
 11
35.91077
 21
-177.005131
 31
0.0
  0
LINE
  8
DETAIL
  6
CONTINUOUS
 62
     5
 10
52.998781
 20
-187.937949
 30
0.0
 11
52.998781
 21
-284.005131
 31
0.0
  0
LINE
  8
DETAIL
  6
CONTINUOUS
 62
     5
 10
55.008346
 20
-191.181963
 30
0.0
 11
54.0
 21
-293.024932
 31
0.0
  0
LINE
  8
DETAIL
  6
CONTINUOUS
 62
     5
 10
26.556101
 20
-279.005131
 30
0.0
 11
26.556101
 21
-225.10697
 31
0.0
  0
LINE
  8
DETAIL
  6
CONTINUOUS
 62
     5
 10
39.992375
 20
-279.005131
 30
0.0
 11
39.992375
 21
-224.568574
 31
0.0
  0
ARC
  8
DETAIL
  6
CONTINUOUS
 62
     5
 10
42.006819
 20
-286.005131
 30
0.0
 40
2.0
 50
90.0
 51
167.320243
  0
ARC
  8
DETAIL
  6
CONTINUOUS
 62
     5
 10
37.131918
 20
-294.005131
 30
0.0
 40
1.0
 50
275.806569
 51
347.320243
  0
LINE
  8
DETAIL
  6
CONTINUOUS
 62
     5
 10
40.055595
 20
-285.566128
 30
0.0
 11
38.10753
 21
-294.224632
 31
0.0
  0
LINE
  8
DETAIL
  6
CONTINUOUS
 62
     5
 10
52.998781
 20
-284.005131
 30
0.0
 11
42.006819
 21
-284.005131
 31
0.0
  0
ARC
  8
DETAIL
  6
CONTINUOUS
 62
     5
 10
52.000098
 20
-293.005131
 30
0.0
 40
2.0
 50
274.104985
 51
359.432734
  0
ARC
  8
DETAIL
  6
CONTINUOUS
 62
     5
 10
24.056101
 20
-189.677407
 30
0.0
 40
1.0
 50
0.0
 51
48.997177
  0
ARC
  8
DETAIL
  6
CONTINUOUS
 62
     5
 10
52.962716
 20
-188.937949
 30
0.0
 40
1.0
 50
25.081986
 51
90.0
  0
ARC
  8
DETAIL
  6
CONTINUOUS
 62
     5
 10
54.008395
 20
-191.172063
 30
0.0
 40
1.0
 50
359.432734
 51
25.081986
  0
LINE
  8
DETAIL
  6
CONTINUOUS
 62
     5
 10
54.914097
 20
-190.748148
 30
0.0
 11
53.868419
 21
-188.514034
 31
0.0
  0
LINE
  8
DETAIL
  6
CONTINUOUS
 62
     5
 10
52.962716
 20
-187.937949
 30
0.0
 11
52.05571
 21
-187.937949
 31
0.0
  0
LINE
  8
DETAIL
  6
CONTINUOUS
 62
     5
 10
25.056101
 20
-229.005131
 30
0.0
 11
25.056101
 21
-189.677407
 31
0.0
  0
ARC
  8
DETAIL
  6
CONTINUOUS
 62
     5
 10
32.056101
 20
-226.337756
 30
0.0
 40
7.0
 50
101.924139
 51
180.0
  0
LINE
  8
DETAIL
  6
CONTINUOUS
 62
     5
 10
26.556101
 20
-229.005131
 30
0.0
 11
25.056101
 21
-229.005131
 31
0.0
  0
ARC
  8
DETAIL
  6
CONTINUOUS
 62
     5
 10
31.556101
 20
-225.10697
 30
0.0
 40
5.0
 50
102.669762
 51
180.0
  0
LINE
  8
DETAIL
  6
CONTINUOUS
 62
     5
 10
37.051244
 20
-217.956432
 30
0.0
 11
30.459445
 21
-220.228718
 31
0.0
  0
LINE
  8
DETAIL
  6
CONTINUOUS
 62
     5
 10
34.324003
 20
-217.961975
 30
0.0
 11
30.609786
 21
-219.488802
 31
0.0
  0
ARC
  8
DETAIL
  6
CONTINUOUS
 62
     5
 10
49.05571
 20
-216.618873
 30
0.0
 40
3.0
 50
287.271898
 51
0.0
  0
ARC
  8
DETAIL
  6
CONTINUOUS
 62
     5
 10
45.492375
 20
-225.460333
 30
0.0
 40
4.0
 50
107.271898
 51
180.0
  0
LINE
  8
DETAIL
  6
CONTINUOUS
 62
     5
 10
41.492375
 20
-229.005131
 30
0.0
 11
41.492375
 21
-225.460333
 31
0.0
  0
LINE
  8
DETAIL
  6
CONTINUOUS
 62
     5
 10
41.492375
 20
-229.005131
 30
0.0
 11
39.992375
 21
-229.005131
 31
0.0
  0
LINE
  8
DETAIL
  6
CONTINUOUS
 62
     5
 10
49.946429
 20
-219.483592
 30
0.0
 11
44.304749
 21
-221.640707
 31
0.0
  0
ARC
  8
DETAIL
  6
CONTINUOUS
 62
     5
 10
44.992375
 20
-224.568574
 30
0.0
 40
5.0
 50
107.271898
 51
180.0
  0
LINE
  8
DETAIL
  6
CONTINUOUS
 62
     5
 10
48.255367
 20
-217.914944
 30
0.0
 11
43.507842
 21
-219.794041
 31
0.0
  0
ARC
  8
DETAIL
  6
CONTINUOUS
 62
     5
 10
47.661554
 20
-216.005131
 30
0.0
 40
2.0
 50
287.271898
 51
0.0
  0
LINE
  8
DETAIL
  6
CONTINUOUS
 62
     5
 10
54.980394
 20
-199.005131
 30
0.0
 11
52.05571
 21
-199.005131
 31
0.0
  0
ARC
  8
DETAIL
  6
CONTINUOUS
 62
     5
 10
47.661554
 20
-211.005131
 30
0.0
 40
2.0
 50
0.0
 51
90.0
  0
LINE
  8
DETAIL
  6
CONTINUOUS
 62
     5
 10
49.661554
 20
-216.005131
 30
0.0
 11
49.661554
 21
-211.005131
 31
0.0
  0
LINE
  8
DETAIL
  6
CONTINUOUS
 62
     5
 10
52.05571
 20
-216.618873
 30
0.0
 11
52.05571
 21
-199.005131
 31
0.0
  0
ARC
  8
DETAIL
  6
CONTINUOUS
 62
     5
 10
40.612581
 20
-211.005131
 30
0.0
 40
2.0
 50
90.0
 51
180.0
  0
LINE
  8
DETAIL
  6
CONTINUOUS
 62
     5
 10
38.612581
 20
-216.005131
 30
0.0
 11
38.612581
 21
-211.005131
 31
0.0
  0
ARC
  8
DETAIL
  6
CONTINUOUS
 62
     5
 10
36.612581
 20
-216.005131
 30
0.0
 40
2.0
 50
270.0
 51
0.0
  0
ARC
  8
DETAIL
  6
CONTINUOUS
 62
     5
 10
33.91077
 20
-216.005131
 30
0.0
 40
2.0
 50
270.0
 51
0.0
  0
LINE
  8
DETAIL
  6
CONTINUOUS
 62
     5
 10
43.555502
 20
-210.505131
 30
0.0
 11
43.555502
 21
-215.505131
 31
0.0
  0
LINE
  8
DETAIL
  6
CONTINUOUS
 62
     5
 10
44.055502
 20
-209.005131
 30
0.0
 11
44.055502
 21
-210.505131
 31
0.0
  0
LINE
  8
DETAIL
  6
CONTINUOUS
 62
     5
 10
44.055502
 20
-210.505131
 30
0.0
 11
38.67609
 21
-210.505131
 31
0.0
  0
LINE
  8
DETAIL
  6
CONTINUOUS
 62
     5
 10
43.555502
 20
-215.505131
 30
0.0
 11
38.612581
 21
-215.505131
 31
0.0
  0
LINE
  8
DETAIL
  6
CONTINUOUS
 62
     5
 10
40.612581
 20
-209.005131
 30
0.0
 11
47.661554
 21
-209.005131
 31
0.0
  0
LINE
  8
DETAIL
  6
CONTINUOUS
 62
     5
 10
-158.186567
 20
-4.99999
 30
0.0
 11
158.186567
 21
-4.99999
 31
0.0
  0
LINE
  8
DETAIL
  6
CONTINUOUS
 62
     5
 10
6.0
 20
-66.005131
 30
0.0
 11
6.0
 21
-77.005131
 31
0.0
  0
LINE
  8
DETAIL
  6
CONTINUOUS
 62
     5
 10
65.543796
 20
-67.554532
 30
0.0
 11
70.4155
 21
-73.703351
 31
0.0
  0
LINE
  8
DETAIL
  6
CONTINUOUS
 62
     5
 10
109.652958
 20
-26.605128
 30
0.0
 11
109.652958
 21
-102.005131
 31
0.0
  0
LINE
  8
DETAIL
  6
CONTINUOUS
 62
     5
 10
130.364711
 20
-102.005131
 30
0.0
 11
130.364711
 21
-23.005131
 31
0.0
  0
LINE
  8
DETAIL
  6
CONTINUOUS
 62
     5
 10
76.007685
 20
-88.501085
 30
0.0
 11
68.515018
 21
-89.841195
 31
0.0
  0
ARC
  8
DETAIL
  6
CONTINUOUS
 62
     5
 10
65.364711
 20
-102.005131
 30
0.0
 40
65.0
 50
270.0
 51
0.0
  0
ARC
  8
DETAIL
  6
CONTINUOUS
 62
     5
 10
69.652958
 20
-102.005131
 30
0.0
 40
40.0
 50
270.0
 51
0.0
  0
LINE
  8
DETAIL
  6
CONTINUOUS
 62
     5
 10
50.0
 20
-142.005131
 30
0.0
 11
48.482809
 21
-96.466722
 31
0.0
  0
LINE
  8
DETAIL
  6
CONTINUOUS
 62
     5
 10
19.05571
 20
-182.005131
 30
0.0
 11
19.05571
 21
-179.005131
 31
0.0
  0
LINE
  8
DETAIL
  6
CONTINUOUS
 62
     5
 10
17.05571
 20
-184.005131
 30
0.0
 11
0.0
 21
-184.005131
 31
0.0
  0
LINE
  8
DETAIL
  6
CONTINUOUS
 62
     5
 10
46.05571
 20
-177.005131
 30
0.0
 11
21.05571
 21
-177.005131
 31
0.0
  0
ARC
  8
DETAIL
  6
CONTINUOUS
 62
     5
 10
50.05571
 20
-179.005131
 30
0.0
 40
2.0
 50
0.0
 51
90.0
  0
LINE
  8
DETAIL
  6
CONTINUOUS
 62
     5
 10
50.05571
 20
-177.005131
 30
0.0
 11
46.05571
 21
-177.005131
 31
0.0
  0
LINE
  8
DETAIL
  6
CONTINUOUS
 62
     5
 10
47.980394
 20
-168.005131
 30
0.0
 11
47.980394
 21
-177.005131
 31
0.0
  0
ARC
  8
DETAIL
  6
CONTINUOUS
 62
     5
 10
17.05571
 20
-182.005131
 30
0.0
 40
2.0
 50
270.0
 51
0.0
  0
ARC
  8
DETAIL
  6
CONTINUOUS
 62
     5
 10
21.05571
 20
-179.005131
 30
0.0
 40
2.0
 50
90.0
 51
180.0
  0
LINE
  8
DETAIL
  6
CONTINUOUS
 62
     5
 10
0.0
 20
-167.005131
 30
0.0
 11
65.364711
 21
-167.005131
 31
0.0
  0
LINE
  8
DETAIL
  6
CONTINUOUS
 62
     5
 10
0.0
 20
-142.005131
 30
0.0
 11
69.652958
 21
-142.005131
 31
0.0
  0
LINE
  8
DETAIL
  6
CONTINUOUS
 62
     5
 10
64.251552
 20
-167.005131
 30
0.0
 11
64.251552
 21
-142.005131
 31
0.0
  0
LINE
  8
DETAIL
  6
CONTINUOUS
 62
     5
 10
62.263692
 20
-167.005131
 30
0.0
 11
62.263692
 21
-142.005131
 31
0.0
  0
LINE
  8
DETAIL
  6
CONTINUOUS
 62
     5
 10
54.944804
 20
-149.50513
 30
0.0
 11
47.393724
 21
-149.50513
 31
0.0
  0
LINE
  8
DETAIL
  6
CONTINUOUS
 62
     5
 10
53.853462
 20
-154.505131
 30
0.0
 11
57.09805
 21
-154.505131
 31
0.0
  0
LINE
  8
DETAIL
  6
CONTINUOUS
 62
     5
 10
53.853462
 20
-154.505131
 30
0.0
 11
51.700216
 21
-149.50513
 31
0.0
  0
LINE
  8
DETAIL
  6
CONTINUOUS
 62
     5
 10
53.853462
 20
-154.505131
 30
0.0
 11
51.700216
 21
-159.505129
 31
0.0
  0
LINE
  8
DETAIL
  6
CONTINUOUS
 62
     5
 10
47.393724
 20
-159.505129
 30
0.0
 11
45.240474
 21
-154.505131
 31
0.0
  0
LINE
  8
DETAIL
  6
CONTINUOUS
 62
     5
 10
45.240474
 20
-154.505131
 30
0.0
 11
47.393724
 21
-149.50513
 31
0.0
  0
LINE
  8
DETAIL
  6
CONTINUOUS
 62
     5
 10
57.09805
 20
-154.505131
 30
0.0
 11
54.944804
 21
-159.505129
 31
0.0
  0
LINE
  8
DETAIL
  6
CONTINUOUS
 62
     5
 10
57.09805
 20
-154.505131
 30
0.0
 11
54.944804
 21
-149.50513
 31
0.0
  0
LINE
  8
DETAIL
  6
CONTINUOUS
 62
     5
 10
49.54697
 20
-149.505131
 30
0.0
 11
50.278559
 21
-149.601204
 31
0.0
  0
LINE
  8
DETAIL
  6
CONTINUOUS
 62
     5
 10
50.278559
 20
-149.601204
 30
0.0
 11
50.982033
 21
-149.885733
 31
0.0
  0
LINE
  8
DETAIL
  6
CONTINUOUS
 62
     5
 10
50.982033
 20
-149.885733
 30
0.0
 11
51.630359
 21
-150.347783
 31
0.0
  0
LINE
  8
DETAIL
  6
CONTINUOUS
 62
     5
 10
51.630359
 20
-150.347783
 30
0.0
 11
52.198621
 21
-150.969597
 31
0.0
  0
LINE
  8
DETAIL
  6
CONTINUOUS
 62
     5
 10
52.198621
 20
-150.969597
 30
0.0
 11
52.664981
 21
-151.72728
 31
0.0
  0
LINE
  8
DETAIL
  6
CONTINUOUS
 62
     5
 10
52.664981
 20
-151.72728
 30
0.0
 11
53.011519
 21
-152.591714
 31
0.0
  0
LINE
  8
DETAIL
  6
CONTINUOUS
 62
     5
 10
53.011519
 20
-152.591714
 30
0.0
 11
53.224915
 21
-153.529679
 31
0.0
  0
LINE
  8
DETAIL
  6
CONTINUOUS
 62
     5
 10
53.224915
 20
-153.529679
 30
0.0
 11
53.29697
 21
-154.505131
 31
0.0
  0
LINE
  8
DETAIL
  6
CONTINUOUS
 62
     5
 10
53.29697
 20
-154.505131
 30
0.0
 11
53.224915
 21
-155.480582
 31
0.0
  0
LINE
  8
DETAIL
  6
CONTINUOUS
 62
     5
 10
53.224915
 20
-155.480582
 30
0.0
 11
53.011519
 21
-156.418548
 31
0.0
  0
LINE
  8
DETAIL
  6
CONTINUOUS
 62
     5
 10
53.011519
 20
-156.418548
 30
0.0
 11
52.664981
 21
-157.282982
 31
0.0
  0
LINE
  8
DETAIL
  6
CONTINUOUS
 62
     5
 10
52.664981
 20
-157.282982
 30
0.0
 11
52.198621
 21
-158.040665
 31
0.0
  0
LINE
  8
DETAIL
  6
CONTINUOUS
 62
     5
 10
52.198621
 20
-158.040665
 30
0.0
 11
51.630359
 21
-158.662479
 31
0.0
  0
LINE
  8
DETAIL
  6
CONTINUOUS
 62
     5
 10
51.630359
 20
-158.662479
 30
0.0
 11
50.982033
 21
-159.124529
 31
0.0
  0
LINE
  8
DETAIL
  6
CONTINUOUS
 62
     5
 10
50.982033
 20
-159.124529
 30
0.0
 11
50.278559
 21
-159.409057
 31
0.0
  0
LINE
  8
DETAIL
  6
CONTINUOUS
 62
     5
 10
50.278559
 20
-159.409057
 30
0.0
 11
49.54697
 21
-159.505131
 31
0.0
  0
LINE
  8
DETAIL
  6
CONTINUOUS
 62
     5
 10
49.54697
 20
-159.505131
 30
0.0
 11
48.815382
 21
-159.409057
 31
0.0
  0
LINE
  8
DETAIL
  6
CONTINUOUS
 62
     5
 10
48.815382
 20
-159.409057
 30
0.0
 11
48.111907
 21
-159.124529
 31
0.0
  0
LINE
  8
DETAIL
  6
CONTINUOUS
 62
     5
 10
48.111907
 20
-159.124529
 30
0.0
 11
47.463582
 21
-158.662479
 31
0.0
  0
LINE
  8
DETAIL
  6
CONTINUOUS
 62
     5
 10
47.463582
 20
-158.662479
 30
0.0
 11
46.89532
 21
-158.040665
 31
0.0
  0
LINE
  8
DETAIL
  6
CONTINUOUS
 62
     5
 10
46.89532
 20
-158.040665
 30
0.0
 11
46.428959
 21
-157.282982
 31
0.0
  0
LINE
  8
DETAIL
  6
CONTINUOUS
 62
     5
 10
46.428959
 20
-157.282982
 30
0.0
 11
46.082422
 21
-156.418548
 31
0.0
  0
LINE
  8
DETAIL
  6
CONTINUOUS
 62
     5
 10
46.082422
 20
-156.418548
 30
0.0
 11
45.869025
 21
-155.480582
 31
0.0
  0
LINE
  8
DETAIL
  6
CONTINUOUS
 62
     5
 10
45.869025
 20
-155.480582
 30
0.0
 11
45.79697
 21
-154.505131
 31
0.0
  0
LINE
  8
DETAIL
  6
CONTINUOUS
 62
     5
 10
45.79697
 20
-154.505131
 30
0.0
 11
45.869025
 21
-153.529679
 31
0.0
  0
LINE
  8
DETAIL
  6
CONTINUOUS
 62
     5
 10
45.869025
 20
-153.529679
 30
0.0
 11
46.082422
 21
-152.591714
 31
0.0
  0
LINE
  8
DETAIL
  6
CONTINUOUS
 62
     5
 10
46.082422
 20
-152.591714
 30
0.0
 11
46.428959
 21
-151.72728
 31
0.0
  0
LINE
  8
DETAIL
  6
CONTINUOUS
 62
     5
 10
46.428959
 20
-151.72728
 30
0.0
 11
46.89532
 21
-150.969597
 31
0.0
  0
LINE
  8
DETAIL
  6
CONTINUOUS
 62
     5
 10
46.89532
 20
-150.969597
 30
0.0
 11
47.463582
 21
-150.347783
 31
0.0
  0
LINE
  8
DETAIL
  6
CONTINUOUS
 62
     5
 10
47.463582
 20
-150.347783
 30
0.0
 11
48.111907
 21
-149.885733
 31
0.0
  0
LINE
  8
DETAIL
  6
CONTINUOUS
 62
     5
 10
48.111907
 20
-149.885733
 30
0.0
 11
48.815382
 21
-149.601204
 31
0.0
  0
LINE
  8
DETAIL
  6
CONTINUOUS
 62
     5
 10
48.815382
 20
-149.601204
 30
0.0
 11
49.54697
 21
-149.505131
 31
0.0
  0
LINE
  8
DETAIL
  6
CONTINUOUS
 62
     5
 10
43.693158
 20
-143.005131
 30
0.0
 11
43.693158
 21
-166.005131
 31
0.0
  0
LINE
  8
DETAIL
  6
CONTINUOUS
 62
     5
 10
19.595917
 20
-166.005131
 30
0.0
 11
19.595917
 21
-143.005131
 31
0.0
  0
LINE
  8
DETAIL
  6
CONTINUOUS
 62
     5
 10
54.944804
 20
-159.505129
 30
0.0
 11
51.700216
 21
-159.505129
 31
0.0
  0
LINE
  8
DETAIL
  6
CONTINUOUS
 62
     5
 10
51.700216
 20
-159.505129
 30
0.0
 11
47.393724
 21
-159.505129
 31
0.0
  0
ARC
  8
DETAIL
  6
CONTINUOUS
 62
     5
 10
43.485582
 20
-96.633213
 30
0.0
 40
5.0
 50
1.908202
 51
77.005383
  0
LINE
  8
DETAIL
  6
CONTINUOUS
 62
     5
 10
26.325421
 20
-87.541767
 30
0.0
 11
44.60988
 21
-91.761257
 31
0.0
  0
ARC
  8
DETAIL
  6
CONTINUOUS
 62
     5
 10
57.444856
 20
-80.356763
 30
0.0
 40
14.577523
 50
319.411675
 51
16.48005
  0
LINE
  8
DETAIL
  6
CONTINUOUS
 62
     5
 10
12.261983
 20
-77.005131
 30
0.0
 11
6.0
 21
-74.08324
 31
0.0
  0
LINE
  8
DETAIL
  6
CONTINUOUS
 62
     5
 10
32.331388
 20
-84.852382
 30
0.0
 11
24.0
 21
-81.819745
 31
0.0
  0
LINE
  8
DETAIL
  6
CONTINUOUS
 62
     5
 10
24.07803
 20
-85.298366
 30
0.0
 11
40.442816
 21
-88.501157
 31
0.0
  0
LINE
  8
DETAIL
  6
CONTINUOUS
 62
     5
 10
40.442814
 20
-88.501232
 30
0.0
 11
49.205141
 21
-89.841367
 31
0.0
  0
LINE
  8
DETAIL
  6
CONTINUOUS
 62
     5
 10
49.205146
 20
-89.841281
 30
0.0
 11
32.331354
 21
-84.852401
 31
0.0
  0
LINE
  8
DETAIL
  6
CONTINUOUS
 62
     5
 10
70.41547
 20
-73.703392
 30
0.0
 11
71.423513
 21
-76.22139
 31
0.0
  0
LINE
  8
DETAIL
  6
CONTINUOUS
 62
     5
 10
102.404841
 20
-79.356679
 30
0.0
 11
76.007686
 21
-88.501134
 31
0.0
  0
LINE
  8
DETAIL
  6
CONTINUOUS
 62
     5
 10
109.624001
 20
-73.822215
 30
0.0
 11
102.404861
 21
-79.356746
 31
0.0
  0
LINE
  8
DETAIL
  6
CONTINUOUS
 62
     5
 10
109.652958
 20
-46.020077
 30
0.0
 11
0.0
 21
-46.020077
 31
0.0
  0
ARC
  8
DETAIL
  6
CONTINUOUS
 62
     5
 10
62.529984
 20
-12.500008
 30
0.0
 40
2.499999
 50
89.999981
 51
180.0
  0
LINE
  8
DETAIL
  6
CONTINUOUS
 62
     5
 10
5.0
 20
-66.005131
 30
0.0
 11
5.0
 21
-63.605131
 31
0.0
  0
LINE
  8
DETAIL
  6
CONTINUOUS
 62
     5
 10
-6.0
 20
-66.005131
 30
0.0
 11
-6.0
 21
-66.177624
 31
0.0
  0
LINE
  8
DETAIL
  6
CONTINUOUS
 62
     5
 10
-6.0
 20
-66.005131
 30
0.0
 11
6.0
 21
-66.005131
 31
0.0
  0
LINE
  8
DETAIL
  6
CONTINUOUS
 62
     5
 10
-5.0
 20
-66.005131
 30
0.0
 11
-5.0
 21
-63.605131
 31
0.0
  0
LINE
  8
DETAIL
  6
CONTINUOUS
 62
     5
 10
4.0
 20
-50.005131
 30
0.0
 11
10.5
 21
-50.005131
 31
0.0
  0
LINE
  8
DETAIL
  6
CONTINUOUS
 62
     5
 10
8.281065
 20
-63.605131
 30
0.0
 11
0.0
 21
-63.605131
 31
0.0
  0
LINE
  8
DETAIL
  6
CONTINUOUS
 62
     5
 10
10.5
 20
-62.605131
 30
0.0
 11
10.5
 21
-50.020083
 31
0.0
  0
ARC
  8
DETAIL
  6
CONTINUOUS
 62
     5
 10
8.281065
 20
-60.643295
 30
0.0
 40
2.961836
 50
270.0
 51
318.519008
  0
LINE
  8
DETAIL
  6
CONTINUOUS
 62
     5
 10
65.543791
 20
-67.554605
 30
0.0
 11
62.641367
 21
-64.885864
 31
0.0
  0
LINE
  8
DETAIL
  6
CONTINUOUS
 62
     5
 10
58.44006
 20
-61.022891
 30
0.0
 11
62.641377
 21
-64.885899
 31
0.0
  0
LINE
  8
DETAIL
  6
CONTINUOUS
 62
     5
 10
44.827802
 20
-50.020083
 30
0.0
 11
49.527165
 21
-54.130756
 31
0.0
  0
LINE
  8
DETAIL
  6
CONTINUOUS
 62
     5
 10
49.527135
 20
-54.130722
 30
0.0
 11
58.440065
 21
-61.022831
 31
0.0
  0
LINE
  8
DETAIL
  6
CONTINUOUS
 62
     5
 10
60.029978
 20
-14.499748
 30
0.0
 11
60.029978
 21
-14.504897
 31
0.0
  0
LINE
  8
DETAIL
  6
CONTINUOUS
 62
     5
 10
60.029978
 20
-17.505125
 30
0.0
 11
60.029978
 21
-12.500008
 31
0.0
  0
ARC
  8
DETAIL
  6
CONTINUOUS
 62
     5
 10
57.529972
 20
-17.505125
 30
0.0
 40
2.499999
 50
270.000072
 51
0.0
  0
ARC
  8
DETAIL
  6
CONTINUOUS
 62
     5
 10
143.370431
 20
-12.500008
 30
0.0
 40
2.499999
 50
90.000036
 51
180.0
  0
ARC
  8
DETAIL
  6
CONTINUOUS
 62
     5
 10
87.544992
 20
-12.500008
 30
0.0
 40
2.499999
 50
0.0
 51
89.999981
  0
LINE
  8
DETAIL
  6
CONTINUOUS
 62
     5
 10
116.216892
 20
-26.605128
 30
0.0
 11
116.216892
 21
-30.005113
 31
0.0
  0
LINE
  8
DETAIL
  6
CONTINUOUS
 62
     5
 10
115.716892
 20
-26.605128
 30
0.0
 11
115.716892
 21
-30.005113
 31
0.0
  0
LINE
  8
DETAIL
  6
CONTINUOUS
 62
     5
 10
116.216892
 20
-30.005113
 30
0.0
 11
110.216892
 21
-30.005113
 31
0.0
  0
LINE
  8
DETAIL
  6
CONTINUOUS
 62
     5
 10
110.216892
 20
-26.605128
 30
0.0
 11
110.216892
 21
-30.005113
 31
0.0
  0
LINE
  8
DETAIL
  6
CONTINUOUS
 62
     5
 10
110.716892
 20
-26.605128
 30
0.0
 11
110.716892
 21
-30.005113
 31
0.0
  0
LINE
  8
DETAIL
  6
CONTINUOUS
 62
     5
 10
118.116914
 20
-23.005131
 30
0.0
 11
108.316871
 21
-23.005131
 31
0.0
  0
LINE
  8
DETAIL
  6
CONTINUOUS
 62
     5
 10
107.466892
 20
-26.105131
 30
0.0
 11
107.466892
 21
-23.505118
 31
0.0
  0
LINE
  8
DETAIL
  6
CONTINUOUS
 62
     5
 10
107.466887
 20
-26.10514
 30
0.0
 11
108.316888
 21
-26.60514
 31
0.0
  0
LINE
  8
DETAIL
  6
CONTINUOUS
 62
     5
 10
108.316894
 20
-26.605128
 30
0.0
 11
118.116891
 21
-26.605128
 31
0.0
  0
LINE
  8
DETAIL
  6
CONTINUOUS
 62
     5
 10
118.116897
 20
-23.005121
 30
0.0
 11
118.966898
 21
-23.505121
 31
0.0
  0
ARC
  8
DETAIL
  6
CONTINUOUS
 62
     5
 10
117.529392
 20
-25.321537
 30
0.0
 40
2.316406
 50
90.000001
 51
128.358015
  0
ARC
  8
DETAIL
  6
CONTINUOUS
 62
     5
 10
113.216892
 20
-31.520756
 30
0.0
 40
8.515625
 50
70.268404
 51
109.731652
  0
ARC
  8
DETAIL
  6
CONTINUOUS
 62
     5
 10
108.904392
 20
-25.321537
 30
0.0
 40
2.316406
 50
51.641986
 51
90.000001
  0
LINE
  8
DETAIL
  6
CONTINUOUS
 62
     5
 10
107.466887
 20
-23.505121
 30
0.0
 11
108.316888
 21
-23.005121
 31
0.0
  0
LINE
  8
DETAIL
  6
CONTINUOUS
 62
     5
 10
118.116897
 20
-26.60514
 30
0.0
 11
118.966898
 21
-26.10514
 31
0.0
  0
LINE
  8
DETAIL
  6
CONTINUOUS
 62
     5
 10
118.966892
 20
-26.105131
 30
0.0
 11
118.966892
 21
-23.505118
 31
0.0
  0
LINE
  8
DETAIL
  6
CONTINUOUS
 62
     5
 10
116.091892
 20
-26.105131
 30
0.0
 11
116.091892
 21
-23.505131
 31
0.0
  0
ARC
  8
DETAIL
  6
CONTINUOUS
 62
     5
 10
117.529392
 20
-24.288725
 30
0.0
 40
2.316406
 50
231.641947
 51
269.999982
  0
ARC
  8
DETAIL
  6
CONTINUOUS
 62
     5
 10
113.216892
 20
-18.089506
 30
0.0
 40
8.515625
 50
250.26833
 51
289.731579
  0
ARC
  8
DETAIL
  6
CONTINUOUS
 62
     5
 10
108.904392
 20
-24.288725
 30
0.0
 40
2.316406
 50
269.999982
 51
308.357997
  0
LINE
  8
DETAIL
  6
CONTINUOUS
 62
     5
 10
110.341893
 20
-26.105131
 30
0.0
 11
110.341893
 21
-23.505131
 31
0.0
  0
ARC
  8
DETAIL
  6
CONTINUOUS
 62
     5
 10
127.364711
 20
-23.005131
 30
0.0
 40
3.0
 50
0.0
 51
90.0
  0
LINE
  8
DETAIL
  6
CONTINUOUS
 62
     5
 10
125.376851
 20
-23.005131
 30
0.0
 11
94.566579
 21
-23.005131
 31
0.0
  0
LINE
  8
DETAIL
  6
CONTINUOUS
 62
     5
 10
94.566579
 20
-23.005131
 30
0.0
 11
94.566579
 21
-20.005131
 31
0.0
  0
LINE
  8
DETAIL
  6
CONTINUOUS
 62
     5
 10
113.290472
 20
-23.005131
 30
0.0
 11
113.290472
 21
-20.005131
 31
0.0
  0
ARC
  8
DETAIL
  6
CONTINUOUS
 62
     5
 10
123.153996
 20
-34.681575
 30
0.0
 40
15.0
 50
180.000127
 51
205.832829
  0
LINE
  8
DETAIL
  6
CONTINUOUS
 62
     5
 10
108.154005
 20
-34.681575
 30
0.0
 11
108.154005
 21
-30.005131
 31
0.0
  0
ARC
  8
DETAIL
  6
CONTINUOUS
 62
     5
 10
138.370418
 20
-17.505125
 30
0.0
 40
2.499999
 50
273.668893
 51
0.0
  0
LINE
  8
DETAIL
  6
CONTINUOUS
 62
     5
 10
90.044999
 20
-14.499748
 30
0.0
 11
90.044999
 21
-14.504897
 31
0.0
  0
LINE
  8
DETAIL
  6
CONTINUOUS
 62
     5
 10
140.870425
 20
-12.500008
 30
0.0
 11
140.870425
 21
-17.505125
 31
0.0
  0
LINE
  8
DETAIL
  6
CONTINUOUS
 62
     5
 10
90.044999
 20
-17.505125
 30
0.0
 11
90.044999
 21
-12.500008
 31
0.0
  0
ARC
  8
DETAIL
  6
CONTINUOUS
 62
     5
 10
92.545005
 20
-17.505125
 30
0.0
 40
2.499999
 50
180.0
 51
270.0
  0
ARC
  8
DETAIL
  6
CONTINUOUS
 62
     5
 10
118.154005
 20
-30.005131
 30
0.0
 40
10.0
 50
160.123111
 51
180.0
  0
LINE
  8
DETAIL
  6
CONTINUOUS
 62
     5
 10
158.91602
 20
-4.528467
 30
0.0
 11
160.0
 21
-2.121261
 31
0.0
  0
LINE
  8
DETAIL
  6
CONTINUOUS
 62
     5
 10
157.279984
 20
-7.5
 30
0.0
 11
157.279984
 21
-4.99999
 31
0.0
  0
ARC
  8
DETAIL
  6
CONTINUOUS
 62
     5
 10
158.186567
 20
-4.19999
 30
0.0
 40
0.8
 50
270.0
 51
335.75767
  0
ARC
  8
DETAIL
  6
CONTINUOUS
 62
     5
 10
154.779984
 20
-7.5
 30
0.0
 40
2.5
 50
270.0
 51
0.0
  0
LINE
  8
DETAIL
  6
CONTINUOUS
 62
     5
 10
-160.0
 20
0.0
 30
0.0
 11
-160.0
 21
-2.121261
 31
0.0
  0
ARC
  8
DETAIL
  6
CONTINUOUS
 62
     5
 10
-138.370418
 20
-17.505125
 30
0.0
 40
2.499999
 50
180.0
 51
266.331107
  0
ARC
  8
DETAIL
  6
CONTINUOUS
 62
     5
 10
-154.779984
 20
-7.5
 30
0.0
 40
2.5
 50
180.0
 51
270.0
  0
LINE
  8
DETAIL
  6
CONTINUOUS
 62
     5
 10
-157.279984
 20
-7.5
 30
0.0
 11
-157.279984
 21
-4.99999
 31
0.0
  0
ARC
  8
DETAIL
  6
CONTINUOUS
 62
     5
 10
-158.186567
 20
-4.19999
 30
0.0
 40
0.8
 50
204.24233
 51
270.0
  0
LINE
  8
DETAIL
  6
CONTINUOUS
 62
     5
 10
-158.91602
 20
-4.528467
 30
0.0
 11
-160.0
 21
-2.121261
 31
0.0
  0
ARC
  8
DETAIL
  6
CONTINUOUS
 62
     5
 10
-143.370431
 20
-12.500008
 30
0.0
 40
2.499999
 50
0.0
 51
89.999964
  0
LINE
  8
DETAIL
  6
CONTINUOUS
 62
     5
 10
-140.870425
 20
-12.500008
 30
0.0
 11
-140.870425
 21
-17.505125
 31
0.0
  0
LINE
  8
DETAIL
  6
CONTINUOUS
 62
     5
 10
-109.652958
 20
-50.0
 30
0.0
 11
109.652958
 21
-50.0
 31
0.0
  0
LINE
  8
DETAIL
  6
CONTINUOUS
 62
     5
 10
-109.652958
 20
-46.0
 30
0.0
 11
109.652958
 21
-46.0
 31
0.0
  0
LINE
  8
DETAIL
  6
CONTINUOUS
 62
     5
 10
125.376851
 20
-23.005131
 30
0.0
 11
125.376851
 21
-20.0
 31
0.0
  0
LINE
  8
DETAIL
  6
CONTINUOUS
 62
     5
 10
-125.376851
 20
-23.005131
 30
0.0
 11
-125.376851
 21
-20.0
 31
0.0
  0
LINE
  8
DETAIL
  6
CONTINUOUS
 62
     5
 10
-52.143266
 20
-295.0
 30
0.0
 11
52.143266
 21
-295.0
 31
0.0
  0
CIRCLE
  8
FIX
  6
CONTINUOUS
 62
    11
 39
50.0
 10
140.0
 20
0.0
 30
0.0
 40
5.0
  0
LINE
  8
NOTE
  6
CONTINUOUS
 62
     4
 10
120.0
 20
0.0
 30
0.0
 11
160.0
 21
0.0
 31
0.0
  0
LINE
  8
NOTE
  6
CONTINUOUS
 62
     4
 10
140.0
 20
-20.0
 30
0.0
 11
140.0
 21
20.0
 31
0.0
  0
LINE
  8
NOTE
  6
CONTINUOUS
 62
     4
 10
-140.0
 20
0.0
 30
0.0
 11
-294.555509
 21
105.135495
 31
0.0
  0
LINE
  8
NOTE
  6
CONTINUOUS
 62
     4
 10
-177.537061
 20
13.819156
 30
0.0
 11
-140.0
 21
0.0
 31
0.0
  0
LINE
  8
NOTE
  6
CONTINUOUS
 62
     4
 10
-140.0
 20
0.0
 30
0.0
 11
-165.59847
 21
30.736271
 31
0.0
  0
TEXT
  8
NOTE
  6
CONTINUOUS
 62
     4
 10
-582.87674
 20
137.144812
 30
0.0
 40
64.0
  1
4-φ10
 41
0.9
  0
LINE
  8
NOTE
  6
CONTINUOUS
 62
     4
 10
-294.555509
 20
105.135495
 30
0.0
 11
-606.353118
 21
105.135495
 31
0.0
  0
CIRCLE
  8
FIX
  6
CONTINUOUS
 62
    11
 39
50.0
 10
-140.0
 20
0.0
 30
0.0
 40
5.0
  0
LINE
  8
NOTE
  6
CONTINUOUS
 62
     4
 10
-120.0
 20
0.0
 30
0.0
 11
-160.0
 21
0.0
 31
0.0
  0
LINE
  8
NOTE
  6
CONTINUOUS
 62
     4
 10
-140.0
 20
-20.0
 30
0.0
 11
-140.0
 21
20.0
 31
0.0
  0
LINE
  8
DETAIL
  6
CONTINUOUS
 62
     5
 10
45.480394
 20
-168.005131
 30
0.0
 11
45.480394
 21
-167.005131
 31
0.0
  0
LINE
  8
SIZE
  6
CONTINUOUS
 62
    30
 10
140.0
 20
40.0
 30
0.0
 11
140.0
 21
129.985249
 31
0.0
  0
LINE
  8
SIZE
  6
CONTINUOUS
 62
    30
 10
-140.0
 20
40.0
 30
0.0
 11
-140.0
 21
129.985249
 31
0.0
  0
LINE
  8
SIZE
  6
CONTINUOUS
 62
    30
 10
128.0
 20
109.985249
 30
0.0
 11
-128.0
 21
109.985249
 31
0.0
  0
CIRCLE
  8
SIZE
  6
CONTINUOUS
 62
    30
 10
140.0
 20
109.985249
 30
0.0
 40
6.0
  0
LINE
  8
SIZE
  6
CONTINUOUS
 62
    30
 10
140.0
 20
109.985249
 30
0.0
 11
128.0
 21
109.985249
 31
0.0
  0
CIRCLE
  8
SIZE
  6
CONTINUOUS
 62
    30
 10
-140.0
 20
109.985249
 30
0.0
 40
6.0
  0
LINE
  8
SIZE
  6
CONTINUOUS
 62
    30
 10
-140.0
 20
109.985249
 30
0.0
 11
-128.0
 21
109.985249
 31
0.0
  0
TEXT
  8
SIZE
  6
CONTINUOUS
 62
    30
 10
-80.928
 20
134.985249
 30
0.0
 40
64.0
  1
280
 41
0.9
  7
STANDARD
 72
     1
 11
0.0
 21
134.985249
 31
0.0
  0
POINT
  8
DEFPOINTS
  6
CONTINUOUS
 62
    30
 10
140.0
 20
20.0
 30
0.0
  0
POINT
  8
DEFPOINTS
  6
CONTINUOUS
 62
    30
 10
-140.0
 20
20.0
 30
0.0
  0
POINT
  8
DEFPOINTS
  6
CONTINUOUS
 62
    30
 10
-140.0
 20
109.985249
 30
0.0
  0
LINE
  8
SIZE
  6
CONTINUOUS
 62
    30
 10
160.0
 20
20.0
 30
0.0
 11
160.0
 21
250.833778
 31
0.0
  0
LINE
  8
SIZE
  6
CONTINUOUS
 62
    30
 10
-160.0
 20
20.0
 30
0.0
 11
-160.0
 21
250.833778
 31
0.0
  0
LINE
  8
SIZE
  6
CONTINUOUS
 62
    30
 10
148.0
 20
230.833778
 30
0.0
 11
-148.0
 21
230.833778
 31
0.0
  0
CIRCLE
  8
SIZE
  6
CONTINUOUS
 62
    30
 10
160.0
 20
230.833778
 30
0.0
 40
6.0
  0
LINE
  8
SIZE
  6
CONTINUOUS
 62
    30
 10
160.0
 20
230.833778
 30
0.0
 11
148.0
 21
230.833778
 31
0.0
  0
CIRCLE
  8
SIZE
  6
CONTINUOUS
 62
    30
 10
-160.0
 20
230.833778
 30
0.0
 40
6.0
  0
LINE
  8
SIZE
  6
CONTINUOUS
 62
    30
 10
-160.0
 20
230.833778
 30
0.0
 11
-148.0
 21
230.833778
 31
0.0
  0
TEXT
  8
SIZE
  6
CONTINUOUS
 62
    30
 10
-80.928
 20
255.833778
 30
0.0
 40
64.0
  1
320
 41
0.9
  7
STANDARD
 72
     1
 11
0.0
 21
255.833778
 31
0.0
  0
POINT
  8
DEFPOINTS
  6
CONTINUOUS
 62
    30
 10
160.0
 20
0.0
 30
0.0
  0
POINT
  8
DEFPOINTS
  6
CONTINUOUS
 62
    30
 10
-160.0
 20
0.0
 30
0.0
  0
POINT
  8
DEFPOINTS
  6
CONTINUOUS
 62
    30
 10
-160.0
 20
230.833778
 30
0.0
  0
LINE
  8
SIZE
  6
CONTINUOUS
 62
    30
 10
180.0
 20
0.0
 30
0.0
 11
316.326162
 21
0.0
 31
0.0
  0
LINE
  8
SIZE
  6
CONTINUOUS
 62
    30
 10
174.779984
 20
-10.0
 30
0.0
 11
316.326162
 21
-10.0
 31
0.0
  0
LINE
  8
SIZE
  6
CONTINUOUS
 62
    30
 10
296.326162
 20
12.0
 30
0.0
 11
296.326162
 21
24.0
 31
0.0
  0
LINE
  8
SIZE
  6
CONTINUOUS
 62
    30
 10
296.326162
 20
-22.0
 30
0.0
 11
296.326162
 21
-34.0
 31
0.0
  0
LINE
  8
SIZE
  6
CONTINUOUS
 62
    30
 10
296.326162
 20
157.851773
 30
0.0
 11
296.326162
 21
0.0
 31
0.0
  0
TEXT
  8
SIZE
  6
CONTINUOUS
 62
    30
 10
271.326162
 20
43.324916
 30
0.0
 40
64.0
  1
10
 50
90.0
 41
0.9
  7
STANDARD
 72
     1
 11
271.326162
 21
91.708916
 31
0.0
  0
LINE
  8
SIZE
  6
CONTINUOUS
 62
    30
 10
296.326162
 20
0.0
 30
0.0
 11
296.326162
 21
-10.0
 31
0.0
  0
LINE
  8
SIZE
  6
CONTINUOUS
 62
    30
 10
296.326162
 20
0.0
 30
0.0
 11
296.326162
 21
-10.0
 31
0.0
  0
CIRCLE
  8
SIZE
  6
CONTINUOUS
 62
    30
 10
296.326162
 20
0.0
 30
0.0
 40
6.0
  0
LINE
  8
SIZE
  6
CONTINUOUS
 62
    30
 10
296.326162
 20
0.0
 30
0.0
 11
296.326162
 21
12.0
 31
0.0
  0
CIRCLE
  8
SIZE
  6
CONTINUOUS
 62
    30
 10
296.326162
 20
-10.0
 30
0.0
 40
6.0
  0
LINE
  8
SIZE
  6
CONTINUOUS
 62
    30
 10
296.326162
 20
-10.0
 30
0.0
 11
296.326162
 21
-22.0
 31
0.0
  0
POINT
  8
DEFPOINTS
  6
CONTINUOUS
 62
    30
 10
160.0
 20
0.0
 30
0.0
  0
POINT
  8
DEFPOINTS
  6
CONTINUOUS
 62
    30
 10
154.779984
 20
-10.0
 30
0.0
  0
POINT
  8
DEFPOINTS
  6
CONTINUOUS
 62
    30
 10
296.326162
 20
-10.0
 30
0.0
  0
LINE
  8
SIZE
  6
CONTINUOUS
 62
    30
 10
174.779984
 20
-10.0
 30
0.0
 11
316.326162
 21
-10.0
 31
0.0
  0
LINE
  8
SIZE
  6
CONTINUOUS
 62
    30
 10
158.530395
 20
-20.0
 30
0.0
 11
316.326162
 21
-20.0
 31
0.0
  0
LINE
  8
SIZE
  6
CONTINUOUS
 62
    30
 10
296.326162
 20
2.0
 30
0.0
 11
296.326162
 21
14.0
 31
0.0
  0
LINE
  8
SIZE
  6
CONTINUOUS
 62
    30
 10
296.326162
 20
-32.0
 30
0.0
 11
296.326162
 21
-44.0
 31
0.0
  0
LINE
  8
SIZE
  6
CONTINUOUS
 62
    30
 10
296.326162
 20
-198.974051
 30
0.0
 11
296.326162
 21
-20.0
 31
0.0
  0
TEXT
  8
SIZE
  6
CONTINUOUS
 62
    30
 10
271.326162
 20
-181.215194
 30
0.0
 40
64.0
  1
10
 50
90.0
 41
0.9
  7
STANDARD
 72
     1
 11
271.326162
 21
-132.831194
 31
0.0
  0
LINE
  8
SIZE
  6
CONTINUOUS
 62
    30
 10
296.326162
 20
-10.0
 30
0.0
 11
296.326162
 21
-20.0
 31
0.0
  0
LINE
  8
SIZE
  6
CONTINUOUS
 62
    30
 10
296.326162
 20
-10.0
 30
0.0
 11
296.326162
 21
-20.0
 31
0.0
  0
CIRCLE
  8
SIZE
  6
CONTINUOUS
 62
    30
 10
296.326162
 20
-10.0
 30
0.0
 40
6.0
  0
LINE
  8
SIZE
  6
CONTINUOUS
 62
    30
 10
296.326162
 20
-10.0
 30
0.0
 11
296.326162
 21
2.0
 31
0.0
  0
CIRCLE
  8
SIZE
  6
CONTINUOUS
 62
    30
 10
296.326162
 20
-20.0
 30
0.0
 40
6.0
  0
LINE
  8
SIZE
  6
CONTINUOUS
 62
    30
 10
296.326162
 20
-20.0
 30
0.0
 11
296.326162
 21
-32.0
 31
0.0
  0
POINT
  8
DEFPOINTS
  6
CONTINUOUS
 62
    30
 10
154.779984
 20
-10.0
 30
0.0
  0
POINT
  8
DEFPOINTS
  6
CONTINUOUS
 62
    30
 10
138.530395
 20
-20.0
 30
0.0
  0
POINT
  8
DEFPOINTS
  6
CONTINUOUS
 62
    30
 10
296.326162
 20
-20.0
 30
0.0
  0
LINE
  8
SIZE
  6
CONTINUOUS
 62
    30
 10
180.0
 20
0.0
 30
0.0
 11
428.369575
 21
0.0
 31
0.0
  0
LINE
  8
SIZE
  6
CONTINUOUS
 62
    30
 10
129.652958
 20
-50.0
 30
0.0
 11
428.369575
 21
-50.0
 31
0.0
  0
LINE
  8
SIZE
  6
CONTINUOUS
 62
    30
 10
408.369575
 20
12.0
 30
0.0
 11
408.369575
 21
24.0
 31
0.0
  0
LINE
  8
SIZE
  6
CONTINUOUS
 62
    30
 10
408.369575
 20
-62.0
 30
0.0
 11
408.369575
 21
-74.0
 31
0.0
  0
LINE
  8
SIZE
  6
CONTINUOUS
 62
    30
 10
408.369575
 20
-223.842203
 30
0.0
 11
408.369575
 21
-50.0
 31
0.0
  0
TEXT
  8
SIZE
  6
CONTINUOUS
 62
    30
 10
383.369575
 20
-206.357631
 30
0.0
 40
64.0
  1
50
 50
90.0
 41
0.9
  7
STANDARD
 72
     1
 11
383.369575
 21
-152.213631
 31
0.0
  0
LINE
  8
SIZE
  6
CONTINUOUS
 62
    30
 10
408.369575
 20
0.0
 30
0.0
 11
408.369575
 21
-50.0
 31
0.0
  0
LINE
  8
SIZE
  6
CONTINUOUS
 62
    30
 10
408.369575
 20
0.0
 30
0.0
 11
408.369575
 21
-50.0
 31
0.0
  0
CIRCLE
  8
SIZE
  6
CONTINUOUS
 62
    30
 10
408.369575
 20
0.0
 30
0.0
 40
6.0
  0
LINE
  8
SIZE
  6
CONTINUOUS
 62
    30
 10
408.369575
 20
0.0
 30
0.0
 11
408.369575
 21
12.0
 31
0.0
  0
CIRCLE
  8
SIZE
  6
CONTINUOUS
 62
    30
 10
408.369575
 20
-50.0
 30
0.0
 40
6.0
  0
LINE
  8
SIZE
  6
CONTINUOUS
 62
    30
 10
408.369575
 20
-50.0
 30
0.0
 11
408.369575
 21
-62.0
 31
0.0
  0
POINT
  8
DEFPOINTS
  6
CONTINUOUS
 62
    30
 10
160.0
 20
0.0
 30
0.0
  0
POINT
  8
DEFPOINTS
  6
CONTINUOUS
 62
    30
 10
109.652958
 20
-50.0
 30
0.0
  0
POINT
  8
DEFPOINTS
  6
CONTINUOUS
 62
    30
 10
408.369575
 20
-50.0
 30
0.0
  0
LINE
  8
SIZE
  6
CONTINUOUS
 62
    30
 10
-180.0
 20
0.0
 30
0.0
 11
-311.54545
 21
0.0
 31
0.0
  0
LINE
  8
SIZE
  6
CONTINUOUS
 62
    30
 10
-72.143266
 20
-295.0
 30
0.0
 11
-311.54545
 21
-295.0
 31
0.0
  0
LINE
  8
SIZE
  6
CONTINUOUS
 62
    30
 10
-291.54545
 20
-12.0
 30
0.0
 11
-291.54545
 21
-283.0
 31
0.0
  0
CIRCLE
  8
SIZE
  6
CONTINUOUS
 62
    30
 10
-291.54545
 20
0.0
 30
0.0
 40
6.0
  0
LINE
  8
SIZE
  6
CONTINUOUS
 62
    30
 10
-291.54545
 20
0.0
 30
0.0
 11
-291.54545
 21
-12.0
 31
0.0
  0
CIRCLE
  8
SIZE
  6
CONTINUOUS
 62
    30
 10
-291.54545
 20
-295.0
 30
0.0
 40
6.0
  0
LINE
  8
SIZE
  6
CONTINUOUS
 62
    30
 10
-291.54545
 20
-295.0
 30
0.0
 11
-291.54545
 21
-283.0
 31
0.0
  0
TEXT
  8
SIZE
  6
CONTINUOUS
 62
    30
 10
-316.54545
 20
-227.852
 30
0.0
 40
64.0
  1
295
 50
90.0
 41
0.9
  7
STANDARD
 72
     1
 11
-316.54545
 21
-147.5
 31
0.0
  0
POINT
  8
DEFPOINTS
  6
CONTINUOUS
 62
    30
 10
-160.0
 20
0.0
 30
0.0
  0
POINT
  8
DEFPOINTS
  6
CONTINUOUS
 62
    30
 10
-52.143266
 20
-295.0
 30
0.0
  0
POINT
  8
DEFPOINTS
  6
CONTINUOUS
 62
    30
 10
-291.54545
 20
-295.0
 30
0.0
  0
LINE
  8
SIZE
  6
CONTINUOUS
 62
    30
 10
54.0
 20
-313.024932
 30
0.0
 11
54.0
 21
-453.853681
 31
0.0
  0
LINE
  8
SIZE
  6
CONTINUOUS
 62
    30
 10
-54.0
 20
-313.024932
 30
0.0
 11
-54.0
 21
-453.853681
 31
0.0
  0
LINE
  8
SIZE
  6
CONTINUOUS
 62
    30
 10
42.0
 20
-433.853681
 30
0.0
 11
-42.0
 21
-433.853681
 31
0.0
  0
LINE
  8
SIZE
  6
CONTINUOUS
 62
    30
 10
319.347927
 20
-433.853681
 30
0.0
 11
54.0
 21
-433.853681
 31
0.0
  0
TEXT
  8
SIZE
  6
CONTINUOUS
 62
    30
 10
89.991356
 20
-408.853681
 30
0.0
 40
64.0
  1
φ108
 41
0.9
  7
STANDARD
 72
     1
 11
199.719356
 21
-408.853681
 31
0.0
  0
CIRCLE
  8
SIZE
  6
CONTINUOUS
 62
    30
 10
54.0
 20
-433.853681
 30
0.0
 40
6.0
  0
LINE
  8
SIZE
  6
CONTINUOUS
 62
    30
 10
54.0
 20
-433.853681
 30
0.0
 11
42.0
 21
-433.853681
 31
0.0
  0
CIRCLE
  8
SIZE
  6
CONTINUOUS
 62
    30
 10
-54.0
 20
-433.853681
 30
0.0
 40
6.0
  0
LINE
  8
SIZE
  6
CONTINUOUS
 62
    30
 10
-54.0
 20
-433.853681
 30
0.0
 11
-42.0
 21
-433.853681
 31
0.0
  0
POINT
  8
DEFPOINTS
  6
CONTINUOUS
 62
    30
 10
54.0
 20
-293.024932
 30
0.0
  0
POINT
  8
DEFPOINTS
  6
CONTINUOUS
 62
    30
 10
-54.0
 20
-293.024932
 30
0.0
  0
POINT
  8
DEFPOINTS
  6
CONTINUOUS
 62
    30
 10
-54.0
 20
-433.853681
 30
0.0
  0
LINE
  8
OUTLINE
  6
CONTINUOUS
 62
     3
 10
-109.652958
 20
-46.0
 30
0.0
 11
109.652958
 21
-46.0
 31
0.0
  0
LINE
  8
OUTLINE
  6
CONTINUOUS
 62
     3
 10
-109.652958
 20
-50.0
 30
0.0
 11
109.652958
 21
-50.0
 31
0.0
  0
LINE
  8
OUTLINE
  6
CONTINUOUS
 62
     3
 10
109.652958
 20
-46.020077
 30
0.0
 11
0.0
 21
-46.020077
 31
0.0
  0
LINE
  8
OUTLINE
  6
CONTINUOUS
 62
     3
 10
0.0
 20
-142.005131
 30
0.0
 11
69.652958
 21
-142.005131
 31
0.0
  0
LINE
  8
OUTLINE
  6
CONTINUOUS
 62
     3
 10
-65.364711
 20
-167.005131
 30
0.0
 11
65.364711
 21
-167.005131
 31
0.0
  0
LINE
  8
OUTLINE
  6
CONTINUOUS
 62
     3
 10
-158.186567
 20
-4.99999
 30
0.0
 11
158.186567
 21
-4.99999
 31
0.0
  0
LINE
  8
OUTLINE
  6
CONTINUOUS
 62
     3
 10
-138.530395
 20
-20.0
 30
0.0
 11
138.530395
 21
-20.0
 31
0.0
  0
LINE
  8
OUTLINE
  6
CONTINUOUS
 62
     3
 10
-154.779984
 20
-10.0
 30
0.0
 11
154.779984
 21
-10.0
 31
0.0
  0
LINE
  8
OUTLINE
  6
CONTINUOUS
 62
     3
 10
-160.0
 20
0.0
 30
0.0
 11
160.0
 21
0.0
 31
0.0
  0
ARC
  8
OUTLINE
  6
CONTINUOUS
 62
     3
 10
-65.364711
 20
-102.005131
 30
0.0
 40
65.0
 50
180.0
 51
270.0
  0
ARC
  8
OUTLINE
  6
CONTINUOUS
 62
     3
 10
-69.652958
 20
-102.005131
 30
0.0
 40
40.0
 50
180.0
 51
270.0
  0
LINE
  8
OUTLINE
  6
CONTINUOUS
 62
     3
 10
-64.251552
 20
-167.005131
 30
0.0
 11
-64.251552
 21
-142.005131
 31
0.0
  0
LINE
  8
OUTLINE
  6
CONTINUOUS
 62
     3
 10
0.0
 20
-142.005131
 30
0.0
 11
-69.652958
 21
-142.005131
 31
0.0
  0
LINE
  8
OUTLINE
  6
CONTINUOUS
 62
     3
 10
-109.652958
 20
-26.605128
 30
0.0
 11
-109.652958
 21
-102.005131
 31
0.0
  0
LINE
  8
OUTLINE
  6
CONTINUOUS
 62
     3
 10
-130.364711
 20
-102.005131
 30
0.0
 11
-130.364711
 21
-23.005131
 31
0.0
  0
LINE
  8
OUTLINE
  6
CONTINUOUS
 62
     3
 10
-125.376851
 20
-23.005131
 30
0.0
 11
-125.376851
 21
-20.0
 31
0.0
  0
LINE
  8
OUTLINE
  6
CONTINUOUS
 62
     3
 10
-140.870425
 20
-12.500008
 30
0.0
 11
-140.870425
 21
-17.505125
 31
0.0
  0
ARC
  8
OUTLINE
  6
CONTINUOUS
 62
     3
 10
-143.370431
 20
-12.500008
 30
0.0
 40
2.499999
 50
0.0
 51
89.999964
  0
LINE
  8
OUTLINE
  6
CONTINUOUS
 62
     3
 10
-158.91602
 20
-4.528467
 30
0.0
 11
-160.0
 21
-2.121261
 31
0.0
  0
ARC
  8
OUTLINE
  6
CONTINUOUS
 62
     3
 10
-158.186567
 20
-4.19999
 30
0.0
 40
0.8
 50
204.24233
 51
270.0
  0
LINE
  8
OUTLINE
  6
CONTINUOUS
 62
     3
 10
-157.279984
 20
-7.5
 30
0.0
 11
-157.279984
 21
-4.99999
 31
0.0
  0
ARC
  8
OUTLINE
  6
CONTINUOUS
 62
     3
 10
-154.779984
 20
-7.5
 30
0.0
 40
2.5
 50
180.0
 51
270.0
  0
ARC
  8
OUTLINE
  6
CONTINUOUS
 62
     3
 10
-138.370418
 20
-17.505125
 30
0.0
 40
2.499999
 50
180.0
 51
266.331107
  0
LINE
  8
OUTLINE
  6
CONTINUOUS
 62
     3
 10
-160.0
 20
0.0
 30
0.0
 11
-160.0
 21
-2.121261
 31
0.0
  0
ARC
  8
OUTLINE
  6
CONTINUOUS
 62
     3
 10
-123.153996
 20
-34.681575
 30
0.0
 40
15.0
 50
334.167171
 51
359.999873
  0
LINE
  8
OUTLINE
  6
CONTINUOUS
 62
     3
 10
-108.154005
 20
-34.681575
 30
0.0
 11
-108.154005
 21
-30.005131
 31
0.0
  0
ARC
  8
OUTLINE
  6
CONTINUOUS
 62
     3
 10
-118.154005
 20
-30.005131
 30
0.0
 40
10.0
 50
0.0
 51
19.907619
  0
LINE
  8
OUTLINE
  6
CONTINUOUS
 62
     3
 10
-116.216892
 20
-26.605128
 30
0.0
 11
-116.216892
 21
-30.005113
 31
0.0
  0
LINE
  8
OUTLINE
  6
CONTINUOUS
 62
     3
 10
-115.716892
 20
-26.605128
 30
0.0
 11
-115.716892
 21
-30.005113
 31
0.0
  0
LINE
  8
OUTLINE
  6
CONTINUOUS
 62
     3
 10
-116.216892
 20
-30.005113
 30
0.0
 11
-110.216892
 21
-30.005113
 31
0.0
  0
LINE
  8
OUTLINE
  6
CONTINUOUS
 62
     3
 10
-110.216892
 20
-26.605128
 30
0.0
 11
-110.216892
 21
-30.005113
 31
0.0
  0
LINE
  8
OUTLINE
  6
CONTINUOUS
 62
     3
 10
-110.716892
 20
-26.605128
 30
0.0
 11
-110.716892
 21
-30.005113
 31
0.0
  0
LINE
  8
OUTLINE
  6
CONTINUOUS
 62
     3
 10
-118.116914
 20
-23.005131
 30
0.0
 11
-108.316871
 21
-23.005131
 31
0.0
  0
LINE
  8
OUTLINE
  6
CONTINUOUS
 62
     3
 10
-107.466892
 20
-26.105131
 30
0.0
 11
-107.466892
 21
-23.505118
 31
0.0
  0
LINE
  8
OUTLINE
  6
CONTINUOUS
 62
     3
 10
-107.466887
 20
-26.10514
 30
0.0
 11
-108.316888
 21
-26.60514
 31
0.0
  0
LINE
  8
OUTLINE
  6
CONTINUOUS
 62
     3
 10
-108.316894
 20
-26.605128
 30
0.0
 11
-118.116891
 21
-26.605128
 31
0.0
  0
LINE
  8
OUTLINE
  6
CONTINUOUS
 62
     3
 10
-118.116897
 20
-23.005121
 30
0.0
 11
-118.966898
 21
-23.505121
 31
0.0
  0
ARC
  8
OUTLINE
  6
CONTINUOUS
 62
     3
 10
-117.529392
 20
-25.321537
 30
0.0
 40
2.316406
 50
51.641985
 51
89.999999
  0
ARC
  8
OUTLINE
  6
CONTINUOUS
 62
     3
 10
-113.216892
 20
-31.520756
 30
0.0
 40
8.515625
 50
70.268348
 51
109.731596
  0
ARC
  8
OUTLINE
  6
CONTINUOUS
 62
     3
 10
-108.904392
 20
-25.321537
 30
0.0
 40
2.316406
 50
89.999999
 51
128.358014
  0
LINE
  8
OUTLINE
  6
CONTINUOUS
 62
     3
 10
-107.466887
 20
-23.505121
 30
0.0
 11
-108.316888
 21
-23.005121
 31
0.0
  0
LINE
  8
OUTLINE
  6
CONTINUOUS
 62
     3
 10
-118.116897
 20
-26.60514
 30
0.0
 11
-118.966898
 21
-26.10514
 31
0.0
  0
LINE
  8
OUTLINE
  6
CONTINUOUS
 62
     3
 10
-118.966892
 20
-26.105131
 30
0.0
 11
-118.966892
 21
-23.505118
 31
0.0
  0
LINE
  8
OUTLINE
  6
CONTINUOUS
 62
     3
 10
-116.091892
 20
-26.105131
 30
0.0
 11
-116.091892
 21
-23.505131
 31
0.0
  0
ARC
  8
OUTLINE
  6
CONTINUOUS
 62
     3
 10
-117.529392
 20
-24.288725
 30
0.0
 40
2.316406
 50
270.000018
 51
308.358053
  0
ARC
  8
OUTLINE
  6
CONTINUOUS
 62
     3
 10
-113.216892
 20
-18.089506
 30
0.0
 40
8.515625
 50
250.268421
 51
289.73167
  0
ARC
  8
OUTLINE
  6
CONTINUOUS
 62
     3
 10
-108.904392
 20
-24.288725
 30
0.0
 40
2.316406
 50
231.642003
 51
270.000018
  0
LINE
  8
OUTLINE
  6
CONTINUOUS
 62
     3
 10
-110.341893
 20
-26.105131
 30
0.0
 11
-110.341893
 21
-23.505131
 31
0.0
  0
ARC
  8
OUTLINE
  6
CONTINUOUS
 62
     3
 10
-127.364711
 20
-23.005131
 30
0.0
 40
3.0
 50
90.0
 51
180.0
  0
LINE
  8
OUTLINE
  6
CONTINUOUS
 62
     3
 10
-125.376851
 20
-23.005131
 30
0.0
 11
-94.566579
 21
-23.005131
 31
0.0
  0
LINE
  8
OUTLINE
  6
CONTINUOUS
 62
     3
 10
-94.566579
 20
-23.005131
 30
0.0
 11
-94.566579
 21
-20.005131
 31
0.0
  0
LINE
  8
OUTLINE
  6
CONTINUOUS
 62
     3
 10
-113.290472
 20
-23.005131
 30
0.0
 11
-113.290472
 21
-20.005131
 31
0.0
  0
ARC
  8
OUTLINE
  6
CONTINUOUS
 62
     3
 10
69.652958
 20
-102.005131
 30
0.0
 40
40.0
 50
270.0
 51
0.0
  0
ARC
  8
OUTLINE
  6
CONTINUOUS
 62
     3
 10
65.364711
 20
-102.005131
 30
0.0
 40
65.0
 50
270.0
 51
0.0
  0
LINE
  8
OUTLINE
  6
CONTINUOUS
 62
     3
 10
64.251552
 20
-167.005131
 30
0.0
 11
64.251552
 21
-142.005131
 31
0.0
  0
LINE
  8
OUTLINE
  6
CONTINUOUS
 62
     3
 10
130.364711
 20
-102.005131
 30
0.0
 11
130.364711
 21
-23.005131
 31
0.0
  0
LINE
  8
OUTLINE
  6
CONTINUOUS
 62
     3
 10
109.652958
 20
-26.605128
 30
0.0
 11
109.652958
 21
-102.005131
 31
0.0
  0
LINE
  8
OUTLINE
  6
CONTINUOUS
 62
     3
 10
125.376851
 20
-23.005131
 30
0.0
 11
125.376851
 21
-20.0
 31
0.0
  0
ARC
  8
OUTLINE
  6
CONTINUOUS
 62
     3
 10
154.779984
 20
-7.5
 30
0.0
 40
2.5
 50
270.0
 51
0.0
  0
ARC
  8
OUTLINE
  6
CONTINUOUS
 62
     3
 10
158.186567
 20
-4.19999
 30
0.0
 40
0.8
 50
270.0
 51
335.75767
  0
LINE
  8
OUTLINE
  6
CONTINUOUS
 62
     3
 10
157.279984
 20
-7.5
 30
0.0
 11
157.279984
 21
-4.99999
 31
0.0
  0
LINE
  8
OUTLINE
  6
CONTINUOUS
 62
     3
 10
158.91602
 20
-4.528467
 30
0.0
 11
160.0
 21
-2.121261
 31
0.0
  0
ARC
  8
OUTLINE
  6
CONTINUOUS
 62
     3
 10
118.154005
 20
-30.005131
 30
0.0
 40
10.0
 50
160.123111
 51
180.0
  0
LINE
  8
OUTLINE
  6
CONTINUOUS
 62
     3
 10
140.870425
 20
-12.500008
 30
0.0
 11
140.870425
 21
-17.505125
 31
0.0
  0
ARC
  8
OUTLINE
  6
CONTINUOUS
 62
     3
 10
138.370418
 20
-17.505125
 30
0.0
 40
2.499999
 50
273.668893
 51
0.0
  0
LINE
  8
OUTLINE
  6
CONTINUOUS
 62
     3
 10
108.154005
 20
-34.681575
 30
0.0
 11
108.154005
 21
-30.005131
 31
0.0
  0
ARC
  8
OUTLINE
  6
CONTINUOUS
 62
     3
 10
123.153996
 20
-34.681575
 30
0.0
 40
15.0
 50
180.000127
 51
205.832829
  0
LINE
  8
OUTLINE
  6
CONTINUOUS
 62
     3
 10
113.290472
 20
-23.005131
 30
0.0
 11
113.290472
 21
-20.005131
 31
0.0
  0
LINE
  8
OUTLINE
  6
CONTINUOUS
 62
     3
 10
94.566579
 20
-23.005131
 30
0.0
 11
94.566579
 21
-20.005131
 31
0.0
  0
LINE
  8
OUTLINE
  6
CONTINUOUS
 62
     3
 10
125.376851
 20
-23.005131
 30
0.0
 11
94.566579
 21
-23.005131
 31
0.0
  0
ARC
  8
OUTLINE
  6
CONTINUOUS
 62
     3
 10
127.364711
 20
-23.005131
 30
0.0
 40
3.0
 50
0.0
 51
90.0
  0
LINE
  8
OUTLINE
  6
CONTINUOUS
 62
     3
 10
110.341893
 20
-26.105131
 30
0.0
 11
110.341893
 21
-23.505131
 31
0.0
  0
ARC
  8
OUTLINE
  6
CONTINUOUS
 62
     3
 10
108.904392
 20
-24.288725
 30
0.0
 40
2.316406
 50
269.999982
 51
308.357997
  0
ARC
  8
OUTLINE
  6
CONTINUOUS
 62
     3
 10
113.216892
 20
-18.089506
 30
0.0
 40
8.515625
 50
250.26833
 51
289.731579
  0
ARC
  8
OUTLINE
  6
CONTINUOUS
 62
     3
 10
117.529392
 20
-24.288725
 30
0.0
 40
2.316406
 50
231.641947
 51
269.999982
  0
LINE
  8
OUTLINE
  6
CONTINUOUS
 62
     3
 10
116.091892
 20
-26.105131
 30
0.0
 11
116.091892
 21
-23.505131
 31
0.0
  0
LINE
  8
OUTLINE
  6
CONTINUOUS
 62
     3
 10
118.966892
 20
-26.105131
 30
0.0
 11
118.966892
 21
-23.505118
 31
0.0
  0
LINE
  8
OUTLINE
  6
CONTINUOUS
 62
     3
 10
118.116897
 20
-26.60514
 30
0.0
 11
118.966898
 21
-26.10514
 31
0.0
  0
LINE
  8
OUTLINE
  6
CONTINUOUS
 62
     3
 10
107.466887
 20
-23.505121
 30
0.0
 11
108.316888
 21
-23.005121
 31
0.0
  0
ARC
  8
OUTLINE
  6
CONTINUOUS
 62
     3
 10
108.904392
 20
-25.321537
 30
0.0
 40
2.316406
 50
51.641986
 51
90.000001
  0
ARC
  8
OUTLINE
  6
CONTINUOUS
 62
     3
 10
113.216892
 20
-31.520756
 30
0.0
 40
8.515625
 50
70.268404
 51
109.731652
  0
ARC
  8
OUTLINE
  6
CONTINUOUS
 62
     3
 10
117.529392
 20
-25.321537
 30
0.0
 40
2.316406
 50
90.000001
 51
128.358015
  0
LINE
  8
OUTLINE
  6
CONTINUOUS
 62
     3
 10
118.116897
 20
-23.005121
 30
0.0
 11
118.966898
 21
-23.505121
 31
0.0
  0
LINE
  8
OUTLINE
  6
CONTINUOUS
 62
     3
 10
108.316894
 20
-26.605128
 30
0.0
 11
118.116891
 21
-26.605128
 31
0.0
  0
LINE
  8
OUTLINE
  6
CONTINUOUS
 62
     3
 10
107.466887
 20
-26.10514
 30
0.0
 11
108.316888
 21
-26.60514
 31
0.0
  0
LINE
  8
OUTLINE
  6
CONTINUOUS
 62
     3
 10
107.466892
 20
-26.105131
 30
0.0
 11
107.466892
 21
-23.505118
 31
0.0
  0
LINE
  8
OUTLINE
  6
CONTINUOUS
 62
     3
 10
118.116914
 20
-23.005131
 30
0.0
 11
108.316871
 21
-23.005131
 31
0.0
  0
LINE
  8
OUTLINE
  6
CONTINUOUS
 62
     3
 10
110.716892
 20
-26.605128
 30
0.0
 11
110.716892
 21
-30.005113
 31
0.0
  0
LINE
  8
OUTLINE
  6
CONTINUOUS
 62
     3
 10
110.216892
 20
-26.605128
 30
0.0
 11
110.216892
 21
-30.005113
 31
0.0
  0
LINE
  8
OUTLINE
  6
CONTINUOUS
 62
     3
 10
116.216892
 20
-30.005113
 30
0.0
 11
110.216892
 21
-30.005113
 31
0.0
  0
LINE
  8
OUTLINE
  6
CONTINUOUS
 62
     3
 10
115.716892
 20
-26.605128
 30
0.0
 11
115.716892
 21
-30.005113
 31
0.0
  0
LINE
  8
OUTLINE
  6
CONTINUOUS
 62
     3
 10
116.216892
 20
-26.605128
 30
0.0
 11
116.216892
 21
-30.005113
 31
0.0
  0
ARC
  8
OUTLINE
  6
CONTINUOUS
 62
     3
 10
143.370431
 20
-12.500008
 30
0.0
 40
2.499999
 50
90.000036
 51
180.0
  0
LINE
  8
OUTLINE
  6
CONTINUOUS
 62
     3
 10
160.0
 20
0.0
 30
0.0
 11
160.0
 21
-2.121261
 31
0.0
  0
LINE
  8
BASIS
  6
DASHDOT
 62
     6
 39
50.0
 10
0.0
 20
53.881156
 30
0.0
 11
0.0
 21
-336.255899
 31
0.0
  0
ARC
  8
DETAIL
  6
CONTINUOUS
 62
     5
 10
-52.000098
 20
-293.005131
 30
0.0
 40
2.0
 50
180.567266
 51
265.895015
  0
LINE
  8
DETAIL
  6
CONTINUOUS
 62
     5
 10
-55.008346
 20
-191.181963
 30
0.0
 11
-54.0
 21
-293.024932
 31
0.0
  0
LINE
  8
DETAIL
  6
CONTINUOUS
 62
     5
 10
-52.998781
 20
-187.937949
 30
0.0
 11
-52.998781
 21
-284.005131
 31
0.0
  0
ARC
  8
DETAIL
  6
CONTINUOUS
 62
     5
 10
-52.962716
 20
-188.937949
 30
0.0
 40
1.0
 50
90.0
 51
154.918014
  0
ARC
  8
DETAIL
  6
CONTINUOUS
 62
     5
 10
-54.008395
 20
-191.172063
 30
0.0
 40
1.0
 50
154.918014
 51
180.567266
  0
LINE
  8
DETAIL
  6
CONTINUOUS
 62
     5
 10
-54.914097
 20
-190.748148
 30
0.0
 11
-53.868419
 21
-188.514034
 31
0.0
  0
LINE
  8
DETAIL
  6
CONTINUOUS
 62
     5
 10
-52.962716
 20
-187.937949
 30
0.0
 11
-52.05571
 21
-187.937949
 31
0.0
  0
ARC
  8
DETAIL
  6
CONTINUOUS
 62
     5
 10
-42.006819
 20
-286.005131
 30
0.0
 40
2.0
 50
12.679757
 51
90.0
  0
ARC
  8
DETAIL
  6
CONTINUOUS
 62
     5
 10
-37.131918
 20
-294.005131
 30
0.0
 40
1.0
 50
192.679757
 51
264.193431
  0
LINE
  8
DETAIL
  6
CONTINUOUS
 62
     5
 10
-40.055595
 20
-285.566128
 30
0.0
 11
-38.10753
 21
-294.224632
 31
0.0
  0
LINE
  8
DETAIL
  6
CONTINUOUS
 62
     5
 10
-45.480394
 20
-168.005131
 30
0.0
 11
-45.480394
 21
-167.005131
 31
0.0
  0
ARC
  8
DETAIL
  6
CONTINUOUS
 62
     5
 10
-32.056101
 20
-226.337756
 30
0.0
 40
7.0
 50
0.0
 51
78.075861
  0
LINE
  8
DETAIL
  6
CONTINUOUS
 62
     5
 10
-26.556101
 20
-229.005131
 30
0.0
 11
-25.056101
 21
-229.005131
 31
0.0
  0
ARC
  8
DETAIL
  6
CONTINUOUS
 62
     5
 10
-31.556101
 20
-225.10697
 30
0.0
 40
5.0
 50
0.0
 51
77.330238
  0
LINE
  8
DETAIL
  6
CONTINUOUS
 62
     5
 10
-37.051244
 20
-217.956432
 30
0.0
 11
-30.459445
 21
-220.228718
 31
0.0
  0
LINE
  8
DETAIL
  6
CONTINUOUS
 62
     5
 10
-34.324003
 20
-217.961975
 30
0.0
 11
-30.609786
 21
-219.488802
 31
0.0
  0
ARC
  8
DETAIL
  6
CONTINUOUS
 62
     5
 10
-45.492375
 20
-225.460333
 30
0.0
 40
4.0
 50
0.0
 51
72.728102
  0
LINE
  8
DETAIL
  6
CONTINUOUS
 62
     5
 10
-41.492375
 20
-229.005131
 30
0.0
 11
-41.492375
 21
-225.460333
 31
0.0
  0
LINE
  8
DETAIL
  6
CONTINUOUS
 62
     5
 10
-41.492375
 20
-229.005131
 30
0.0
 11
-39.992375
 21
-229.005131
 31
0.0
  0
ARC
  8
DETAIL
  6
CONTINUOUS
 62
     5
 10
-44.992375
 20
-224.568574
 30
0.0
 40
5.0
 50
0.0
 51
72.728102
  0
LINE
  8
DETAIL
  6
CONTINUOUS
 62
     5
 10
-48.255367
 20
-217.914944
 30
0.0
 11
-43.507842
 21
-219.794041
 31
0.0
  0
ARC
  8
DETAIL
  6
CONTINUOUS
 62
     5
 10
-47.661554
 20
-216.005131
 30
0.0
 40
2.0
 50
180.0
 51
252.728102
  0
ARC
  8
DETAIL
  6
CONTINUOUS
 62
     5
 10
-47.661554
 20
-211.005131
 30
0.0
 40
2.0
 50
90.0
 51
180.0
  0
LINE
  8
DETAIL
  6
CONTINUOUS
 62
     5
 10
-49.661554
 20
-216.005131
 30
0.0
 11
-49.661554
 21
-211.005131
 31
0.0
  0
ARC
  8
DETAIL
  6
CONTINUOUS
 62
     5
 10
-40.612581
 20
-211.005131
 30
0.0
 40
2.0
 50
0.0
 51
90.0
  0
LINE
  8
DETAIL
  6
CONTINUOUS
 62
     5
 10
-38.612581
 20
-216.005131
 30
0.0
 11
-38.612581
 21
-211.005131
 31
0.0
  0
ARC
  8
DETAIL
  6
CONTINUOUS
 62
     5
 10
-36.612581
 20
-216.005131
 30
0.0
 40
2.0
 50
180.0
 51
270.0
  0
ARC
  8
DETAIL
  6
CONTINUOUS
 62
     5
 10
-33.91077
 20
-216.005131
 30
0.0
 40
2.0
 50
180.0
 51
270.0
  0
LINE
  8
DETAIL
  6
CONTINUOUS
 62
     5
 10
-43.555502
 20
-210.505131
 30
0.0
 11
-43.555502
 21
-215.505131
 31
0.0
  0
LINE
  8
DETAIL
  6
CONTINUOUS
 62
     5
 10
-44.055502
 20
-209.005131
 30
0.0
 11
-44.055502
 21
-210.505131
 31
0.0
  0
LINE
  8
DETAIL
  6
CONTINUOUS
 62
     5
 10
-44.055502
 20
-210.505131
 30
0.0
 11
-38.67609
 21
-210.505131
 31
0.0
  0
LINE
  8
DETAIL
  6
CONTINUOUS
 62
     5
 10
-43.555502
 20
-215.505131
 30
0.0
 11
-38.612581
 21
-215.505131
 31
0.0
  0
LINE
  8
DETAIL
  6
CONTINUOUS
 62
     5
 10
-40.612581
 20
-209.005131
 30
0.0
 11
-47.661554
 21
-209.005131
 31
0.0
  0
LINE
  8
DETAIL
  6
CONTINUOUS
 62
     5
 10
-49.946429
 20
-219.483592
 30
0.0
 11
-44.304749
 21
-221.640707
 31
0.0
  0
LINE
  8
DETAIL
  6
CONTINUOUS
 62
     5
 10
-25.056101
 20
-229.005131
 30
0.0
 11
-25.056101
 21
-189.677407
 31
0.0
  0
LINE
  8
DETAIL
  6
CONTINUOUS
 62
     5
 10
-18.428355
 20
-183.459725
 30
0.0
 11
-24.712198
 21
-188.92273
 31
0.0
  0
ARC
  8
DETAIL
  6
CONTINUOUS
 62
     5
 10
-24.056101
 20
-189.677407
 30
0.0
 40
1.0
 50
131.002823
 51
180.0
  0
LINE
  8
OUTLINE
  6
CONTINUOUS
 62
     3
 10
-24.946237
 20
-189.221711
 30
0.0
 11
25.056101
 21
-189.221711
 31
0.0
  0
LINE
  8
OUTLINE
  6
CONTINUOUS
 62
     3
 10
47.980394
 20
-168.005131
 30
0.0
 11
-47.5
 21
-168.005131
 31
0.0
  0
LINE
  8
OUTLINE
  6
CONTINUOUS
 62
     3
 10
42.006819
 20
-284.005131
 30
0.0
 11
-52.998781
 21
-284.005131
 31
0.0
  0
LINE
  8
OUTLINE
  6
CONTINUOUS
 62
     3
 10
-52.143266
 20
-295.0
 30
0.0
 11
52.143266
 21
-295.0
 31
0.0
  0
LINE
  8
OUTLINE
  6
CONTINUOUS
 62
     3
 10
0.0
 20
-167.005131
 30
0.0
 11
-65.364711
 21
-167.005131
 31
0.0
  0
LINE
  8
OUTLINE
  6
CONTINUOUS
 62
     3
 10
-16.956602
 20
-184.005131
 30
0.0
 11
0.0
 21
-184.005131
 31
0.0
  0
LINE
  8
OUTLINE
  6
CONTINUOUS
 62
     3
 10
52.05571
 20
-199.005131
 30
0.0
 11
-51.956602
 21
-199.005131
 31
0.0
  0
LINE
  8
OUTLINE
  6
CONTINUOUS
 62
     3
 10
54.980394
 20
-194.005131
 30
0.0
 11
-51.956602
 21
-194.005131
 31
0.0
  0
LINE
  8
OUTLINE
  6
CONTINUOUS
 62
     3
 10
54.13881
 20
-279.005131
 30
0.0
 11
-54.13881
 21
-279.005131
 31
0.0
  0
LINE
  8
OUTLINE
  6
CONTINUOUS
 62
     3
 10
52.998781
 20
-187.937949
 30
0.0
 11
52.998781
 21
-284.005131
 31
0.0
  0
LINE
  8
OUTLINE
  6
CONTINUOUS
 62
     3
 10
55.008346
 20
-191.181963
 30
0.0
 11
54.0
 21
-293.024932
 31
0.0
  0
LINE
  8
OUTLINE
  6
CONTINUOUS
 62
     3
 10
26.556101
 20
-279.005131
 30
0.0
 11
26.556101
 21
-225.10697
 31
0.0
  0
LINE
  8
OUTLINE
  6
CONTINUOUS
 62
     3
 10
39.992375
 20
-279.005131
 30
0.0
 11
39.992375
 21
-224.568574
 31
0.0
  0
ARC
  8
OUTLINE
  6
CONTINUOUS
 62
     3
 10
42.006819
 20
-286.005131
 30
0.0
 40
2.0
 50
90.0
 51
167.320243
  0
LINE
  8
OUTLINE
  6
CONTINUOUS
 62
     3
 10
52.998781
 20
-284.005131
 30
0.0
 11
42.006819
 21
-284.005131
 31
0.0
  0
ARC
  8
OUTLINE
  6
CONTINUOUS
 62
     3
 10
37.131918
 20
-294.005131
 30
0.0
 40
1.0
 50
275.806569
 51
347.320243
  0
ARC
  8
OUTLINE
  6
CONTINUOUS
 62
     3
 10
52.000098
 20
-293.005131
 30
0.0
 40
2.0
 50
274.104985
 51
359.432734
  0
LINE
  8
OUTLINE
  6
CONTINUOUS
 62
     3
 10
40.055595
 20
-285.566128
 30
0.0
 11
38.10753
 21
-294.224632
 31
0.0
  0
LINE
  8
OUTLINE
  6
CONTINUOUS
 62
     3
 10
47.980394
 20
-168.005131
 30
0.0
 11
47.980394
 21
-177.005131
 31
0.0
  0
LINE
  8
OUTLINE
  6
CONTINUOUS
 62
     3
 10
45.480394
 20
-168.005131
 30
0.0
 11
45.480394
 21
-167.005131
 31
0.0
  0
LINE
  8
OUTLINE
  6
CONTINUOUS
 62
     3
 10
18.428355
 20
-183.459725
 30
0.0
 11
24.712198
 21
-188.92273
 31
0.0
  0
LINE
  8
OUTLINE
  6
CONTINUOUS
 62
     3
 10
52.05571
 20
-199.005131
 30
0.0
 11
52.05571
 21
-179.005131
 31
0.0
  0
LINE
  8
OUTLINE
  6
CONTINUOUS
 62
     3
 10
35.91077
 20
-216.005131
 30
0.0
 11
35.91077
 21
-177.005131
 31
0.0
  0
ARC
  8
OUTLINE
  6
CONTINUOUS
 62
     3
 10
24.056101
 20
-189.677407
 30
0.0
 40
1.0
 50
0.0
 51
48.997177
  0
ARC
  8
OUTLINE
  6
CONTINUOUS
 62
     3
 10
52.962716
 20
-188.937949
 30
0.0
 40
1.0
 50
25.081986
 51
90.0
  0
ARC
  8
OUTLINE
  6
CONTINUOUS
 62
     3
 10
54.008395
 20
-191.172063
 30
0.0
 40
1.0
 50
359.432734
 51
25.081986
  0
LINE
  8
OUTLINE
  6
CONTINUOUS
 62
     3
 10
54.914097
 20
-190.748148
 30
0.0
 11
53.868419
 21
-188.514034
 31
0.0
  0
LINE
  8
OUTLINE
  6
CONTINUOUS
 62
     3
 10
52.962716
 20
-187.937949
 30
0.0
 11
52.05571
 21
-187.937949
 31
0.0
  0
LINE
  8
OUTLINE
  6
CONTINUOUS
 62
     3
 10
25.056101
 20
-229.005131
 30
0.0
 11
25.056101
 21
-189.677407
 31
0.0
  0
ARC
  8
OUTLINE
  6
CONTINUOUS
 62
     3
 10
32.056101
 20
-226.337756
 30
0.0
 40
7.0
 50
101.924139
 51
180.0
  0
LINE
  8
OUTLINE
  6
CONTINUOUS
 62
     3
 10
26.556101
 20
-229.005131
 30
0.0
 11
25.056101
 21
-229.005131
 31
0.0
  0
ARC
  8
OUTLINE
  6
CONTINUOUS
 62
     3
 10
31.556101
 20
-225.10697
 30
0.0
 40
5.0
 50
102.669762
 51
180.0
  0
LINE
  8
OUTLINE
  6
CONTINUOUS
 62
     3
 10
37.051244
 20
-217.956432
 30
0.0
 11
30.459445
 21
-220.228718
 31
0.0
  0
LINE
  8
OUTLINE
  6
CONTINUOUS
 62
     3
 10
34.324003
 20
-217.961975
 30
0.0
 11
30.609786
 21
-219.488802
 31
0.0
  0
ARC
  8
OUTLINE
  6
CONTINUOUS
 62
     3
 10
49.05571
 20
-216.618873
 30
0.0
 40
3.0
 50
287.271898
 51
0.0
  0
ARC
  8
OUTLINE
  6
CONTINUOUS
 62
     3
 10
45.492375
 20
-225.460333
 30
0.0
 40
4.0
 50
107.271898
 51
180.0
  0
LINE
  8
OUTLINE
  6
CONTINUOUS
 62
     3
 10
41.492375
 20
-229.005131
 30
0.0
 11
41.492375
 21
-225.460333
 31
0.0
  0
LINE
  8
OUTLINE
  6
CONTINUOUS
 62
     3
 10
41.492375
 20
-229.005131
 30
0.0
 11
39.992375
 21
-229.005131
 31
0.0
  0
LINE
  8
OUTLINE
  6
CONTINUOUS
 62
     3
 10
49.946429
 20
-219.483592
 30
0.0
 11
44.304749
 21
-221.640707
 31
0.0
  0
ARC
  8
OUTLINE
  6
CONTINUOUS
 62
     3
 10
44.992375
 20
-224.568574
 30
0.0
 40
5.0
 50
107.271898
 51
180.0
  0
LINE
  8
OUTLINE
  6
CONTINUOUS
 62
     3
 10
48.255367
 20
-217.914944
 30
0.0
 11
43.507842
 21
-219.794041
 31
0.0
  0
ARC
  8
OUTLINE
  6
CONTINUOUS
 62
     3
 10
47.661554
 20
-216.005131
 30
0.0
 40
2.0
 50
287.271898
 51
0.0
  0
LINE
  8
OUTLINE
  6
CONTINUOUS
 62
     3
 10
54.980394
 20
-199.005131
 30
0.0
 11
52.05571
 21
-199.005131
 31
0.0
  0
ARC
  8
OUTLINE
  6
CONTINUOUS
 62
     3
 10
47.661554
 20
-211.005131
 30
0.0
 40
2.0
 50
0.0
 51
90.0
  0
LINE
  8
OUTLINE
  6
CONTINUOUS
 62
     3
 10
49.661554
 20
-216.005131
 30
0.0
 11
49.661554
 21
-211.005131
 31
0.0
  0
LINE
  8
OUTLINE
  6
CONTINUOUS
 62
     3
 10
52.05571
 20
-216.618873
 30
0.0
 11
52.05571
 21
-199.005131
 31
0.0
  0
ARC
  8
OUTLINE
  6
CONTINUOUS
 62
     3
 10
40.612581
 20
-211.005131
 30
0.0
 40
2.0
 50
90.0
 51
180.0
  0
LINE
  8
OUTLINE
  6
CONTINUOUS
 62
     3
 10
38.612581
 20
-216.005131
 30
0.0
 11
38.612581
 21
-211.005131
 31
0.0
  0
ARC
  8
OUTLINE
  6
CONTINUOUS
 62
     3
 10
36.612581
 20
-216.005131
 30
0.0
 40
2.0
 50
270.0
 51
0.0
  0
ARC
  8
OUTLINE
  6
CONTINUOUS
 62
     3
 10
33.91077
 20
-216.005131
 30
0.0
 40
2.0
 50
270.0
 51
0.0
  0
LINE
  8
OUTLINE
  6
CONTINUOUS
 62
     3
 10
43.555502
 20
-210.505131
 30
0.0
 11
43.555502
 21
-215.505131
 31
0.0
  0
LINE
  8
OUTLINE
  6
CONTINUOUS
 62
     3
 10
44.055502
 20
-209.005131
 30
0.0
 11
44.055502
 21
-210.505131
 31
0.0
  0
LINE
  8
OUTLINE
  6
CONTINUOUS
 62
     3
 10
44.055502
 20
-210.505131
 30
0.0
 11
38.67609
 21
-210.505131
 31
0.0
  0
LINE
  8
OUTLINE
  6
CONTINUOUS
 62
     3
 10
43.555502
 20
-215.505131
 30
0.0
 11
38.612581
 21
-215.505131
 31
0.0
  0
LINE
  8
OUTLINE
  6
CONTINUOUS
 62
     3
 10
40.612581
 20
-209.005131
 30
0.0
 11
47.661554
 21
-209.005131
 31
0.0
  0
LINE
  8
OUTLINE
  6
CONTINUOUS
 62
     3
 10
19.05571
 20
-182.005131
 30
0.0
 11
19.05571
 21
-179.005131
 31
0.0
  0
LINE
  8
OUTLINE
  6
CONTINUOUS
 62
     3
 10
46.05571
 20
-177.005131
 30
0.0
 11
21.05571
 21
-177.005131
 31
0.0
  0
ARC
  8
OUTLINE
  6
CONTINUOUS
 62
     3
 10
50.05571
 20
-179.005131
 30
0.0
 40
2.0
 50
0.0
 51
90.0
  0
LINE
  8
OUTLINE
  6
CONTINUOUS
 62
     3
 10
50.05571
 20
-177.005131
 30
0.0
 11
46.05571
 21
-177.005131
 31
0.0
  0
ARC
  8
OUTLINE
  6
CONTINUOUS
 62
     3
 10
17.05571
 20
-182.005131
 30
0.0
 40
2.0
 50
270.0
 51
0.0
  0
ARC
  8
OUTLINE
  6
CONTINUOUS
 62
     3
 10
21.05571
 20
-179.005131
 30
0.0
 40
2.0
 50
90.0
 51
180.0
  0
LINE
  8
OUTLINE
  6
CONTINUOUS
 62
     3
 10
17.05571
 20
-184.005131
 30
0.0
 11
0.0
 21
-184.005131
 31
0.0
  0
LINE
  8
OUTLINE
  6
CONTINUOUS
 62
     3
 10
-26.556101
 20
-225.10697
 30
0.0
 11
-26.556101
 21
-278.788551
 31
0.0
  0
LINE
  8
OUTLINE
  6
CONTINUOUS
 62
     3
 10
-39.992375
 20
-278.788551
 30
0.0
 11
-39.992375
 21
-224.568574
 31
0.0
  0
LINE
  8
OUTLINE
  6
CONTINUOUS
 62
     3
 10
-52.998781
 20
-187.937949
 30
0.0
 11
-52.998781
 21
-284.005131
 31
0.0
  0
LINE
  8
OUTLINE
  6
CONTINUOUS
 62
     3
 10
-55.008346
 20
-191.181963
 30
0.0
 11
-54.0
 21
-293.024932
 31
0.0
  0
LINE
  8
OUTLINE
  6
CONTINUOUS
 62
     3
 10
-40.055595
 20
-285.566128
 30
0.0
 11
-38.10753
 21
-294.224632
 31
0.0
  0
ARC
  8
OUTLINE
  6
CONTINUOUS
 62
     3
 10
-37.131918
 20
-294.005131
 30
0.0
 40
1.0
 50
192.679757
 51
264.193431
  0
ARC
  8
OUTLINE
  6
CONTINUOUS
 62
     3
 10
-42.006819
 20
-286.005131
 30
0.0
 40
2.0
 50
12.679757
 51
90.0
  0
ARC
  8
OUTLINE
  6
CONTINUOUS
 62
     3
 10
-52.000098
 20
-293.005131
 30
0.0
 40
2.0
 50
180.567266
 51
265.895015
  0
ARC
  8
OUTLINE
  6
CONTINUOUS
 62
     3
 10
-24.056101
 20
-189.677407
 30
0.0
 40
1.0
 50
131.002823
 51
180.0
  0
LINE
  8
OUTLINE
  6
CONTINUOUS
 62
     3
 10
-18.428355
 20
-183.459725
 30
0.0
 11
-24.712198
 21
-188.92273
 31
0.0
  0
LINE
  8
OUTLINE
  6
CONTINUOUS
 62
     3
 10
-25.056101
 20
-229.005131
 30
0.0
 11
-25.056101
 21
-189.677407
 31
0.0
  0
LINE
  8
OUTLINE
  6
CONTINUOUS
 62
     3
 10
-49.946429
 20
-219.483592
 30
0.0
 11
-44.304749
 21
-221.640707
 31
0.0
  0
LINE
  8
OUTLINE
  6
CONTINUOUS
 62
     3
 10
-40.612581
 20
-209.005131
 30
0.0
 11
-47.661554
 21
-209.005131
 31
0.0
  0
LINE
  8
OUTLINE
  6
CONTINUOUS
 62
     3
 10
-43.555502
 20
-215.505131
 30
0.0
 11
-38.612581
 21
-215.505131
 31
0.0
  0
LINE
  8
OUTLINE
  6
CONTINUOUS
 62
     3
 10
-44.055502
 20
-210.505131
 30
0.0
 11
-38.67609
 21
-210.505131
 31
0.0
  0
LINE
  8
OUTLINE
  6
CONTINUOUS
 62
     3
 10
-44.055502
 20
-209.005131
 30
0.0
 11
-44.055502
 21
-210.505131
 31
0.0
  0
LINE
  8
OUTLINE
  6
CONTINUOUS
 62
     3
 10
-43.555502
 20
-210.505131
 30
0.0
 11
-43.555502
 21
-215.505131
 31
0.0
  0
ARC
  8
OUTLINE
  6
CONTINUOUS
 62
     3
 10
-33.91077
 20
-216.005131
 30
0.0
 40
2.0
 50
180.0
 51
270.0
  0
ARC
  8
OUTLINE
  6
CONTINUOUS
 62
     3
 10
-36.612581
 20
-216.005131
 30
0.0
 40
2.0
 50
180.0
 51
270.0
  0
LINE
  8
OUTLINE
  6
CONTINUOUS
 62
     3
 10
-38.612581
 20
-216.005131
 30
0.0
 11
-38.612581
 21
-211.005131
 31
0.0
  0
ARC
  8
OUTLINE
  6
CONTINUOUS
 62
     3
 10
-40.612581
 20
-211.005131
 30
0.0
 40
2.0
 50
0.0
 51
90.0
  0
LINE
  8
OUTLINE
  6
CONTINUOUS
 62
     3
 10
-49.661554
 20
-216.005131
 30
0.0
 11
-49.661554
 21
-211.005131
 31
0.0
  0
ARC
  8
OUTLINE
  6
CONTINUOUS
 62
     3
 10
-47.661554
 20
-211.005131
 30
0.0
 40
2.0
 50
90.0
 51
180.0
  0
ARC
  8
OUTLINE
  6
CONTINUOUS
 62
     3
 10
-47.661554
 20
-216.005131
 30
0.0
 40
2.0
 50
180.0
 51
252.728102
  0
LINE
  8
OUTLINE
  6
CONTINUOUS
 62
     3
 10
-48.255367
 20
-217.914944
 30
0.0
 11
-43.507842
 21
-219.794041
 31
0.0
  0
ARC
  8
OUTLINE
  6
CONTINUOUS
 62
     3
 10
-44.992375
 20
-224.568574
 30
0.0
 40
5.0
 50
0.0
 51
72.728102
  0
LINE
  8
OUTLINE
  6
CONTINUOUS
 62
     3
 10
-41.492375
 20
-229.005131
 30
0.0
 11
-39.992375
 21
-229.005131
 31
0.0
  0
LINE
  8
OUTLINE
  6
CONTINUOUS
 62
     3
 10
-41.492375
 20
-229.005131
 30
0.0
 11
-41.492375
 21
-225.460333
 31
0.0
  0
ARC
  8
OUTLINE
  6
CONTINUOUS
 62
     3
 10
-45.492375
 20
-225.460333
 30
0.0
 40
4.0
 50
0.0
 51
72.728102
  0
LINE
  8
OUTLINE
  6
CONTINUOUS
 62
     3
 10
-34.324003
 20
-217.961975
 30
0.0
 11
-30.609786
 21
-219.488802
 31
0.0
  0
LINE
  8
OUTLINE
  6
CONTINUOUS
 62
     3
 10
-37.051244
 20
-217.956432
 30
0.0
 11
-30.459445
 21
-220.228718
 31
0.0
  0
ARC
  8
OUTLINE
  6
CONTINUOUS
 62
     3
 10
-31.556101
 20
-225.10697
 30
0.0
 40
5.0
 50
0.0
 51
77.330238
  0
LINE
  8
OUTLINE
  6
CONTINUOUS
 62
     3
 10
-26.556101
 20
-229.005131
 30
0.0
 11
-25.056101
 21
-229.005131
 31
0.0
  0
ARC
  8
OUTLINE
  6
CONTINUOUS
 62
     3
 10
-32.056101
 20
-226.337756
 30
0.0
 40
7.0
 50
0.0
 51
78.075861
  0
LINE
  8
OUTLINE
  6
CONTINUOUS
 62
     3
 10
-45.480394
 20
-168.005131
 30
0.0
 11
-45.480394
 21
-167.005131
 31
0.0
  0
LINE
  8
OUTLINE
  6
CONTINUOUS
 62
     3
 10
-47.5
 20
-168.005131
 30
0.0
 11
-47.5
 21
-177.005131
 31
0.0
  0
LINE
  8
OUTLINE
  6
CONTINUOUS
 62
     3
 10
-52.962716
 20
-187.937949
 30
0.0
 11
-52.05571
 21
-187.937949
 31
0.0
  0
LINE
  8
OUTLINE
  6
CONTINUOUS
 62
     3
 10
-54.914097
 20
-190.748148
 30
0.0
 11
-53.868419
 21
-188.514034
 31
0.0
  0
ARC
  8
OUTLINE
  6
CONTINUOUS
 62
     3
 10
-54.008395
 20
-191.172063
 30
0.0
 40
1.0
 50
154.918014
 51
180.567266
  0
ARC
  8
OUTLINE
  6
CONTINUOUS
 62
     3
 10
-52.962716
 20
-188.937949
 30
0.0
 40
1.0
 50
90.0
 51
154.918014
  0
LINE
  8
OUTLINE
  6
CONTINUOUS
 62
     3
 10
-51.956602
 20
-213.221711
 30
0.0
 11
-51.956602
 21
-179.005131
 31
0.0
  0
LINE
  8
OUTLINE
  6
CONTINUOUS
 62
     3
 10
-35.811662
 20
-216.005131
 30
0.0
 11
-35.811662
 21
-177.005131
 31
0.0
  0
ARC
  8
OUTLINE
  6
CONTINUOUS
 62
     3
 10
-48.956602
 20
-216.835453
 30
0.0
 40
3.0
 50
180.0
 51
252.728102
  0
LINE
  8
OUTLINE
  6
CONTINUOUS
 62
     3
 10
-51.956602
 20
-216.835453
 30
0.0
 11
-51.956602
 21
-213.221711
 31
0.0
  0
LINE
  8
OUTLINE
  6
CONTINUOUS
 62
     3
 10
-35.811662
 20
-216.221711
 30
0.0
 11
-35.811662
 21
-194.221711
 31
0.0
  0
LINE
  8
OUTLINE
  6
CONTINUOUS
 62
     3
 10
-49.956602
 20
-177.005131
 30
0.0
 11
-19.956602
 21
-177.005131
 31
0.0
  0
ARC
  8
OUTLINE
  6
CONTINUOUS
 62
     3
 10
-49.956602
 20
-179.005131
 30
0.0
 40
2.0
 50
90.0
 51
180.0
  0
LINE
  8
OUTLINE
  6
CONTINUOUS
 62
     3
 10
-18.956602
 20
-182.005131
 30
0.0
 11
-18.956602
 21
-178.005131
 31
0.0
  0
ARC
  8
OUTLINE
  6
CONTINUOUS
 62
     3
 10
-19.956602
 20
-178.005131
 30
0.0
 40
1.0
 50
0.0
 51
90.0
  0
ARC
  8
OUTLINE
  6
CONTINUOUS
 62
     3
 10
-16.956602
 20
-182.005131
 30
0.0
 40
2.0
 50
180.0
 51
270.0
  0
ARC
  8
DETAIL
  6
CONTINUOUS
 62
     5
 10
-8.281065
 20
-60.643295
 30
0.0
 40
2.961836
 50
221.480992
 51
270.0
  0
LINE
  8
DETAIL
  6
CONTINUOUS
 62
     5
 10
-10.5
 20
-62.605131
 30
0.0
 11
-10.5
 21
-50.020083
 31
0.0
  0
LINE
  8
DETAIL
  6
CONTINUOUS
 62
     5
 10
-6.0
 20
-66.005131
 30
0.0
 11
-6.0
 21
-77.005131
 31
0.0
  0
LINE
  8
DETAIL
  6
CONTINUOUS
 62
     5
 10
6.0
 20
-66.005131
 30
0.0
 11
-6.0
 21
-66.005131
 31
0.0
  0
ARC
  8
DETAIL
  6
CONTINUOUS
 62
     5
 10
27.0
 20
-84.618593
 30
0.0
 40
3.0
 50
180.0
 51
257.005383
  0
LINE
  8
DETAIL
  6
CONTINUOUS
 62
     5
 10
24.0
 20
-84.618593
 30
0.0
 11
24.0
 21
-79.005131
 31
0.0
  0
ARC
  8
DETAIL
  6
CONTINUOUS
 62
     5
 10
22.0
 20
-79.005131
 30
0.0
 40
2.0
 50
0.0
 51
90.0
  0
LINE
  8
DETAIL
  6
CONTINUOUS
 62
     5
 10
-10.5
 20
-61.918754
 30
0.0
 11
-11.446831
 21
-61.022658
 31
0.0
  0
ENDSEC
  0
EOF
