  0
SECTION
  2
HEADER
  9
$ACADVER
  1
AC1009
  9
$DWGCODEPAGE
  3
dos932
  9
$INSBASE
 10
0.0
 20
0.0
 30
0.0
  9
$EXTMIN
 10
-377.0507644012705
 20
-281.66197540897701
 30
-0.0015258207003583
  9
$EXTMAX
 10
1012.652367268509
 20
521.9879229809012
 30
0.0000000349246037
  9
$LIMMIN
 10
-2970.0
 20
-2100.0
  9
$LIMMAX
 10
2970.0
 20
2100.0
  9
$ORTHOMODE
 70
     1
  9
$REGENMODE
 70
     1
  9
$FILLMODE
 70
     1
  9
$QTEXTMODE
 70
     0
  9
$MIRRTEXT
 70
     0
  9
$LTSCALE
 40
20.0
  9
$ATTMODE
 70
     1
  9
$TEXTSIZE
 40
64.0
  9
$TRACEWID
 40
0.05
  9
$TEXTSTYLE
  7
STANDARD
  9
$CLAYER
  8
SIZE
  9
$CELTYPE
  6
CONTINUOUS
  9
$CECOLOR
 62
     7
  9
$DIMSCALE
 40
1.0
  9
$DIMASZ
 40
12.0
  9
$DIMEXO
 40
20.0
  9
$DIMDLI
 40
200.0
  9
$DIMRND
 40
0.0
  9
$DIMDLE
 40
0.0
  9
$DIMEXE
 40
20.0
  9
$DIMTP
 40
0.0
  9
$DIMTM
 40
0.0
  9
$DIMTXT
 40
64.0
  9
$DIMCEN
 40
0.09
  9
$DIMTSZ
 40
0.0
  9
$DIMTOL
 70
     0
  9
$DIMLIM
 70
     0
  9
$DIMTIH
 70
     0
  9
$DIMTOH
 70
     0
  9
$DIMSE1
 70
     0
  9
$DIMSE2
 70
     0
  9
$DIMTAD
 70
     1
  9
$DIMZIN
 70
     8
  9
$DIMBLK
  1

  9
$DIMASO
 70
     1
  9
$DIMSHO
 70
     0
  9
$DIMPOST
  1

  9
$DIMAPOST
  1

  9
$DIMALT
 70
     0
  9
$DIMALTD
 70
     2
  9
$DIMALTF
 40
25.399999999999999
  9
$DIMLFAC
 40
1.0
  9
$DIMTOFL
 70
     1
  9
$DIMTVP
 40
0.0
  9
$DIMTIX
 70
     1
  9
$DIMSOXD
 70
     0
  9
$DIMSAH
 70
     0
  9
$DIMBLK1
  1

  9
$DIMBLK2
  1

  9
$DIMSTYLE
  2
STANDARD
  9
$DIMCLRD
 70
     7
  9
$DIMCLRE
 70
     7
  9
$DIMCLRT
 70
     7
  9
$DIMTFAC
 40
1.0
  9
$DIMGAP
 40
25.0
  9
$LUNITS
 70
     2
  9
$LUPREC
 70
     4
  9
$SKETCHINC
 40
0.1
  9
$FILLETRAD
 40
3.0
  9
$AUNITS
 70
     1
  9
$AUPREC
 70
     3
  9
$MENU
  1
ACAD
  9
$ELEVATION
 40
0.0
  9
$PELEVATION
 40
0.0
  9
$THICKNESS
 40
0.0
  9
$LIMCHECK
 70
     0
  9
$CHAMFERA
 40
0.0
  9
$CHAMFERB
 40
0.0
  9
$SKPOLY
 70
     0
  9
$TDCREATE
 40
2453019.62301037
  9
$TDUPDATE
 40
2459362.653210116
  9
$TDINDWG
 40
1.7160692245
  9
$TDUSRTIMER
 40
1.7160692245
  9
$USRTIMER
 70
     1
  9
$ANGBASE
 50
0.0
  9
$ANGDIR
 70
     0
  9
$PDMODE
 70
     3
  9
$PDSIZE
 40
-2.0
  9
$PLINEWID
 40
0.0
  9
$SPLFRAME
 70
     0
  9
$SPLINETYPE
 70
     6
  9
$SPLINESEGS
 70
     8
  9
$SURFTAB1
 70
     6
  9
$SURFTAB2
 70
     6
  9
$SURFTYPE
 70
     6
  9
$SURFU
 70
     6
  9
$SURFV
 70
     6
  9
$UCSNAME
  2

  9
$UCSORG
 10
0.0
 20
0.0
 30
0.0
  9
$UCSXDIR
 10
1.0
 20
0.0
 30
0.0
  9
$UCSYDIR
 10
0.0
 20
1.0
 30
0.0
  9
$PUCSNAME
  2

  9
$PUCSORG
 10
0.0
 20
0.0
 30
0.0
  9
$PUCSXDIR
 10
1.0
 20
0.0
 30
0.0
  9
$PUCSYDIR
 10
0.0
 20
1.0
 30
0.0
  9
$USERI1
 70
     0
  9
$USERI2
 70
     0
  9
$USERI3
 70
     0
  9
$USERI4
 70
     0
  9
$USERI5
 70
     0
  9
$USERR1
 40
20.0
  9
$USERR2
 40
0.0
  9
$USERR3
 40
0.0
  9
$USERR4
 40
0.0
  9
$USERR5
 40
0.0
  9
$WORLDVIEW
 70
     1
  9
$SHADEDGE
 70
     3
  9
$SHADEDIF
 70
    70
  9
$TILEMODE
 70
     1
  9
$MAXACTVP
 70
    48
  9
$PINSBASE
 10
0.0
 20
0.0
 30
0.0
  9
$PLIMCHECK
 70
     0
  9
$PEXTMIN
 10
-100000000000000000000.0
 20
-100000000000000000000.0
 30
-100000000000000000000.0
  9
$PEXTMAX
 10
100000000000000000000.0
 20
100000000000000000000.0
 30
100000000000000000000.0
  9
$PLIMMIN
 10
0.0
 20
0.0
  9
$PLIMMAX
 10
12.0
 20
9.0
  9
$UNITMODE
 70
     0
  9
$VISRETAIN
 70
     0
  9
$PLINEGEN
 70
     0
  9
$PSLTSCALE
 70
     0
  9
$TREEDEPTH
 70
  3020
  9
$ATTDIA
 70
     0
  9
$ATTREQ
 70
     1
  9
$BLIPMODE
 70
     1
  9
$COORDS
 70
     1
  9
$DRAGMODE
 70
     2
  9
$OSMODE
 70
     0
  9
$HANDLING
 70
     0
  9
$HANDSEED
  5
FA68
  0
ENDSEC
  0
SECTION
  2
TABLES
  0
TABLE
  2
LTYPE
 70
     2
  0
LTYPE
  2
CONTINUOUS
 70
     0
  3
実線
 72
    65
 73
     0
 40
0.0
  0
LTYPE
  2
DASHDOT
 70
     0
  3
____ _ ____ _ ____ _ ____ _ ____ _ ____ _ ____
 72
    65
 73
     4
 40
5.5
 49
4.0
 49
-0.6
 49
0.3
 49
-0.6
  0
ENDTAB
  0
TABLE
  2
LAYER
 70
    12
  0
LAYER
  2
0
 70
     0
 62
     7
  6
CONTINUOUS
  0
LAYER
  2
BASIS
 70
     0
 62
     6
  6
DASHDOT
  0
LAYER
  2
OUTLINE
 70
     0
 62
     3
  6
CONTINUOUS
  0
LAYER
  2
DETAIL
 70
     0
 62
     5
  6
CONTINUOUS
  0
LAYER
  2
SIZE
 70
     0
 62
    30
  6
CONTINUOUS
  0
LAYER
  2
ARRANGE
 70
     0
 62
     1
  6
CONTINUOUS
  0
LAYER
  2
DEFPOINTS
 70
     0
 62
     7
  6
CONTINUOUS
  0
LAYER
  2
ETC
 70
     0
 62
    61
  6
CONTINUOUS
  0
LAYER
  2
FIX
 70
     0
 62
    11
  6
CONTINUOUS
  0
LAYER
  2
NOTE
 70
     0
 62
     4
  6
CONTINUOUS
  0
LAYER
  2
SERVICESPACE
 70
    64
 62
     2
  6
DASHDOT
  0
LAYER
  2
SYMBOLLINE
 70
    64
 62
    15
  6
CONTINUOUS
  0
ENDTAB
  0
TABLE
  2
STYLE
 70
     1
  0
STYLE
  2
STANDARD
 70
     0
 40
64.0
 41
0.9
 50
0.0
 71
     0
 42
64.0
  3
SIMPLEX.shx
  4
BIGFONT.shx
  0
ENDTAB
  0
TABLE
  2
APPID
 70
    20
  0
APPID
  2
ACAD
 70
     0
  0
APPID
  2
AUTOCAD_POSTSCRIPT_FIGURE
 70
     0
  0
APPID
  2
ACAD_EXEMPT_FROM_CAD_STANDARDS
 70
     0
  0
APPID
  2
ACAD_PSEXT
 70
     0
  0
APPID
  2
ACAUTHENVIRON
 70
     0
  0
APPID
  2
GENIUS_GENOENT_13
 70
     0
  0
APPID
  2
GENIUS_GENCFG_13
 70
     0
  0
APPID
  2
GENIUS_GENCFG0_13
 70
     0
  0
APPID
  2
GENIUS_GENCFG1_13
 70
     0
  0
APPID
  2
GENIUS_GENCFG2_13
 70
     0
  0
APPID
  2
GENIUS_GENCFG3_13
 70
     0
  0
APPID
  2
GENIUS_GENCFG4_13
 70
     0
  0
APPID
  2
GENIUS_GEVCFG0_13
 70
     0
  0
APPID
  2
CONTENTBLOCKICON
 70
     0
  0
APPID
  2
CONTENTBLOCKDESCRIPTION
 70
     0
  0
APPID
  2
ACAD_NAV_VCDISPLAY
 70
     0
  0
APPID
  2
ACAD_MLEADERVER
 70
     0
  0
APPID
  2
ACDBDYNAMICBLOCKTRUENAME
 70
     0
  0
APPID
  2
ACDBDYNAMICBLOCKGUID
 70
     0
  0
APPID
  2
ACAD_DSTYLE_DIMRADIAL_EXTENSION
 70
     0
  0
ENDTAB
  0
TABLE
  2
DIMSTYLE
 70
     1
  0
DIMSTYLE
  2
STANDARD
 70
     0
  3

  4

  5
_ORIGIN
  6

  7

 40
1.0
 41
12.0
 42
20.0
 43
200.0
 44
20.0
 45
0.0
 46
0.0
 47
0.0
 48
0.0
140
64.0
141
0.09
142
0.0
143
25.399999999999999
144
1.0
145
0.0
146
1.0
147
25.0
 71
     0
 72
     0
 73
     0
 74
     0
 75
     0
 76
     0
 77
     1
 78
     8
170
     0
171
     2
172
     1
173
     0
174
     1
175
     0
176
     7
177
     7
178
     7
  0
ENDTAB
  0
TABLE
  2
VIEW
 70
     1
  0
VIEW
  2
ALL
 70
     0
 40
4282.6198079999986
 10
0.0
 20
41.309904000000003
 41
5940.0
 11
0.0
 21
0.0
 31
1.0
 12
0.0
 22
0.0
 32
0.0
 42
50.0
 43
0.0
 44
0.0
 50
0.0
 71
     0
  0
ENDTAB
  0
TABLE
  2
UCS
 70
     0
  0
ENDTAB
  0
TABLE
  2
VPORT
 70
     1
  0
VPORT
  2
*ACTIVE
 70
     0
 10
0.0
 20
0.0
 11
1.0
 21
1.0
 12
317.91001786234489
 22
120.16297378596209
 13
0.0
 23
0.0
 14
1.0
 24
1.0
 15
0.0
 25
0.0
 16
0.0
 26
0.0
 36
1.0
 17
0.0
 27
0.0
 37
0.0
 40
809.03749547405619
 41
1.767337807606264
 42
50.0
 43
0.0
 44
0.0
 50
0.0
 51
0.0
 71
     0
 72
  1000
 73
     1
 74
     3
 75
     0
 76
     0
 77
     0
 78
     0
  0
ENDTAB
  0
ENDSEC
  0
SECTION
  2
BLOCKS
  0
BLOCK
  8
0
  2
_ORIGIN
 70
     0
 10
0.0
 20
0.0
 30
0.0
  3
_ORIGIN
  1
_ORIGIN
  0
CIRCLE
  8
SIZE
  6
CONTINUOUS
 62
    30
 10
0.0
 20
0.0
 30
0.0
 40
0.5
  0
LINE
  8
SIZE
  6
CONTINUOUS
 62
    30
 10
0.0
 20
0.0
 30
0.0
 11
-1.0
 21
0.0
 31
0.0
  0
ENDBLK
  8
0
  0
ENDSEC
  0
SECTION
  2
ENTITIES
  0
LINE
  8
DETAIL
  6
CONTINUOUS
 62
     5
 10
-66.0
 20
-160.00000000000011
 30
0.0
 11
-61.0
 21
-160.00000000000011
 31
0.0
  0
LINE
  8
DETAIL
  6
CONTINUOUS
 62
     5
 10
-0.0000000000009095
 20
-155.00520381999999
 30
0.0
 11
-1.5000000000009091
 21
-155.00520381999999
 31
0.0
  0
LINE
  8
DETAIL
  6
CONTINUOUS
 62
     5
 10
-61.0
 20
-155.00000000000011
 30
0.0
 11
-3.0000000000009091
 21
-155.00000000000011
 31
0.0
  0
LINE
  8
DETAIL
  6
CONTINUOUS
 62
     5
 10
-71.000000000011823
 20
-147.05391265519989
 30
0.0
 11
-74.000000000011823
 21
-147.05391265519989
 31
0.0
  0
LINE
  8
DETAIL
  6
CONTINUOUS
 62
     5
 10
-77.800000000014734
 20
-137.2769771772
 30
0.0
 11
-74.200000000012551
 21
-137.2769771772
 31
0.0
  0
LINE
  8
DETAIL
  6
CONTINUOUS
 62
     5
 10
-76.500000000011823
 20
-133.0975917442
 30
0.0
 11
-71.000000000011823
 21
-133.0975917442
 31
0.0
  0
LINE
  8
DETAIL
  6
CONTINUOUS
 62
     5
 10
-78.000000000015461
 20
-132.2769771772
 30
0.0
 11
-76.500000000011823
 21
-132.2769771772
 31
0.0
  0
LINE
  8
DETAIL
  6
CONTINUOUS
 62
     5
 10
-76.500000000011823
 20
-130.84264386919989
 30
0.0
 11
-142.89946229901309
 21
-130.84264386919989
 31
0.0
  0
LINE
  8
DETAIL
  6
CONTINUOUS
 62
     5
 10
-76.500000000011823
 20
-128.91428104019991
 30
0.0
 11
-142.89946229901309
 21
-128.91428104019991
 31
0.0
  0
LINE
  8
DETAIL
  6
CONTINUOUS
 62
     5
 10
-71.000000000011823
 20
-126.5975917442
 30
0.0
 11
-76.500000000011823
 21
-126.5975917442
 31
0.0
  0
LINE
  8
DETAIL
  6
CONTINUOUS
 62
     5
 10
-71.000000000011823
 20
-120.0975917441999
 30
0.0
 11
-76.500000000011823
 21
-120.0975917441999
 31
0.0
  0
LINE
  8
DETAIL
  6
CONTINUOUS
 62
     5
 10
-77.800000000014734
 20
-113.41133613620001
 30
0.0
 11
-74.200000000012551
 21
-113.41133613620001
 31
0.0
  0
LINE
  8
DETAIL
  6
CONTINUOUS
 62
     5
 10
-78.000000000015461
 20
-109.7631699621999
 30
0.0
 11
-142.89946229901309
 21
-109.7631699621999
 31
0.0
  0
LINE
  8
DETAIL
  6
CONTINUOUS
 62
     5
 10
-78.000000000015461
 20
-108.41133613620001
 30
0.0
 11
-74.000000000011823
 21
-108.41133613620001
 31
0.0
  0
LINE
  8
DETAIL
  6
CONTINUOUS
 62
     5
 10
-3.0000000000009091
 20
-97.257359313000052
 30
0.0
 11
-0.0000000000009095
 21
-97.257359313000052
 31
0.0
  0
LINE
  8
DETAIL
  6
CONTINUOUS
 62
     5
 10
-77.800000000014734
 20
-103.41133613620001
 30
0.0
 11
-74.200000000012551
 21
-103.41133613620001
 31
0.0
  0
LINE
  8
DETAIL
  6
CONTINUOUS
 62
     5
 10
-71.000000000011823
 20
-93.634400658199922
 30
0.0
 11
-74.000000000011823
 21
-93.634400658199922
 31
0.0
  0
LINE
  8
DETAIL
  6
CONTINUOUS
 62
     5
 10
-223.99995660799871
 20
42.0
 30
0.0
 11
-223.99995660799871
 21
-42.000000000000057
 31
0.0
  0
LINE
  8
DETAIL
  6
CONTINUOUS
 62
     5
 10
-71.0
 20
-84.125398162999886
 30
0.0
 11
-71.80000000000291
 21
-84.125398162999886
 31
0.0
  0
LINE
  8
DETAIL
  6
CONTINUOUS
 62
     5
 10
-71.80000000000291
 20
-83.399999999999977
 30
0.0
 11
-73.099999999998545
 21
-83.399999999999977
 31
0.0
  0
LINE
  8
DETAIL
  6
CONTINUOUS
 62
     5
 10
-215.49995660799871
 20
-50.700000000000053
 30
0.0
 11
-215.49995660799871
 21
-49.500000000000057
 31
0.0
  0
LINE
  8
DETAIL
  6
CONTINUOUS
 62
     5
 10
-213.49995660800229
 20
-61.700000000000053
 30
0.0
 11
-213.49995660800229
 21
-52.700000000000053
 31
0.0
  0
LINE
  8
DETAIL
  6
CONTINUOUS
 62
     5
 10
-210.69574564899989
 20
-61.700000000000053
 30
0.0
 11
-210.69574564899989
 21
-64.70632159400003
 31
0.0
  0
LINE
  8
DETAIL
  6
CONTINUOUS
 62
     5
 10
-207.89995660800381
 20
-43.942087733000051
 30
0.0
 11
-207.8999566080156
 21
-81.131875886199907
 31
0.0
  0
LINE
  8
DETAIL
  6
CONTINUOUS
 62
     5
 10
-207.89995660800381
 20
43.942087733999983
 30
0.0
 11
-207.89995660799559
 21
80.552659741199818
 31
0.0
  0
LINE
  8
DETAIL
  6
CONTINUOUS
 62
     5
 10
-198.28670795400279
 20
67.867859318999933
 30
0.0
 11
-201.17345930000189
 21
64.037637104000055
 31
0.0
  0
LINE
  8
DETAIL
  6
CONTINUOUS
 62
     5
 10
-198.28670795400279
 20
56.292143648999968
 30
0.0
 11
-201.17345930000189
 21
52.461921432999929
 31
0.0
  0
LINE
  8
DETAIL
  6
CONTINUOUS
 62
     5
 10
-100.0
 20
-74.499999999999972
 30
0.0
 11
-73.554338761001418
 21
-74.499999999999972
 31
0.0
  0
LINE
  8
DETAIL
  6
CONTINUOUS
 62
     5
 10
-72.600000000002183
 20
-73.999999999999972
 30
0.0
 11
-73.099999999998545
 21
-73.999999999999972
 31
0.0
  0
LINE
  8
DETAIL
  6
CONTINUOUS
 62
     5
 10
-71.80000000000291
 20
-73.199999999999903
 30
0.0
 11
-99.500000000003638
 21
-73.199999999999903
 31
0.0
  0
LINE
  8
DETAIL
  6
CONTINUOUS
 62
     5
 10
-73.799999999999272
 20
-66.19999999999996
 30
0.0
 11
-97.5
 21
-66.19999999999996
 31
0.0
  0
LINE
  8
DETAIL
  6
CONTINUOUS
 62
     5
 10
-201.17345930000189
 20
-63.955137620000073
 30
0.0
 11
-198.28670795400279
 21
-67.785359835999998
 31
0.0
  0
LINE
  8
DETAIL
  6
CONTINUOUS
 62
     5
 10
-201.17345930000189
 20
-52.464470974000051
 30
0.0
 11
-198.28670795400279
 21
-56.294693189000043
 31
0.0
  0
LINE
  8
DETAIL
  6
CONTINUOUS
 62
     5
 10
-201.17345930000189
 20
64.037637104000055
 30
0.0
 11
-201.17345930000189
 21
61.110756422999998
 31
0.0
  0
LINE
  8
DETAIL
  6
CONTINUOUS
 62
     5
 10
-201.17345930000189
 20
52.461921432999929
 30
0.0
 11
-201.17345930000189
 21
49.535040752999983
 31
0.0
  0
LINE
  8
DETAIL
  6
CONTINUOUS
 62
     5
 10
-201.17345930000189
 20
-63.955137620000073
 30
0.0
 11
-201.17345930000189
 21
-61.028256940000013
 31
0.0
  0
LINE
  8
DETAIL
  6
CONTINUOUS
 62
     5
 10
-201.17345930000189
 20
-52.464470974000051
 30
0.0
 11
-201.17345930000189
 21
-49.537590293000051
 31
0.0
  0
LINE
  8
DETAIL
  6
CONTINUOUS
 62
     5
 10
-189.62645391600199
 20
64.037637104000055
 30
0.0
 11
-189.62645391600199
 21
61.110756422999998
 31
0.0
  0
LINE
  8
DETAIL
  6
CONTINUOUS
 62
     5
 10
-189.62645391700241
 20
52.461921432999929
 30
0.0
 11
-189.62645391700241
 21
49.535040752999983
 31
0.0
  0
LINE
  8
DETAIL
  6
CONTINUOUS
 62
     5
 10
-189.62645391600199
 20
-63.955137620000073
 30
0.0
 11
-189.62645391600199
 21
-61.028256940000013
 31
0.0
  0
LINE
  8
DETAIL
  6
CONTINUOUS
 62
     5
 10
-189.62645391600199
 20
-52.464470974000051
 30
0.0
 11
-189.62645391600199
 21
-49.537590293000051
 31
0.0
  0
LINE
  8
DETAIL
  6
CONTINUOUS
 62
     5
 10
-183.39995660800011
 20
-42.081681361000051
 30
0.0
 11
-183.39995660800011
 21
-32.481681361000028
 31
0.0
  0
LINE
  8
DETAIL
  6
CONTINUOUS
 62
     5
 10
-183.39995660800011
 20
32.481681361999961
 30
0.0
 11
-183.39995660800011
 21
42.081681361999983
 31
0.0
  0
LINE
  8
DETAIL
  6
CONTINUOUS
 62
     5
 10
-182.89995660800381
 20
-44.801477001999899
 30
0.0
 11
-182.8999566080156
 21
-79.121013574199935
 31
0.0
  0
LINE
  8
DETAIL
  6
CONTINUOUS
 62
     5
 10
-182.89995660800381
 20
44.801477001999963
 30
0.0
 11
-182.89995660799559
 21
78.624296912199895
 31
0.0
  0
LINE
  8
DETAIL
  6
CONTINUOUS
 62
     5
 10
-179.39995660800381
 20
-68.825280414000076
 30
0.0
 11
-179.39995660800381
 21
68.825280413999963
 31
0.0
  0
LINE
  8
DETAIL
  6
CONTINUOUS
 62
     5
 10
-176.39995660800011
 20
-68.825280414000076
 30
0.0
 11
-176.39995660800011
 21
68.825280413999963
 31
0.0
  0
LINE
  8
DETAIL
  6
CONTINUOUS
 62
     5
 10
-182.89995660800381
 20
-72.682006072000036
 30
0.0
 11
-182.39995660800011
 21
-72.682006072000036
 31
0.0
  0
LINE
  8
DETAIL
  6
CONTINUOUS
 62
     5
 10
-182.89995660800381
 20
-70.753643242999999
 30
0.0
 11
-182.39995660800011
 21
-70.753643242999999
 31
0.0
  0
LINE
  8
DETAIL
  6
CONTINUOUS
 62
     5
 10
-198.28670795400279
 20
-67.785359835999998
 30
0.0
 11
-192.51320526200109
 21
-67.785359835999998
 31
0.0
  0
LINE
  8
DETAIL
  6
CONTINUOUS
 62
     5
 10
-176.39995660800011
 20
-63.500000000000057
 30
0.0
 11
-172.39995660800011
 21
-63.500000000000057
 31
0.0
  0
LINE
  8
DETAIL
  6
CONTINUOUS
 62
     5
 10
-172.39995660800011
 20
-62.050000000000011
 30
0.0
 11
-169.19995660800299
 21
-62.050000000000011
 31
0.0
  0
LINE
  8
DETAIL
  6
CONTINUOUS
 62
     5
 10
-207.89995660800381
 20
-61.700000000000053
 30
0.0
 11
-213.49982251499929
 21
-61.700000000000053
 31
0.0
  0
LINE
  8
DETAIL
  6
CONTINUOUS
 62
     5
 10
-172.39995660800011
 20
-63.49987784800004
 30
0.0
 11
-172.39995660800011
 21
63.499877847999983
 31
0.0
  0
LINE
  8
DETAIL
  6
CONTINUOUS
 62
     5
 10
-169.19995660800299
 20
62.050000000000011
 30
0.0
 11
-169.19995660800299
 21
53.949999999999989
 31
0.0
  0
LINE
  8
DETAIL
  6
CONTINUOUS
 62
     5
 10
-169.19995660800299
 20
-53.950000000000053
 30
0.0
 11
-169.19995660800299
 21
-62.050000000000011
 31
0.0
  0
LINE
  8
DETAIL
  6
CONTINUOUS
 62
     5
 10
-167.39995660800011
 20
42.281681361999972
 30
0.0
 11
-167.39995660800011
 21
32.281681361999972
 31
0.0
  0
LINE
  8
DETAIL
  6
CONTINUOUS
 62
     5
 10
-167.39995660800011
 20
-32.281681361000103
 30
0.0
 11
-167.39995660800011
 21
-42.281681360999983
 31
0.0
  0
LINE
  8
DETAIL
  6
CONTINUOUS
 62
     5
 10
-166.39995660800011
 20
59.494698137
 30
0.0
 11
-166.39995660800011
 21
56.505301863999932
 31
0.0
  0
LINE
  8
DETAIL
  6
CONTINUOUS
 62
     5
 10
-166.39995660800011
 20
-56.505301863
 30
0.0
 11
-166.39995660800011
 21
-59.494698136000011
 31
0.0
  0
LINE
  8
DETAIL
  6
CONTINUOUS
 62
     5
 10
-165.39995660800381
 20
40.281681361999972
 30
0.0
 11
-165.39995660800381
 21
34.281681361999972
 31
0.0
  0
LINE
  8
DETAIL
  6
CONTINUOUS
 62
     5
 10
-165.39995660800381
 20
-34.281681361000039
 30
0.0
 11
-165.39995660800381
 21
-40.281681361000039
 31
0.0
  0
LINE
  8
DETAIL
  6
CONTINUOUS
 62
     5
 10
-75.919443415993555
 20
133.52392909819989
 30
0.0
 11
-76.499999999991815
 21
132.5183755981999
 31
0.0
  0
LINE
  8
DETAIL
  6
CONTINUOUS
 62
     5
 10
-172.39995660800011
 20
-60.022437298000057
 30
0.0
 11
-169.19995660800299
 21
-60.022437298000057
 31
0.0
  0
LINE
  8
DETAIL
  6
CONTINUOUS
 62
     5
 10
-169.19995660800299
 20
-59.500000000000057
 30
0.0
 11
-166.39995660800011
 21
-59.500000000000057
 31
0.0
  0
LINE
  8
DETAIL
  6
CONTINUOUS
 62
     5
 10
-169.19995660800299
 20
-56.5
 30
0.0
 11
-166.39995660800011
 21
-56.5
 31
0.0
  0
LINE
  8
DETAIL
  6
CONTINUOUS
 62
     5
 10
-198.28670795400279
 20
-56.294693189000043
 30
0.0
 11
-192.51320526200109
 21
-56.294693189000043
 31
0.0
  0
LINE
  8
DETAIL
  6
CONTINUOUS
 62
     5
 10
-172.39995660800011
 20
-55.977562701000011
 30
0.0
 11
-169.19995660800299
 21
-55.977562701000011
 31
0.0
  0
LINE
  8
DETAIL
  6
CONTINUOUS
 62
     5
 10
-172.39995660800011
 20
-53.950000000000053
 30
0.0
 11
-169.19995660800299
 21
-53.950000000000053
 31
0.0
  0
LINE
  8
DETAIL
  6
CONTINUOUS
 62
     5
 10
-207.89995660800381
 20
-51.700000000000053
 30
0.0
 11
-214.49995660800229
 21
-51.700000000000053
 31
0.0
  0
LINE
  8
DETAIL
  6
CONTINUOUS
 62
     5
 10
-216.49995660799871
 20
-49.500000000000057
 30
0.0
 11
-207.89995660800381
 21
-49.500000000000057
 31
0.0
  0
LINE
  8
DETAIL
  6
CONTINUOUS
 62
     5
 10
-167.89995660800381
 20
-49.200000000000053
 30
0.0
 11
-135.39995660799829
 21
-49.200000000000053
 31
0.0
  0
LINE
  8
DETAIL
  6
CONTINUOUS
 62
     5
 10
-204.89995660800011
 20
-42.420844189000043
 30
0.0
 11
-185.89995660800011
 21
-42.420844189000043
 31
0.0
  0
LINE
  8
DETAIL
  6
CONTINUOUS
 62
     5
 10
-183.19995660799941
 20
-42.281681360999983
 30
0.0
 11
-179.59995660800089
 21
-42.281681360999983
 31
0.0
  0
LINE
  8
DETAIL
  6
CONTINUOUS
 62
     5
 10
-172.39995660800011
 20
-42.281681360999983
 30
0.0
 11
-167.39995660800011
 21
-42.281681360999983
 31
0.0
  0
LINE
  8
DETAIL
  6
CONTINUOUS
 62
     5
 10
-183.39995660800011
 20
-41.643954404000063
 30
0.0
 11
-204.89995660800011
 21
-41.643954404000063
 31
0.0
  0
LINE
  8
DETAIL
  6
CONTINUOUS
 62
     5
 10
-167.39995660800011
 20
-40.281681361000039
 30
0.0
 11
-165.39995660800381
 21
-40.281681361000039
 31
0.0
  0
LINE
  8
DETAIL
  6
CONTINUOUS
 62
     5
 10
-183.39995660800011
 20
-37.281681360999983
 30
0.0
 11
-179.39995660800381
 21
-37.281681360999983
 31
0.0
  0
LINE
  8
DETAIL
  6
CONTINUOUS
 62
     5
 10
-172.39995660800011
 20
-37.281681360999983
 30
0.0
 11
-167.39995660800381
 21
-37.281681360999983
 31
0.0
  0
LINE
  8
DETAIL
  6
CONTINUOUS
 62
     5
 10
-167.39995660800011
 20
-34.281681361000039
 30
0.0
 11
-165.39995660800381
 21
-34.281681361000039
 31
0.0
  0
LINE
  8
DETAIL
  6
CONTINUOUS
 62
     5
 10
-183.19995660799941
 20
-32.281681361000103
 30
0.0
 11
-179.59995660800089
 21
-32.281681361000103
 31
0.0
  0
LINE
  8
DETAIL
  6
CONTINUOUS
 62
     5
 10
-172.39995660800011
 20
-32.281681361000103
 30
0.0
 11
-167.39995660800011
 21
-32.281681361000103
 31
0.0
  0
LINE
  8
DETAIL
  6
CONTINUOUS
 62
     5
 10
-192.51320526200109
 20
-56.294693189000043
 30
0.0
 11
-189.62645391600199
 21
-52.464470974000051
 31
0.0
  0
LINE
  8
DETAIL
  6
CONTINUOUS
 62
     5
 10
-192.51320526200109
 20
-67.785359835999998
 30
0.0
 11
-189.62645391600199
 21
-63.955137620000073
 31
0.0
  0
LINE
  8
DETAIL
  6
CONTINUOUS
 62
     5
 10
-189.62645391700241
 20
52.461921432999929
 30
0.0
 11
-192.51320526200109
 21
56.292143648999968
 31
0.0
  0
LINE
  8
DETAIL
  6
CONTINUOUS
 62
     5
 10
-189.62645391600199
 20
64.037637104000055
 30
0.0
 11
-192.51320526200109
 21
67.867859318999933
 31
0.0
  0
LINE
  8
DETAIL
  6
CONTINUOUS
 62
     5
 10
-118.092179852003
 20
7.9820955779999849
 30
0.0
 11
-118.39995660799831
 21
11.5
 31
0.0
  0
LINE
  8
DETAIL
  6
CONTINUOUS
 62
     5
 10
-119.899956608002
 20
38.699999999999989
 30
0.0
 11
-119.899956608002
 21
-2.2563599806912289
 31
0.0
  0
LINE
  8
DETAIL
  6
CONTINUOUS
 62
     5
 10
-119.899956608002
 20
-22.603211068465331
 30
0.0
 11
-119.899956608002
 21
-38.700000000000053
 31
0.0
  0
LINE
  8
DETAIL
  6
CONTINUOUS
 62
     5
 10
-119.39995660799831
 20
-2.3595714594761148
 30
0.0
 11
-119.39995660799831
 21
11.5
 31
0.0
  0
LINE
  8
DETAIL
  6
CONTINUOUS
 62
     5
 10
-118.39995660799831
 20
-2.9428356262040438
 30
0.0
 11
-118.39995660799831
 21
11.5
 31
0.0
  0
LINE
  8
DETAIL
  6
CONTINUOUS
 62
     5
 10
-115.8999566079992
 20
-4.7659228800673654
 30
0.0
 11
-115.89995660799831
 21
6.4994829449999543
 31
0.0
  0
LINE
  8
DETAIL
  6
CONTINUOUS
 62
     5
 10
-115.5968227260246
 20
-5.0
 30
0.0
 11
-106.0
 21
-5.0
 31
0.0
  0
LINE
  8
DETAIL
  6
CONTINUOUS
 62
     5
 10
-61.0
 20
-0.5
 30
0.0
 11
-0.0000000000009095
 21
-0.5
 31
0.0
  0
LINE
  8
BASIS
  6
DASHDOT
 62
     6
 10
-239.8253001030007
 20
0.0
 30
0.0
 11
15.97904075300085
 21
0.0
 31
0.0
  0
LINE
  8
DETAIL
  6
CONTINUOUS
 62
     5
 10
-61.0
 20
0.5
 30
0.0
 11
-0.0000000000009095
 21
0.5
 31
0.0
  0
LINE
  8
DETAIL
  6
CONTINUOUS
 62
     5
 10
-105.9999999999918
 20
109.2664532991998
 30
0.0
 11
-106.0000000000118
 21
-109.7631699621999
 31
0.0
  0
LINE
  8
DETAIL
  6
CONTINUOUS
 62
     5
 10
-105.1999999999925
 20
109.2664532991998
 30
0.0
 11
-105.20000000001259
 21
-109.7631699621999
 31
0.0
  0
LINE
  8
DETAIL
  6
CONTINUOUS
 62
     5
 10
-100.7999999999993
 20
-71.899999999999949
 30
0.0
 11
-100.80000000000381
 21
22.900000000000031
 31
0.0
  0
LINE
  8
DETAIL
  6
CONTINUOUS
 62
     5
 10
-100.0000000000045
 20
25.5
 30
0.0
 11
-100.0000000000045
 21
24.09985443699998
 31
0.0
  0
LINE
  8
DETAIL
  6
CONTINUOUS
 62
     5
 10
-100.0
 20
-73.099854436999948
 30
0.0
 11
-100.0
 21
-74.499999999999972
 31
0.0
  0
LINE
  8
DETAIL
  6
CONTINUOUS
 62
     5
 10
-99.500000000003638
 20
-68.199999999999903
 30
0.0
 11
-99.500000000003638
 21
-73.199999999999903
 31
0.0
  0
LINE
  8
DETAIL
  6
CONTINUOUS
 62
     5
 10
-99.500000000008185
 20
19.200000000000049
 30
0.0
 11
-99.500000000008185
 21
24.200000000000049
 31
0.0
  0
LINE
  8
DETAIL
  6
CONTINUOUS
 62
     5
 10
-119.899956608002
 20
5.0
 30
0.0
 11
-119.39995660799831
 21
5.0
 31
0.0
  0
LINE
  8
DETAIL
  6
CONTINUOUS
 62
     5
 10
-115.89995660799831
 20
5.0
 30
0.0
 11
-106.0
 21
5.0
 31
0.0
  0
LINE
  8
DETAIL
  6
CONTINUOUS
 62
     5
 10
-118.39995660799831
 20
11.5
 30
0.0
 11
-119.39995660799831
 21
11.5
 31
0.0
  0
LINE
  8
DETAIL
  6
CONTINUOUS
 62
     5
 10
-115.89995660799831
 20
6.5
 30
0.0
 11
-116.80664745600011
 21
6.6274270889999229
 31
0.0
  0
LINE
  8
DETAIL
  6
CONTINUOUS
 62
     5
 10
-73.80000000000382
 20
17.200000000000049
 30
0.0
 11
-97.500000000004547
 21
17.200000000000049
 31
0.0
  0
LINE
  8
DETAIL
  6
CONTINUOUS
 62
     5
 10
-71.000000000004547
 20
23.125398163999989
 30
0.0
 11
-71.800000000007458
 21
23.125398163999989
 31
0.0
  0
LINE
  8
DETAIL
  6
CONTINUOUS
 62
     5
 10
-71.800000000007458
 20
24.200000000000049
 30
0.0
 11
-99.500000000008185
 21
24.200000000000049
 31
0.0
  0
LINE
  8
DETAIL
  6
CONTINUOUS
 62
     5
 10
-72.60000000000673
 20
25.00000000000006
 30
0.0
 11
-73.100000000003092
 21
25.00000000000006
 31
0.0
  0
LINE
  8
DETAIL
  6
CONTINUOUS
 62
     5
 10
-100.0000000000045
 20
25.5
 30
0.0
 11
-73.554338761005965
 21
25.5
 31
0.0
  0
LINE
  8
DETAIL
  6
CONTINUOUS
 62
     5
 10
-183.19995660799941
 20
32.281681361999972
 30
0.0
 11
-179.59995660800089
 21
32.281681361999972
 31
0.0
  0
LINE
  8
DETAIL
  6
CONTINUOUS
 62
     5
 10
-172.39995660800011
 20
32.281681361999972
 30
0.0
 11
-167.39995660800011
 21
32.281681361999972
 31
0.0
  0
LINE
  8
DETAIL
  6
CONTINUOUS
 62
     5
 10
-78.000000000015461
 20
-137.07697717719989
 30
0.0
 11
-78.000000000015461
 21
-130.84264386919989
 31
0.0
  0
LINE
  8
DETAIL
  6
CONTINUOUS
 62
     5
 10
-78.000000000015461
 20
-113.2113361361999
 30
0.0
 11
-78.000000000015461
 21
-103.6113361361999
 31
0.0
  0
LINE
  8
DETAIL
  6
CONTINUOUS
 62
     5
 10
-77.999999999995453
 20
130.34592720619989
 30
0.0
 11
-77.999999999995453
 21
136.4977610322
 31
0.0
  0
LINE
  8
DETAIL
  6
CONTINUOUS
 62
     5
 10
-76.500000000011823
 20
-133.0975917442
 30
0.0
 11
-76.500000000011823
 21
-120.0975917441999
 31
0.0
  0
LINE
  8
DETAIL
  6
CONTINUOUS
 62
     5
 10
-76.499999999991815
 20
119.5187074812
 30
0.0
 11
-76.499999999991815
 21
132.5180437161998
 31
0.0
  0
LINE
  8
DETAIL
  6
CONTINUOUS
 62
     5
 10
-74.000000000011823
 20
-147.05391265519989
 30
0.0
 11
-74.000000000011823
 21
-133.0975917442
 31
0.0
  0
LINE
  8
DETAIL
  6
CONTINUOUS
 62
     5
 10
-74.000000000011823
 20
-120.0975917441999
 30
0.0
 11
-74.000000000011823
 21
-93.634400658199922
 31
0.0
  0
LINE
  8
DETAIL
  6
CONTINUOUS
 62
     5
 10
-73.999999999991815
 20
133.52392909819989
 30
0.0
 11
-73.999999999991815
 21
146.4746965102
 31
0.0
  0
LINE
  8
DETAIL
  6
CONTINUOUS
 62
     5
 10
-73.100000000003092
 20
34.400000000000027
 30
0.0
 11
-73.100000000003092
 21
25.00000000000006
 31
0.0
  0
LINE
  8
DETAIL
  6
CONTINUOUS
 62
     5
 10
-73.099999999998545
 20
-73.999999999999972
 30
0.0
 11
-73.099999999998545
 21
-83.399999999999977
 31
0.0
  0
LINE
  8
DETAIL
  6
CONTINUOUS
 62
     5
 10
-72.600000000002183
 20
-83.399999999999977
 30
0.0
 11
-72.600000000002183
 21
-73.69999999999996
 31
0.0
  0
LINE
  8
DETAIL
  6
CONTINUOUS
 62
     5
 10
-72.60000000000673
 20
24.700000000000049
 30
0.0
 11
-72.60000000000673
 21
34.400000000000027
 31
0.0
  0
LINE
  8
DETAIL
  6
CONTINUOUS
 62
     5
 10
-71.80000000000291
 20
-84.125398162999886
 30
0.0
 11
-71.800000000007458
 21
35.125398163999989
 31
0.0
  0
LINE
  8
DETAIL
  6
CONTINUOUS
 62
     5
 10
-71.0
 20
-155.00000000000011
 30
0.0
 11
-71.0
 21
155.0
 31
0.0
  0
LINE
  8
DETAIL
  6
CONTINUOUS
 62
     5
 10
-167.39995660800011
 20
34.281681361999972
 30
0.0
 11
-165.39995660800381
 21
34.281681361999972
 31
0.0
  0
LINE
  8
DETAIL
  6
CONTINUOUS
 62
     5
 10
-183.39995660800011
 20
37.281681361999972
 30
0.0
 11
-179.39995660800381
 21
37.281681361999972
 31
0.0
  0
LINE
  8
DETAIL
  6
CONTINUOUS
 62
     5
 10
-172.39995660800011
 20
37.281681361999972
 30
0.0
 11
-167.39995660800011
 21
37.281681361999972
 31
0.0
  0
LINE
  8
DETAIL
  6
CONTINUOUS
 62
     5
 10
-73.100000000003092
 20
34.400000000000027
 30
0.0
 11
-71.800000000007458
 21
34.400000000000027
 31
0.0
  0
LINE
  8
DETAIL
  6
CONTINUOUS
 62
     5
 10
-71.800000000007458
 20
35.125398163999989
 30
0.0
 11
-71.000000000004547
 21
35.125398163999989
 31
0.0
  0
LINE
  8
DETAIL
  6
CONTINUOUS
 62
     5
 10
-167.39995660800011
 20
40.281681361999972
 30
0.0
 11
-165.39995660800381
 21
40.281681361999972
 31
0.0
  0
LINE
  8
DETAIL
  6
CONTINUOUS
 62
     5
 10
-183.39995660800011
 20
41.643954405000038
 30
0.0
 11
-204.89995660800011
 21
41.643954405000038
 31
0.0
  0
LINE
  8
DETAIL
  6
CONTINUOUS
 62
     5
 10
-183.19995660799941
 20
42.281681361999972
 30
0.0
 11
-179.59995660800089
 21
42.281681361999972
 31
0.0
  0
LINE
  8
DETAIL
  6
CONTINUOUS
 62
     5
 10
-172.39995660800011
 20
42.281681361999972
 30
0.0
 11
-167.39995660800011
 21
42.281681361999972
 31
0.0
  0
LINE
  8
DETAIL
  6
CONTINUOUS
 62
     5
 10
-204.89995660800011
 20
42.503343672999961
 30
0.0
 11
-185.89995660800011
 21
42.503343672999961
 31
0.0
  0
LINE
  8
DETAIL
  6
CONTINUOUS
 62
     5
 10
-216.49995660799871
 20
49.5
 30
0.0
 11
-207.89995660800381
 21
49.5
 31
0.0
  0
LINE
  8
DETAIL
  6
CONTINUOUS
 62
     5
 10
-167.89995660800381
 20
49.199999999999989
 30
0.0
 11
-135.39995660799829
 21
49.199999999999989
 31
0.0
  0
LINE
  8
DETAIL
  6
CONTINUOUS
 62
     5
 10
-61.0
 20
-160.00000000000011
 30
0.0
 11
-61.0
 21
160.0
 31
0.0
  0
LINE
  8
DETAIL
  6
CONTINUOUS
 62
     5
 10
-172.39995660800011
 20
53.949999999999989
 30
0.0
 11
-169.19995660800299
 21
53.949999999999989
 31
0.0
  0
LINE
  8
DETAIL
  6
CONTINUOUS
 62
     5
 10
-172.39995660800011
 20
55.977562702
 30
0.0
 11
-169.19995660800299
 21
55.977562702
 31
0.0
  0
LINE
  8
DETAIL
  6
CONTINUOUS
 62
     5
 10
-192.51320526200109
 20
56.292143648999968
 30
0.0
 11
-198.28670795400279
 21
56.292143648999968
 31
0.0
  0
LINE
  8
DETAIL
  6
CONTINUOUS
 62
     5
 10
-169.19995660800299
 20
56.5
 30
0.0
 11
-166.39995660800011
 21
56.5
 31
0.0
  0
LINE
  8
DETAIL
  6
CONTINUOUS
 62
     5
 10
-169.19995660800299
 20
59.5
 30
0.0
 11
-166.39995660800011
 21
59.5
 31
0.0
  0
LINE
  8
DETAIL
  6
CONTINUOUS
 62
     5
 10
-172.39995660800011
 20
60.022437298999989
 30
0.0
 11
-169.19995660800299
 21
60.022437298999989
 31
0.0
  0
LINE
  8
DETAIL
  6
CONTINUOUS
 62
     5
 10
-172.39995660800011
 20
62.050000000000011
 30
0.0
 11
-169.19995660800299
 21
62.050000000000011
 31
0.0
  0
LINE
  8
DETAIL
  6
CONTINUOUS
 62
     5
 10
-176.39995660800011
 20
63.5
 30
0.0
 11
-172.39995660800011
 21
63.5
 31
0.0
  0
LINE
  8
DETAIL
  6
CONTINUOUS
 62
     5
 10
-192.51320526200109
 20
67.867859318999933
 30
0.0
 11
-198.28670795400279
 21
67.867859318999933
 31
0.0
  0
LINE
  8
DETAIL
  6
CONTINUOUS
 62
     5
 10
-182.89995660800381
 20
70.753643242999942
 30
0.0
 11
-182.39995660800011
 21
70.753643242999942
 31
0.0
  0
LINE
  8
DETAIL
  6
CONTINUOUS
 62
     5
 10
-182.89995660800381
 20
72.682006071999979
 30
0.0
 11
-182.39995660800011
 21
72.682006071999979
 31
0.0
  0
LINE
  8
DETAIL
  6
CONTINUOUS
 62
     5
 10
-3.0000000000009091
 20
-155.00000000000011
 30
0.0
 11
-3.0000000000009091
 21
-153.94454364800009
 31
0.0
  0
LINE
  8
DETAIL
  6
CONTINUOUS
 62
     5
 10
-3.0000000000009091
 20
-100.055456351
 30
0.0
 11
-3.0000000000009091
 21
-97.257359313000052
 31
0.0
  0
LINE
  8
DETAIL
  6
CONTINUOUS
 62
     5
 10
-3.0000000000009091
 20
97.257359313000052
 30
0.0
 11
-3.0000000000009091
 21
100.05545635199999
 31
0.0
  0
LINE
  8
DETAIL
  6
CONTINUOUS
 62
     5
 10
-3.0000000000009091
 20
153.944543649
 30
0.0
 11
-3.0000000000009091
 21
155.0
 31
0.0
  0
LINE
  8
DETAIL
  6
CONTINUOUS
 62
     5
 10
-2.0000000000009091
 20
0.5
 30
0.0
 11
-2.0000000000009091
 21
-0.5
 31
0.0
  0
LINE
  8
DETAIL
  6
CONTINUOUS
 62
     5
 10
-1.5000000000009091
 20
-101.1161165230001
 30
0.0
 11
-1.5000000000009091
 21
-155.00520381999999
 31
0.0
  0
LINE
  8
DETAIL
  6
CONTINUOUS
 62
     5
 10
-1.5000000000009091
 20
101.11611652399991
 30
0.0
 11
-1.5000000000009091
 21
155.00520381999991
 31
0.0
  0
LINE
  8
DETAIL
  6
CONTINUOUS
 62
     5
 10
-0.0000000000009095
 20
155.00520381999991
 30
0.0
 11
-0.0000000000009095
 21
101.11611652399991
 31
0.0
  0
LINE
  8
DETAIL
  6
CONTINUOUS
 62
     5
 10
-0.0000000000009095
 20
97.257359313000052
 30
0.0
 11
-0.0000000000009095
 21
0.5
 31
0.0
  0
LINE
  8
DETAIL
  6
CONTINUOUS
 62
     5
 10
-0.0000000000009095
 20
-155.00520381999999
 30
0.0
 11
-0.0000000000009095
 21
-101.1161165230001
 31
0.0
  0
LINE
  8
DETAIL
  6
CONTINUOUS
 62
     5
 10
-0.0000000000009095
 20
-97.257359313000052
 30
0.0
 11
-0.0000000000009095
 21
-0.5
 31
0.0
  0
LINE
  8
DETAIL
  6
CONTINUOUS
 62
     5
 10
-75.919443415993555
 20
118.51282209919989
 30
0.0
 11
-76.499999999991815
 21
119.5183755981999
 31
0.0
  0
LINE
  8
DETAIL
  6
CONTINUOUS
 62
     5
 10
-3.0000000000009091
 20
97.257359313000052
 30
0.0
 11
-0.0000000000009095
 21
97.257359313000052
 31
0.0
  0
LINE
  8
DETAIL
  6
CONTINUOUS
 62
     5
 10
-142.89946229899309
 20
109.2664532991998
 30
0.0
 11
-76.999999999995453
 21
109.2664532991998
 31
0.0
  0
LINE
  8
DETAIL
  6
CONTINUOUS
 62
     5
 10
-70.999999999991815
 20
118.51282209919989
 30
0.0
 11
-75.919443415993555
 21
118.51282209919989
 31
0.0
  0
LINE
  8
DETAIL
  6
CONTINUOUS
 62
     5
 10
-70.999999999991815
 20
122.2655988491999
 30
0.0
 11
-76.499999999988177
 21
122.2655988491998
 31
0.0
  0
LINE
  8
DETAIL
  6
CONTINUOUS
 62
     5
 10
-76.499999999995453
 20
128.41756437719991
 30
0.0
 11
-142.89946229899309
 21
128.41756437719991
 31
0.0
  0
LINE
  8
DETAIL
  6
CONTINUOUS
 62
     5
 10
-70.999999999991815
 20
129.77115234819991
 30
0.0
 11
-76.499999999988177
 21
129.77115234819991
 31
0.0
  0
LINE
  8
DETAIL
  6
CONTINUOUS
 62
     5
 10
-76.499999999995453
 20
130.34592720619989
 30
0.0
 11
-142.89946229899309
 21
130.34592720619989
 31
0.0
  0
LINE
  8
DETAIL
  6
CONTINUOUS
 62
     5
 10
-77.999999999995453
 20
131.69776103219991
 30
0.0
 11
-76.499999999991815
 21
131.69776103219991
 31
0.0
  0
LINE
  8
DETAIL
  6
CONTINUOUS
 62
     5
 10
-70.999999999991815
 20
133.52392909819989
 30
0.0
 11
-75.919443415993555
 21
133.52392909819989
 31
0.0
  0
LINE
  8
DETAIL
  6
CONTINUOUS
 62
     5
 10
-77.799999999994725
 20
136.69776103219991
 30
0.0
 11
-74.199999999992542
 21
136.69776103219991
 31
0.0
  0
LINE
  8
DETAIL
  6
CONTINUOUS
 62
     5
 10
-70.999999999991815
 20
146.4746965102
 30
0.0
 11
-73.999999999991815
 21
146.4746965102
 31
0.0
  0
LINE
  8
DETAIL
  6
CONTINUOUS
 62
     5
 10
-61.0
 20
155.0
 30
0.0
 11
-3.0000000000009091
 21
155.0
 31
0.0
  0
LINE
  8
DETAIL
  6
CONTINUOUS
 62
     5
 10
-0.0000000000009095
 20
155.00520381999991
 30
0.0
 11
-1.5000000000009091
 21
155.00520381999991
 31
0.0
  0
LINE
  8
DETAIL
  6
CONTINUOUS
 62
     5
 10
-66.0
 20
160.0
 30
0.0
 11
-61.0
 21
160.0
 31
0.0
  0
ARC
  8
DETAIL
  6
CONTINUOUS
 62
     5
 10
-169.73997533501009
 20
-79.120245528199973
 30
0.0
 40
38.159981281
 50
180.0011531928985
 51
182.89536028630079
  0
ARC
  8
DETAIL
  6
CONTINUOUS
 62
     5
 10
-134.77750824128179
 20
-33.428376160391281
 30
0.0
 40
15.783901941767869
 50
267.7399178714482
 51
340.48902801922878
  0
ARC
  8
DETAIL
  6
CONTINUOUS
 62
     5
 10
-216.49995660799871
 20
-42.000000000000057
 30
0.0
 40
7.5
 50
180.0
 51
270.0
  0
ARC
  8
DETAIL
  6
CONTINUOUS
 62
     5
 10
-167.89995660800381
 20
-53.700000000000053
 30
0.0
 40
4.5
 50
90.0
 51
180.0
  0
ARC
  8
DETAIL
  6
CONTINUOUS
 62
     5
 10
-214.49995660800229
 20
-50.700000000000053
 30
0.0
 40
1.0
 50
180.0
 51
270.0
  0
ARC
  8
DETAIL
  6
CONTINUOUS
 62
     5
 10
-214.49995660800229
 20
-52.700000000000053
 30
0.0
 40
1.0
 50
0.0
 51
90.0
  0
ARC
  8
DETAIL
  6
CONTINUOUS
 62
     5
 10
-183.19995660799941
 20
-32.481681361000028
 30
0.0
 40
0.2
 50
90.000000000104222
 51
180.0
  0
ARC
  8
DETAIL
  6
CONTINUOUS
 62
     5
 10
-183.19995660799941
 20
-42.081681361000051
 30
0.0
 40
0.2
 50
180.00000000010101
 51
269.99999999989569
  0
ARC
  8
DETAIL
  6
CONTINUOUS
 62
     5
 10
-179.59995660800089
 20
-42.081681361000051
 30
0.0
 40
0.2
 50
269.99999999989569
 51
0.0
  0
ARC
  8
DETAIL
  6
CONTINUOUS
 62
     5
 10
-179.59995660800089
 20
-32.481681361000028
 30
0.0
 40
0.2
 50
0.0
 51
90.000000000104222
  0
ARC
  8
DETAIL
  6
CONTINUOUS
 62
     5
 10
-169.73997533498999
 20
78.623528865199944
 30
0.0
 40
38.159981281
 50
177.10463971369921
 51
179.99884680709829
  0
ARC
  8
DETAIL
  6
CONTINUOUS
 62
     5
 10
-134.77750824128179
 20
33.428376160391217
 30
0.0
 40
15.78390194176799
 50
19.510971980771171
 51
92.260082128551801
  0
ARC
  8
DETAIL
  6
CONTINUOUS
 62
     5
 10
-216.49995660799871
 20
42.0
 30
0.0
 40
7.5
 50
90.0
 51
180.0
  0
ARC
  8
DETAIL
  6
CONTINUOUS
 62
     5
 10
-167.89995660800381
 20
53.699999999999989
 30
0.0
 40
4.5
 50
180.0
 51
270.0
  0
ARC
  8
DETAIL
  6
CONTINUOUS
 62
     5
 10
-116.59788780400049
 20
8.1128291919999924
 30
0.0
 40
1.5
 50
184.9999999999981
 51
262.00000000001228
  0
ARC
  8
DETAIL
  6
CONTINUOUS
 62
     5
 10
-183.19995660799941
 20
42.081681361999983
 30
0.0
 40
0.2
 50
90.000000000104222
 51
180.0
  0
ARC
  8
DETAIL
  6
CONTINUOUS
 62
     5
 10
-183.19995660799941
 20
32.481681361999961
 30
0.0
 40
0.2
 50
180.00000000010101
 51
269.99999999989569
  0
ARC
  8
DETAIL
  6
CONTINUOUS
 62
     5
 10
-179.59995660800089
 20
32.481681361999961
 30
0.0
 40
0.2
 50
269.99999999989569
 51
0.0
  0
ARC
  8
DETAIL
  6
CONTINUOUS
 62
     5
 10
-179.59995660800089
 20
42.081681361999983
 30
0.0
 40
0.2
 50
0.0
 51
90.000000000104222
  0
CIRCLE
  8
DETAIL
  6
CONTINUOUS
 62
     5
 10
-34.700000000000728
 20
-77.757359313000052
 30
0.0
 40
6.5
  0
ARC
  8
DETAIL
  6
CONTINUOUS
 62
     5
 10
-68.577500000003056
 20
-78.69999999999996
 30
0.0
 40
6.5225
 50
133.89739816709701
 51
226.10260183290299
  0
ARC
  8
DETAIL
  6
CONTINUOUS
 62
     5
 10
-66.0
 20
-155.00000000000011
 30
0.0
 40
5.0
 50
180.0
 51
270.0
  0
ARC
  8
DETAIL
  6
CONTINUOUS
 62
     5
 10
-3.0000000000009091
 20
-152.0
 30
0.0
 40
3.0
 50
270.0
 51
298.07776528020543
  0
ARC
  8
DETAIL
  6
CONTINUOUS
 62
     5
 10
-73.799999999999272
 20
-68.199999999999903
 30
0.0
 40
2.0
 50
0.0
 51
90.0
  0
ARC
  8
DETAIL
  6
CONTINUOUS
 62
     5
 10
-97.5
 20
-68.199999999999903
 30
0.0
 40
2.0
 50
90.0
 51
180.0
  0
ARC
  8
DETAIL
  6
CONTINUOUS
 62
     5
 10
-99.500000000003638
 20
-71.899999999999949
 30
0.0
 40
1.3
 50
180.0
 51
270.0
  0
ARC
  8
DETAIL
  6
CONTINUOUS
 62
     5
 10
-73.099999999998545
 20
-73.69999999999996
 30
0.0
 40
0.5
 50
0.0
 51
90.000000000104222
  0
ARC
  8
DETAIL
  6
CONTINUOUS
 62
     5
 10
-77.800000000014734
 20
-137.07697717719989
 30
0.0
 40
0.2
 50
180.00000000010101
 51
269.99999999989569
  0
ARC
  8
DETAIL
  6
CONTINUOUS
 62
     5
 10
-74.200000000012551
 20
-137.07697717719989
 30
0.0
 40
0.2
 50
269.99999999989569
 51
0.0
  0
ARC
  8
DETAIL
  6
CONTINUOUS
 62
     5
 10
-77.800000000014734
 20
-103.6113361361999
 30
0.0
 40
0.2
 50
90.000000000104222
 51
180.0
  0
ARC
  8
DETAIL
  6
CONTINUOUS
 62
     5
 10
-77.800000000014734
 20
-113.2113361361999
 30
0.0
 40
0.2
 50
180.00000000010101
 51
269.99999999989569
  0
ARC
  8
DETAIL
  6
CONTINUOUS
 62
     5
 10
-74.200000000012551
 20
-103.6113361361999
 30
0.0
 40
0.2
 50
0.0
 51
90.000000000104222
  0
ARC
  8
DETAIL
  6
CONTINUOUS
 62
     5
 10
-74.200000000012551
 20
-113.2113361361999
 30
0.0
 40
0.2
 50
269.99999999989569
 51
0.0
  0
ARC
  8
DETAIL
  6
CONTINUOUS
 62
     5
 10
-85.199999999992542
 20
130.51837559820001
 30
0.0
 40
20.0
 50
180.0
 51
180.49420404070011
  0
ARC
  8
DETAIL
  6
CONTINUOUS
 62
     5
 10
-68.577500000007603
 20
29.700000000000049
 30
0.0
 40
6.5225
 50
133.89739816709701
 51
226.10260183290299
  0
ARC
  8
DETAIL
  6
CONTINUOUS
 62
     5
 10
-66.0
 20
155.0
 30
0.0
 40
5.0
 50
90.0
 51
180.0
  0
ARC
  8
DETAIL
  6
CONTINUOUS
 62
     5
 10
-3.0000000000009091
 20
152.00000000000011
 30
0.0
 40
3.0
 50
61.922234719794652
 51
90.0
  0
ARC
  8
DETAIL
  6
CONTINUOUS
 62
     5
 10
-73.695290468992425
 20
120.38948180919991
 30
0.0
 40
2.8047095440000001
 50
180.00554296499871
 51
182.94743713529999
  0
ARC
  8
DETAIL
  6
CONTINUOUS
 62
     5
 10
-73.695314003994099
 20
131.64726929019989
 30
0.0
 40
2.8046860090000001
 50
177.0525576609987
 51
179.99445501719961
  0
ARC
  8
DETAIL
  6
CONTINUOUS
 62
     5
 10
-97.500000000004547
 20
19.200000000000049
 30
0.0
 40
2.0
 50
180.0
 51
270.0
  0
ARC
  8
DETAIL
  6
CONTINUOUS
 62
     5
 10
-73.80000000000382
 20
19.200000000000049
 30
0.0
 40
2.0
 50
270.0
 51
0.0
  0
ARC
  8
DETAIL
  6
CONTINUOUS
 62
     5
 10
-73.100000000003092
 20
24.700000000000049
 30
0.0
 40
1.3
 50
337.34798607430167
 51
0.0
  0
ARC
  8
DETAIL
  6
CONTINUOUS
 62
     5
 10
-99.500000000008185
 20
22.900000000000031
 30
0.0
 40
1.3
 50
90.0
 51
180.0
  0
ARC
  8
DETAIL
  6
CONTINUOUS
 62
     5
 10
-73.100000000003092
 20
24.700000000000049
 30
0.0
 40
0.5
 50
269.99999999989569
 51
0.0
  0
ARC
  8
DETAIL
  6
CONTINUOUS
 62
     5
 10
-77.799999999994725
 20
136.4977610322
 30
0.0
 40
0.2
 50
90.000000000104222
 51
180.00000000010101
  0
ARC
  8
DETAIL
  6
CONTINUOUS
 62
     5
 10
-74.199999999992542
 20
136.4977610322
 30
0.0
 40
0.2
 50
0.0
 51
90.000000000104222
  0
LINE
  8
DETAIL
  6
CONTINUOUS
 62
     5
 10
-201.17345930000189
 20
-61.028256940000013
 30
0.0
 11
-198.28670795400279
 21
-57.198034724000081
 31
0.0
  0
LINE
  8
DETAIL
  6
CONTINUOUS
 62
     5
 10
-198.28670795400279
 20
-57.198034724000081
 30
0.0
 11
-192.51320526200109
 21
-57.198034724000081
 31
0.0
  0
LINE
  8
DETAIL
  6
CONTINUOUS
 62
     5
 10
-192.51320526200109
 20
-57.198034724000081
 30
0.0
 11
-189.62645391600199
 21
-61.028256940000013
 31
0.0
  0
LINE
  8
DETAIL
  6
CONTINUOUS
 62
     5
 10
-198.28670795400279
 20
-45.707368078000172
 30
0.0
 11
-201.17345930000189
 21
-49.537590293000051
 31
0.0
  0
LINE
  8
DETAIL
  6
CONTINUOUS
 62
     5
 10
-189.62645391600199
 20
-49.537590293000051
 30
0.0
 11
-192.51320526200109
 21
-45.707368078000172
 31
0.0
  0
LINE
  8
DETAIL
  6
CONTINUOUS
 62
     5
 10
-192.51320526200109
 20
-45.707368078000172
 30
0.0
 11
-198.28670795400279
 21
-45.707368078000172
 31
0.0
  0
LINE
  8
DETAIL
  6
CONTINUOUS
 62
     5
 10
-201.17345930000189
 20
49.535040752999983
 30
0.0
 11
-198.28670795400279
 21
45.704818537999977
 31
0.0
  0
LINE
  8
DETAIL
  6
CONTINUOUS
 62
     5
 10
-198.28670795400279
 20
45.704818537999977
 30
0.0
 11
-192.51320526200109
 21
45.704818537999977
 31
0.0
  0
LINE
  8
DETAIL
  6
CONTINUOUS
 62
     5
 10
-192.51320526200109
 20
45.704818537999977
 30
0.0
 11
-189.62645391600199
 21
49.535040752999983
 31
0.0
  0
LINE
  8
DETAIL
  6
CONTINUOUS
 62
     5
 10
-201.17345930000189
 20
61.110756422999998
 30
0.0
 11
-198.28670795400279
 21
57.280534207999949
 31
0.0
  0
LINE
  8
DETAIL
  6
CONTINUOUS
 62
     5
 10
-198.28670795400279
 20
57.280534207999949
 30
0.0
 11
-192.51320526200109
 21
57.280534207999949
 31
0.0
  0
LINE
  8
DETAIL
  6
CONTINUOUS
 62
     5
 10
-192.51320526200109
 20
57.280534207999949
 30
0.0
 11
-189.62645391600199
 21
61.110756422999998
 31
0.0
  0
ARC
  8
DETAIL
  6
CONTINUOUS
 62
     5
 10
-161.91617926272471
 20
-79.11155270541451
 30
0.0
 40
46.028137966857138
 50
182.51570448907961
 51
238.76687302306419
  0
ARC
  8
DETAIL
  6
CONTINUOUS
 62
     5
 10
-143.7414708505776
 20
-53.265914533144382
 30
0.0
 40
77.581298731593932
 50
237.18694313948791
 51
270.62185712638183
  0
ARC
  8
DETAIL
  6
CONTINUOUS
 62
     5
 10
-161.0358315339154
 20
-76.523053570956108
 30
0.0
 40
47.090205585602753
 50
185.61665577092111
 51
239.4392300471809
  0
ARC
  8
DETAIL
  6
CONTINUOUS
 62
     5
 10
-143.68929107548769
 20
-51.038761623727737
 30
0.0
 40
77.879524612582131
 50
237.982832775682
 51
270.581085098335
  0
ARC
  8
DETAIL
  6
CONTINUOUS
 62
     5
 10
-161.61339667482659
 20
78.440235064383728
 30
0.0
 40
46.334738247475073
 50
121.44132036321091
 51
177.38695004819539
  0
ARC
  8
DETAIL
  6
CONTINUOUS
 62
     5
 10
-143.2089984217464
 20
50.923871984468803
 30
0.0
 40
79.422658405864723
 50
89.77669900889849
 51
122.4145007227693
  0
ARC
  8
DETAIL
  6
CONTINUOUS
 62
     5
 10
-161.17598304057989
 20
76.302006766343652
 30
0.0
 40
46.78157267749738
 50
120.5846302660225
 51
177.1565036300841
  0
ARC
  8
DETAIL
  6
CONTINUOUS
 62
     5
 10
-143.14042794050971
 20
48.591759711324073
 30
0.0
 40
79.826168359721649
 50
89.827044996450851
 51
121.6090371271309
  0
ARC
  8
DETAIL
  6
CONTINUOUS
 62
     5
 10
-143.44885089319271
 20
68.554082556956359
 30
0.0
 40
40.716077405382038
 50
89.226875352255135
 51
165.68056376124409
  0
ARC
  8
DETAIL
  6
CONTINUOUS
 62
     5
 10
-143.44885089321269
 20
-69.133298702960246
 30
0.0
 40
40.716077405382038
 50
194.31943623875591
 51
270.77312464779698
  0
ARC
  8
DETAIL
  6
CONTINUOUS
 62
     5
 10
-204.91453547567471
 20
-44.732100642671163
 30
0.0
 40
3.0881806512569732
 50
89.729513657260213
 51
165.17792544846191
  0
ARC
  8
DETAIL
  6
CONTINUOUS
 62
     5
 10
-204.79445888513601
 20
-45.665739284263708
 30
0.0
 40
3.2466096083136091
 50
91.862139048483641
 51
163.04530005719661
  0
ARC
  8
DETAIL
  6
CONTINUOUS
 62
     5
 10
-204.91453547567471
 20
44.732100642670282
 30
0.0
 40
3.0881806512569732
 50
194.82207455153801
 51
270.27048634273979
  0
ARC
  8
DETAIL
  6
CONTINUOUS
 62
     5
 10
-204.97512284137059
 20
45.540405948720718
 30
0.0
 40
3.0379923023658701
 50
195.68719515056279
 51
271.41776115025061
  0
ARC
  8
DETAIL
  6
CONTINUOUS
 62
     5
 10
-185.6177929697842
 20
45.242182801628417
 30
0.0
 40
2.7533354483688122
 50
264.11796400412362
 51
350.78947510138988
  0
ARC
  8
DETAIL
  6
CONTINUOUS
 62
     5
 10
-185.7632828190435
 20
-45.329182211764447
 30
0.0
 40
2.9115476604787638
 50
10.442321028660089
 51
92.690565631466157
  0
ARC
  8
DETAIL
  6
CONTINUOUS
 62
     5
 10
-181.6468745081047
 20
67.258059528696435
 30
0.0
 40
5.4759774245160129
 50
16.630549625669321
 51
97.904635956718209
  0
ARC
  8
DETAIL
  6
CONTINUOUS
 62
     5
 10
-182.02341555819291
 20
68.041669971131682
 30
0.0
 40
2.7379887124529589
 50
16.630549629178489
 51
97.904635953193264
  0
ARC
  8
DETAIL
  6
CONTINUOUS
 62
     5
 10
-181.6468745081047
 20
-67.258059528695327
 30
0.0
 40
5.4759774245160129
 50
262.09536404328179
 51
343.36945037433071
  0
ARC
  8
DETAIL
  6
CONTINUOUS
 62
     5
 10
-182.02341555819291
 20
-68.041669971130517
 30
0.0
 40
2.7379887124529589
 50
262.09536404680682
 51
343.36945037082148
  0
ARC
  8
DETAIL
  6
CONTINUOUS
 62
     5
 10
-139.80850694124089
 20
-62.182933438723317
 30
0.0
 40
70.932137282003566
 50
182.03870924960651
 51
196.2700164072848
  0
ARC
  8
DETAIL
  6
CONTINUOUS
 62
     5
 10
-77.310221401708077
 20
116.3446064343584
 30
0.0
 40
7.0849480677583792
 50
272.50955424239709
 51
332.95526018874068
  0
ARC
  8
DETAIL
  6
CONTINUOUS
 62
     5
 10
-2.8344583887555932
 20
101.4123354178479
 30
0.0
 40
1.3669399490802361
 50
263.04419018000061
 51
347.48458919673061
  0
ARC
  8
DETAIL
  6
CONTINUOUS
 62
     5
 10
-2.6679949390618281
 20
101.7072506352615
 30
0.0
 40
2.73269766574293
 50
263.02169424959408
 51
347.50708512709991
  0
ARC
  8
DETAIL
  6
CONTINUOUS
 62
     5
 10
-2.8344583887555932
 20
-101.4123354178479
 30
0.0
 40
1.3669399490802361
 50
12.515410803269409
 51
96.955809819999359
  0
ARC
  8
DETAIL
  6
CONTINUOUS
 62
     5
 10
-2.6679949390618281
 20
-101.7072506352615
 30
0.0
 40
2.73269766574293
 50
12.49291487289697
 51
96.978305750405909
  0
ARC
  8
DETAIL
  6
CONTINUOUS
 62
     5
 10
-2.8344583887555932
 20
155.30142271512841
 30
0.0
 40
1.366939949357723
 50
263.04419018141812
 51
347.48458914433269
  0
ARC
  8
DETAIL
  6
CONTINUOUS
 62
     5
 10
-2.8344583887555932
 20
-155.30142271512841
 30
0.0
 40
1.366939949357723
 50
12.51541085566727
 51
96.955809818581955
  0
ARC
  8
OUTLINE
  6
CONTINUOUS
 62
     3
 10
-161.61339667482693
 20
78.440235064383842
 30
0.0
 40
46.334738247475151
 50
121.44132036319729
 51
177.38695004819533
  0
ARC
  8
OUTLINE
  6
CONTINUOUS
 62
     3
 10
-143.208998421746
 20
50.923871984469599
 30
0.0
 40
79.422658405863871
 50
89.776699009278673
 51
122.41450072278678
  0
LINE
  8
OUTLINE
  6
CONTINUOUS
 62
     3
 10
-142.89946229951781
 20
130.34592720619989
 30
0.0
 11
-77.999999999995453
 21
130.34592720619989
 31
0.0
  0
LINE
  8
OUTLINE
  6
CONTINUOUS
 62
     3
 10
-77.999999999995453
 20
130.34592720619989
 30
0.0
 11
-77.999999999995453
 21
136.69776103219991
 31
0.0
  0
LINE
  8
OUTLINE
  6
CONTINUOUS
 62
     3
 10
-77.999999999995453
 20
136.69776103219991
 30
0.0
 11
-73.999999999991815
 21
136.69776103219991
 31
0.0
  0
LINE
  8
OUTLINE
  6
CONTINUOUS
 62
     3
 10
-73.999999999991815
 20
136.69776103219991
 30
0.0
 11
-73.999999999991815
 21
146.4746965102
 31
0.0
  0
LINE
  8
OUTLINE
  6
CONTINUOUS
 62
     3
 10
-73.999999999991815
 20
146.4746965102
 30
0.0
 11
-70.999999999991815
 21
146.4746965102
 31
0.0
  0
LINE
  8
OUTLINE
  6
CONTINUOUS
 62
     3
 10
-70.999999999991815
 20
146.4746965102
 30
0.0
 11
-71.0
 21
155.00000000000011
 31
0.0
  0
ARC
  8
OUTLINE
  6
CONTINUOUS
 62
     3
 10
-66.000000000000043
 20
155.00000000000006
 30
0.0
 40
4.9999999999999512
 50
90.0
 51
180.0
  0
LINE
  8
OUTLINE
  6
CONTINUOUS
 62
     3
 10
-66.0
 20
160.0
 30
0.0
 11
-61.0
 21
160.0
 31
0.0
  0
LINE
  8
OUTLINE
  6
CONTINUOUS
 62
     3
 10
-61.0
 20
160.0
 30
0.0
 11
-61.0
 21
155.0
 31
0.0
  0
LINE
  8
OUTLINE
  6
CONTINUOUS
 62
     3
 10
-61.0
 20
155.0
 30
0.0
 11
-3.0000000000009091
 21
155.00000000000011
 31
0.0
  0
ARC
  8
OUTLINE
  6
CONTINUOUS
 62
     3
 10
-3.000000000003932
 20
152.00000000000111
 30
0.0
 40
2.999999999999011
 50
62.703569110992305
 51
90.0
  0
ARC
  8
OUTLINE
  6
CONTINUOUS
 62
     3
 10
-2.8344583887546126
 20
155.30142271512929
 30
0.0
 40
1.3669399493565217
 50
332.29648969460618
 51
347.48458914428238
  0
LINE
  8
OUTLINE
  6
CONTINUOUS
 62
     3
 10
-1.5000000000009091
 20
155.00520381999991
 30
0.0
 11
-0.0000000000009095
 21
155.00520381999991
 31
0.0
  0
LINE
  8
OUTLINE
  6
CONTINUOUS
 62
     3
 10
-0.0000000000009095
 20
155.00520381999991
 30
0.0
 11
-0.0000000000009095
 21
101.1161165239956
 31
0.0
  0
ARC
  8
OUTLINE
  6
CONTINUOUS
 62
     3
 10
-2.6679949390618494
 20
101.7072506352615
 30
0.0
 40
2.7326976657429403
 50
263.02169424959266
 51
347.50708512701726
  0
LINE
  8
OUTLINE
  6
CONTINUOUS
 62
     3
 10
-3.0000000000009091
 20
98.994796180000037
 30
0.0
 11
-3.0000000000009091
 21
97.257359313000052
 31
0.0
  0
LINE
  8
OUTLINE
  6
CONTINUOUS
 62
     3
 10
-3.0000000000009091
 20
97.257359313000052
 30
0.0
 11
-0.0000000000009095
 21
97.257359313000052
 31
0.0
  0
LINE
  8
OUTLINE
  6
CONTINUOUS
 62
     3
 10
-0.0000000000009095
 20
97.257359313000052
 30
0.0
 11
-0.0000000000009095
 21
0.5
 31
0.0
  0
LINE
  8
OUTLINE
  6
CONTINUOUS
 62
     3
 10
-0.0000000000009095
 20
0.5
 30
0.0
 11
-2.0000000000009091
 21
0.5
 31
0.0
  0
LINE
  8
OUTLINE
  6
CONTINUOUS
 62
     3
 10
-2.0000000000009091
 20
0.5
 30
0.0
 11
-2.0000000000009091
 21
-0.5
 31
0.0
  0
LINE
  8
OUTLINE
  6
CONTINUOUS
 62
     3
 10
-2.0000000000009091
 20
-0.5
 30
0.0
 11
-0.0000000000009095
 21
-0.5
 31
0.0
  0
LINE
  8
OUTLINE
  6
CONTINUOUS
 62
     3
 10
-0.0000000000009095
 20
-0.5
 30
0.0
 11
-0.0000000000009095
 21
-97.257359313000052
 31
0.0
  0
LINE
  8
OUTLINE
  6
CONTINUOUS
 62
     3
 10
-0.0000000000009095
 20
-97.257359313000052
 30
0.0
 11
-3.0000000000009091
 21
-97.257359313000052
 31
0.0
  0
LINE
  8
OUTLINE
  6
CONTINUOUS
 62
     3
 10
-3.0000000000009091
 20
-97.257359313000052
 30
0.0
 11
-3.0000000000009091
 21
-98.994796180000094
 31
0.0
  0
ARC
  8
OUTLINE
  6
CONTINUOUS
 62
     3
 10
-2.6679949390617823
 20
-101.70725063526146
 30
0.0
 40
2.7326976657428435
 50
12.492914872980123
 51
96.978305750408992
  0
LINE
  8
OUTLINE
  6
CONTINUOUS
 62
     3
 10
-0.0000000000009095
 20
-101.1161165239957
 30
0.0
 11
-0.0000000000009095
 21
-155.00520381999999
 31
0.0
  0
LINE
  8
OUTLINE
  6
CONTINUOUS
 62
     3
 10
-0.0000000000009095
 20
-155.00520381999999
 30
0.0
 11
-1.5000000000009091
 21
-155.00520381999999
 31
0.0
  0
ARC
  8
OUTLINE
  6
CONTINUOUS
 62
     3
 10
-2.8344583887486268
 20
-155.30142271515891
 30
0.0
 40
1.3669399493570737
 50
12.515410856980338
 51
27.703510306552175
  0
ARC
  8
OUTLINE
  6
CONTINUOUS
 62
     3
 10
-3.0000000000008953
 20
-151.9999999999998
 30
0.0
 40
3.0000000000002083
 50
270.0
 51
297.29643088879379
  0
LINE
  8
OUTLINE
  6
CONTINUOUS
 62
     3
 10
-3.0000000000009091
 20
-155.0
 30
0.0
 11
-61.0
 21
-155.00000000000011
 31
0.0
  0
LINE
  8
OUTLINE
  6
CONTINUOUS
 62
     3
 10
-61.0
 20
-155.00000000000011
 30
0.0
 11
-61.0
 21
-160.00000000000011
 31
0.0
  0
LINE
  8
OUTLINE
  6
CONTINUOUS
 62
     3
 10
-61.0
 20
-160.00000000000011
 30
0.0
 11
-66.0
 21
-160.00000000000011
 31
0.0
  0
ARC
  8
OUTLINE
  6
CONTINUOUS
 62
     3
 10
-66.0
 20
-155.00000000000011
 30
0.0
 40
4.9999999999999991
 50
180.0
 51
270.0
  0
LINE
  8
OUTLINE
  6
CONTINUOUS
 62
     3
 10
-71.0
 20
-155.00000000000011
 30
0.0
 11
-71.000000000011823
 21
-147.05391265519981
 31
0.0
  0
LINE
  8
OUTLINE
  6
CONTINUOUS
 62
     3
 10
-71.000000000011823
 20
-147.05391265519981
 30
0.0
 11
-74.000000000011823
 21
-147.05391265519989
 31
0.0
  0
LINE
  8
OUTLINE
  6
CONTINUOUS
 62
     3
 10
-74.000000000011823
 20
-147.05391265519989
 30
0.0
 11
-74.000000000011823
 21
-137.27697717719991
 31
0.0
  0
LINE
  8
OUTLINE
  6
CONTINUOUS
 62
     3
 10
-74.000000000011823
 20
-137.27697717719991
 30
0.0
 11
-78.000000000015461
 21
-137.27697717719991
 31
0.0
  0
LINE
  8
OUTLINE
  6
CONTINUOUS
 62
     3
 10
-78.000000000015461
 20
-137.27697717719991
 30
0.0
 11
-78.000000000015461
 21
-130.84264386919989
 31
0.0
  0
LINE
  8
OUTLINE
  6
CONTINUOUS
 62
     3
 10
-78.000000000015461
 20
-130.84264386919989
 30
0.0
 11
-142.89946229883839
 21
-130.84264386919989
 31
0.0
  0
ARC
  8
OUTLINE
  6
CONTINUOUS
 62
     3
 10
-143.74147085057686
 20
-53.265914533144041
 30
0.0
 40
77.581298731594259
 50
237.1869431394922
 51
270.6218571265423
  0
ARC
  8
OUTLINE
  6
CONTINUOUS
 62
     3
 10
-161.91617926272519
 20
-79.111552705414468
 30
0.0
 40
46.028137966857095
 50
182.51570448906671
 51
238.76687302308403
  0
LINE
  8
OUTLINE
  6
CONTINUOUS
 62
     3
 10
-207.8999566080156
 20
-81.131875886192063
 30
0.0
 11
-207.8999566080156
 21
-82.055592588185846
 31
0.0
  0
ARC
  8
OUTLINE
  6
CONTINUOUS
 62
     3
 10
-139.80850694112425
 20
-62.182933438722785
 30
0.0
 40
70.932137282120124
 50
182.03870924960495
 51
196.27001640724552
  0
LINE
  8
OUTLINE
  6
CONTINUOUS
 62
     3
 10
-210.69574564899989
 20
-64.706321594000059
 30
0.0
 11
-210.69574564899989
 21
-61.700000000000053
 31
0.0
  0
LINE
  8
OUTLINE
  6
CONTINUOUS
 62
     3
 10
-210.69574564899989
 20
-61.700000000000053
 30
0.0
 11
-213.49995660800229
 21
-61.700000000000017
 31
0.0
  0
LINE
  8
OUTLINE
  6
CONTINUOUS
 62
     3
 10
-213.49995660800229
 20
-61.700000000000017
 30
0.0
 11
-213.49995660800229
 21
-52.700000000000053
 31
0.0
  0
ARC
  8
OUTLINE
  6
CONTINUOUS
 62
     3
 10
-214.49995660800226
 20
-52.700000000000031
 30
0.0
 40
0.9999999999999804
 50
0.0
 51
90.0
  0
ARC
  8
OUTLINE
  6
CONTINUOUS
 62
     3
 10
-214.49995660800232
 20
-50.700000000000074
 30
0.0
 40
0.9999999999999804
 50
180.0
 51
270.0
  0
LINE
  8
OUTLINE
  6
CONTINUOUS
 62
     3
 10
-215.49995660800229
 20
-50.700000000000053
 30
0.0
 11
-215.49995660799871
 21
-49.500000000000092
 31
0.0
  0
LINE
  8
OUTLINE
  6
CONTINUOUS
 62
     3
 10
-215.49995660799871
 20
-49.500000000000092
 30
0.0
 11
-216.49995660799871
 21
-49.500000000000057
 31
0.0
  0
ARC
  8
OUTLINE
  6
CONTINUOUS
 62
     3
 10
-216.49995660799857
 20
-41.999999999999908
 30
0.0
 40
7.5000000000001465
 50
180.0
 51
270.0
  0
LINE
  8
OUTLINE
  6
CONTINUOUS
 62
     3
 10
-223.99995660799871
 20
-42.000000000000057
 30
0.0
 11
-223.99995660799871
 21
42.0
 31
0.0
  0
ARC
  8
OUTLINE
  6
CONTINUOUS
 62
     3
 10
-216.49995660799877
 20
42.00000000000005
 30
0.0
 40
7.4999999999999503
 50
90.0
 51
180.0
  0
LINE
  8
OUTLINE
  6
CONTINUOUS
 62
     3
 10
-216.49995660799871
 20
49.5
 30
0.0
 11
-207.89995660800381
 21
49.5
 31
0.0
  0
LINE
  8
OUTLINE
  6
CONTINUOUS
 62
     3
 10
-207.89995660800381
 20
49.5
 30
0.0
 11
-207.89995660799559
 21
80.552659741199932
 31
0.0
  0
LINE
  8
SIZE
  6
CONTINUOUS
 62
    30
 10
-0.0000000000009083
 20
175.00520381999991
 30
0.0
 11
-0.0000000000008951
 21
390.85409207264968
 31
0.0
  0
LINE
  8
SIZE
  6
CONTINUOUS
 62
    30
 10
-223.99995660799871
 20
62.0
 30
0.0
 11
-223.99995660799871
 21
390.85409207264968
 31
0.0
  0
LINE
  8
SIZE
  6
CONTINUOUS
 62
    30
 10
-12.000000000000901
 20
370.85409207264968
 30
0.0
 11
-211.99995660799871
 21
370.85409207264968
 31
0.0
  0
CIRCLE
  8
SIZE
  6
CONTINUOUS
 62
    30
 10
-0.0000000000008963
 20
370.85409207264968
 30
0.0
 40
6.0
  0
LINE
  8
SIZE
  6
CONTINUOUS
 62
    30
 10
-0.0000000000008963
 20
370.85409207264968
 30
0.0
 11
-12.000000000000897
 21
370.85409207264968
 31
0.0
  0
CIRCLE
  8
SIZE
  6
CONTINUOUS
 62
    30
 10
-223.99995660799871
 20
370.85409207264968
 30
0.0
 40
6.0
  0
LINE
  8
SIZE
  6
CONTINUOUS
 62
    30
 10
-223.99995660799871
 20
370.85409207264968
 30
0.0
 11
-211.99995660799871
 21
370.85409207264968
 31
0.0
  0
TEXT
  8
SIZE
  6
CONTINUOUS
 62
    30
 10
-192.92797830399979
 20
395.85409207264968
 30
0.0
 40
64.0
  1
224
 50
0.0
 41
0.9
 51
0.0
  7
STANDARD
 71
     0
 72
     1
 11
-111.9999783039998
 21
395.85409207264968
 31
0.0
210
0.0
220
0.0
230
1.0
  0
POINT
  8
DEFPOINTS
  6
CONTINUOUS
 62
    30
 10
-0.0000000000009095
 20
155.00520381999991
 30
0.0
  0
POINT
  8
DEFPOINTS
  6
CONTINUOUS
 62
    30
 10
-223.99995660799871
 20
42.0
 30
0.0
  0
POINT
  8
DEFPOINTS
  6
CONTINUOUS
 62
    30
 10
-223.99995660799871
 20
370.85409207264968
 30
0.0
  0
LINE
  8
SIZE
  6
CONTINUOUS
 62
    30
 10
-61.0
 20
180.00000000000011
 30
0.0
 11
-60.999999999999993
 21
240.7931683412568
 31
0.0
  0
LINE
  8
SIZE
  6
CONTINUOUS
 62
    30
 10
-105.9999999999918
 20
129.26645329919981
 30
0.0
 11
-105.9999999999918
 21
240.7931683412568
 31
0.0
  0
LINE
  8
SIZE
  6
CONTINUOUS
 62
    30
 10
-48.999999999999993
 20
220.7931683412568
 30
0.0
 11
-36.999999999999993
 21
220.7931683412568
 31
0.0
  0
LINE
  8
SIZE
  6
CONTINUOUS
 62
    30
 10
-117.9999999999918
 20
220.7931683412568
 30
0.0
 11
-376.78106947279957
 21
220.7931683412568
 31
0.0
  0
LINE
  8
SIZE
  6
CONTINUOUS
 62
    30
 10
-60.999999999999993
 20
220.7931683412568
 30
0.0
 11
-105.9999999999918
 21
220.7931683412568
 31
0.0
  0
CIRCLE
  8
SIZE
  6
CONTINUOUS
 62
    30
 10
-60.999999999999993
 20
220.7931683412568
 30
0.0
 40
6.0
  0
LINE
  8
SIZE
  6
CONTINUOUS
 62
    30
 10
-60.999999999999993
 20
220.7931683412568
 30
0.0
 11
-48.999999999999993
 21
220.7931683412568
 31
0.0
  0
CIRCLE
  8
SIZE
  6
CONTINUOUS
 62
    30
 10
-105.9999999999918
 20
220.7931683412568
 30
0.0
 40
6.0
  0
LINE
  8
SIZE
  6
CONTINUOUS
 62
    30
 10
-105.9999999999918
 20
220.7931683412568
 30
0.0
 11
-117.9999999999918
 21
220.7931683412568
 31
0.0
  0
TEXT
  8
SIZE
  6
CONTINUOUS
 62
    30
 10
-359.2964980442282
 20
245.79316834125677
 30
0.0
 40
64.0
  1
45
 50
0.0
 41
0.9
 51
0.0
  7
STANDARD
 71
     0
 72
     1
 11
-305.1524980442282
 21
245.79316834125677
 31
0.0
210
0.0
220
0.0
230
1.0
  0
POINT
  8
DEFPOINTS
  6
CONTINUOUS
 62
    30
 10
-61.0
 20
160.00000000000011
 30
0.0
  0
POINT
  8
DEFPOINTS
  6
CONTINUOUS
 62
    30
 10
-105.9999999999918
 20
109.2664532991998
 30
0.0
  0
POINT
  8
DEFPOINTS
  6
CONTINUOUS
 62
    30
 10
-105.9999999999918
 20
220.7931683412568
 30
0.0
  0
CIRCLE
  8
FIX
  6
CONTINUOUS
 62
    11
 10
-0.0000000000009095
 20
140.00000000000011
 30
0.0
 40
5.0
  0
CIRCLE
  8
FIX
  6
CONTINUOUS
 62
    11
 10
-0.0000000000009095
 20
-140.0
 30
0.0
 40
5.0
  0
LINE
  8
BASIS
  6
DASHDOT
 62
     6
 10
-0.0000000000009095
 20
-160.0
 30
0.0
 11
-0.0000000000009095
 21
-120.0
 31
0.0
  0
LINE
  8
BASIS
  6
DASHDOT
 62
     6
 10
-20.000000000000909
 20
-140.0
 30
0.0
 11
19.999999999999091
 21
-140.0
 31
0.0
  0
LINE
  8
BASIS
  6
DASHDOT
 62
     6
 10
-0.0000000000009095
 20
120.0000000000001
 30
0.0
 11
-0.0000000000009095
 21
160.00000000000011
 31
0.0
  0
LINE
  8
BASIS
  6
DASHDOT
 62
     6
 10
-20.000000000000909
 20
140.00000000000011
 30
0.0
 11
19.999999999999091
 21
140.00000000000011
 31
0.0
  0
LINE
  8
SIZE
  6
CONTINUOUS
 62
    30
 10
-41.000000000000021
 20
160.00000000000011
 30
0.0
 11
313.84702440830227
 21
160.00000000000011
 31
0.0
  0
LINE
  8
SIZE
  6
CONTINUOUS
 62
    30
 10
-41.000000000000021
 20
-160.00000000000011
 30
0.0
 11
313.84702440830239
 21
-160.00000000000011
 31
0.0
  0
LINE
  8
SIZE
  6
CONTINUOUS
 62
    30
 10
293.84702440830227
 20
148.00000000000011
 30
0.0
 11
293.84702440830239
 21
-148.00000000000011
 31
0.0
  0
CIRCLE
  8
SIZE
  6
CONTINUOUS
 62
    30
 10
293.84702440830227
 20
160.00000000000011
 30
0.0
 40
6.0
  0
LINE
  8
SIZE
  6
CONTINUOUS
 62
    30
 10
293.84702440830227
 20
160.00000000000011
 30
0.0
 11
293.84702440830227
 21
148.00000000000011
 31
0.0
  0
CIRCLE
  8
SIZE
  6
CONTINUOUS
 62
    30
 10
293.84702440830239
 20
-160.00000000000011
 30
0.0
 40
6.0
  0
LINE
  8
SIZE
  6
CONTINUOUS
 62
    30
 10
293.84702440830239
 20
-160.00000000000011
 30
0.0
 11
293.84702440830239
 21
-148.00000000000011
 31
0.0
  0
TEXT
  8
SIZE
  6
CONTINUOUS
 62
    30
 10
268.84702440830227
 20
-80.928000000000068
 30
0.0
 40
64.0
  1
320
 50
90.0
 41
0.9
 51
0.0
  7
STANDARD
 71
     0
 72
     1
 11
268.84702440830233
 21
-0.0000000000000699
 31
0.0
210
0.0
220
0.0
230
1.0
  0
POINT
  8
DEFPOINTS
  6
CONTINUOUS
 62
    30
 10
-61.000000000000028
 20
160.00000000000011
 30
0.0
  0
POINT
  8
DEFPOINTS
  6
CONTINUOUS
 62
    30
 10
-61.000000000000028
 20
-160.00000000000011
 30
0.0
  0
POINT
  8
DEFPOINTS
  6
CONTINUOUS
 62
    30
 10
293.84702440830239
 20
-160.00000000000011
 30
0.0
  0
LINE
  8
SIZE
  6
CONTINUOUS
 62
    30
 10
39.999999999999098
 20
140.0000000000002
 30
0.0
 11
198.42155636508181
 21
140.0000000000002
 31
0.0
  0
LINE
  8
SIZE
  6
CONTINUOUS
 62
    30
 10
39.999999999999098
 20
-140.00000000000011
 30
0.0
 11
198.42155636508181
 21
-140.0
 31
0.0
  0
LINE
  8
SIZE
  6
CONTINUOUS
 62
    30
 10
178.42155636508181
 20
128.0000000000002
 30
0.0
 11
178.42155636508181
 21
-128.0
 31
0.0
  0
CIRCLE
  8
SIZE
  6
CONTINUOUS
 62
    30
 10
178.42155636508181
 20
140.0000000000002
 30
0.0
 40
6.0
  0
LINE
  8
SIZE
  6
CONTINUOUS
 62
    30
 10
178.42155636508181
 20
140.0000000000002
 30
0.0
 11
178.42155636508181
 21
128.0000000000002
 31
0.0
  0
CIRCLE
  8
SIZE
  6
CONTINUOUS
 62
    30
 10
178.42155636508181
 20
-140.0
 30
0.0
 40
6.0
  0
LINE
  8
SIZE
  6
CONTINUOUS
 62
    30
 10
178.42155636508181
 20
-140.0
 30
0.0
 11
178.42155636508181
 21
-128.0
 31
0.0
  0
TEXT
  8
SIZE
  6
CONTINUOUS
 62
    30
 10
153.42155636508178
 20
-80.92799999999994
 30
0.0
 40
64.0
  1
280
 50
90.0
 41
0.9
 51
0.0
  7
STANDARD
 71
     0
 72
     1
 11
153.42155636508181
 21
0.0000000000000509
 31
0.0
210
0.0
220
0.0
230
1.0
  0
POINT
  8
DEFPOINTS
  6
CONTINUOUS
 62
    30
 10
19.999999999999101
 20
140.0000000000002
 30
0.0
  0
POINT
  8
DEFPOINTS
  6
CONTINUOUS
 62
    30
 10
19.999999999999101
 20
-140.00000000000011
 30
0.0
  0
POINT
  8
DEFPOINTS
  6
CONTINUOUS
 62
    30
 10
178.42155636508181
 20
-140.0
 30
0.0
  0
POINT
  8
ARRANGE
  6
CONTINUOUS
 62
     1
 10
0.0
 20
0.0
 30
0.0
  0
CIRCLE
  8
ARRANGE
  6
CONTINUOUS
 62
     1
 10
0.0
 20
0.0
 30
0.0
 40
40.0
  0
LINE
  8
SIZE
  6
CONTINUOUS
 62
    30
 10
-61.0
 20
180.0
 30
0.0
 11
-60.999999999999993
 21
240.7931683412568
 31
0.0
  0
LINE
  8
SIZE
  6
CONTINUOUS
 62
    30
 10
-0.0000000000009083
 20
175.00520381999991
 30
0.0
 11
-0.0000000000009042
 21
240.7931683412568
 31
0.0
  0
LINE
  8
SIZE
  6
CONTINUOUS
 62
    30
 10
-73.0
 20
220.7931683412568
 30
0.0
 11
-85.0
 21
220.7931683412568
 31
0.0
  0
LINE
  8
SIZE
  6
CONTINUOUS
 62
    30
 10
11.999999999999091
 20
220.7931683412568
 30
0.0
 11
142.57142857142799
 21
220.7931683412568
 31
0.0
  0
LINE
  8
SIZE
  6
CONTINUOUS
 62
    30
 10
-60.999999999999993
 20
220.7931683412568
 30
0.0
 11
-0.0000000000009055
 21
220.7931683412568
 31
0.0
  0
CIRCLE
  8
SIZE
  6
CONTINUOUS
 62
    30
 10
-60.999999999999993
 20
220.7931683412568
 30
0.0
 40
6.0
  0
LINE
  8
SIZE
  6
CONTINUOUS
 62
    30
 10
-60.999999999999993
 20
220.7931683412568
 30
0.0
 11
-73.0
 21
220.7931683412568
 31
0.0
  0
CIRCLE
  8
SIZE
  6
CONTINUOUS
 62
    30
 10
-0.0000000000009055
 20
220.7931683412568
 30
0.0
 40
6.0
  0
LINE
  8
SIZE
  6
CONTINUOUS
 62
    30
 10
-0.0000000000009055
 20
220.7931683412568
 30
0.0
 11
11.999999999999094
 21
220.7931683412568
 31
0.0
  0
TEXT
  8
SIZE
  6
CONTINUOUS
 62
    30
 10
35.477714285713759
 20
245.79316834125677
 30
0.0
 40
64.0
  1
61
 50
0.0
 41
0.9
 51
0.0
  7
STANDARD
 71
     0
 72
     1
 11
83.285714285713766
 21
245.79316834125677
 31
0.0
210
0.0
220
0.0
230
1.0
  0
POINT
  8
DEFPOINTS
  6
CONTINUOUS
 62
    30
 10
-61.0
 20
160.0
 30
0.0
  0
POINT
  8
DEFPOINTS
  6
CONTINUOUS
 62
    30
 10
-0.0000000000009095
 20
155.00520381999991
 30
0.0
  0
POINT
  8
DEFPOINTS
  6
CONTINUOUS
 62
    30
 10
-0.0000000000009055
 20
220.7931683412568
 30
0.0
  0
LINE
  8
SIZE
  6
CONTINUOUS
 62
    30
 10
-236.4999566079988
 20
49.500000000000028
 30
0.0
 11
-306.56613670123642
 21
49.500000000000007
 31
0.0
  0
LINE
  8
SIZE
  6
CONTINUOUS
 62
    30
 10
-236.4999566079988
 20
-49.500000000000092
 30
0.0
 11
-306.56613670123642
 21
-49.500000000000099
 31
0.0
  0
LINE
  8
SIZE
  6
CONTINUOUS
 62
    30
 10
-286.56613670123642
 20
61.500000000000021
 30
0.0
 11
-286.56613670123642
 21
73.500000000000028
 31
0.0
  0
LINE
  8
SIZE
  6
CONTINUOUS
 62
    30
 10
-286.56613670123642
 20
-61.500000000000092
 30
0.0
 11
-286.56613670123642
 21
-73.500000000000085
 31
0.0
  0
LINE
  8
SIZE
  6
CONTINUOUS
 62
    30
 10
-286.56613670123642
 20
49.500000000000021
 30
0.0
 11
-286.56613670123642
 21
-49.500000000000092
 31
0.0
  0
CIRCLE
  8
SIZE
  6
CONTINUOUS
 62
    30
 10
-286.56613670123642
 20
49.500000000000021
 30
0.0
 40
6.0
  0
LINE
  8
SIZE
  6
CONTINUOUS
 62
    30
 10
-286.56613670123642
 20
49.500000000000021
 30
0.0
 11
-286.56613670123642
 21
61.500000000000021
 31
0.0
  0
CIRCLE
  8
SIZE
  6
CONTINUOUS
 62
    30
 10
-286.56613670123642
 20
-49.500000000000092
 30
0.0
 40
6.0
  0
LINE
  8
SIZE
  6
CONTINUOUS
 62
    30
 10
-286.56613670123642
 20
-49.500000000000092
 30
0.0
 11
-286.56613670123642
 21
-61.500000000000092
 31
0.0
  0
TEXT
  8
SIZE
  6
CONTINUOUS
 62
    30
 10
-311.5661367012363
 20
-88.127999999999929
 30
0.0
 40
64.0
  1
φ99
 50
90.0
 41
0.9
 51
0.0
  7
STANDARD
 71
     0
 72
     1
 11
-311.5661367012363
 21
0.0000000000000509
 31
0.0
210
0.0
220
0.0
230
1.0
  0
POINT
  8
DEFPOINTS
  6
CONTINUOUS
 62
    30
 10
-216.4999566079988
 20
49.500000000000028
 30
0.0
  0
POINT
  8
DEFPOINTS
  6
CONTINUOUS
 62
    30
 10
-216.4999566079988
 20
-49.500000000000092
 30
0.0
  0
POINT
  8
DEFPOINTS
  6
CONTINUOUS
 62
    30
 10
-286.56613670123642
 20
-49.500000000000092
 30
0.0
  0
ARC
  8
DETAIL
  6
CONTINUOUS
 62
     5
 10
90.077923784558152
 20
53.628341626501417
 30
0.0
 40
223.38746580871009
 50
196.05240196594721
 51
208.6281001100094
  0
ARC
  8
DETAIL
  6
CONTINUOUS
 62
     5
 10
-120.5301865905831
 20
-6.5721715669180867
 30
0.0
 40
4.361584514686613
 50
71.41548972099686
 51
201.09475710343989
  0
ARC
  8
DETAIL
  6
CONTINUOUS
 62
     5
 10
-154.42734962336641
 20
-54.972877471425697
 30
0.0
 40
63.285845983910953
 50
40.073777008248911
 51
56.111078898102718
  0
ARC
  8
DETAIL
  6
CONTINUOUS
 62
     5
 10
-105.5547777163256
 20
61.497323351478492
 30
0.0
 40
19.599217839722481
 50
162.270174171229
 51
268.69833824710747
  0
ARC
  8
DETAIL
  6
CONTINUOUS
 62
     5
 10
44.508773172976362
 20
26.882803591497119
 30
0.0
 40
173.54373098443071
 50
151.65926564281071
 51
166.47620796531001
  0
ARC
  8
DETAIL
  6
CONTINUOUS
 62
     5
 10
-126.74549853276039
 20
-33.007739049575093
 30
0.0
 40
27.36129409827921
 50
292.71165939797902
 51
316.60704562873298
  0
ARC
  8
DETAIL
  6
CONTINUOUS
 62
     5
 10
-118.5126051641537
 20
-52.108371148029732
 30
0.0
 40
6.5667470987216454
 50
161.4375723032374
 51
290.79285169212682
  0
ARC
  8
DETAIL
  6
CONTINUOUS
 62
     5
 10
-83.294320040351522
 20
-62.151042642306038
 30
0.0
 40
43.182970448307707
 50
138.45305777368509
 51
163.68190013277609
  0
TEXT
  8
ETC
  6
CONTINUOUS
 62
    61
 10
269.33808155422321
 20
457.75704494312288
 30
0.0
 40
64.0
  1
EF-20YSXC2-Q_4
 41
0.9
  0
TEXT
  8
ETC
  6
CONTINUOUS
 62
    61
 10
265.15208755422373
 20
339.80173492829169
 30
0.0
 40
64.0
  1
有圧換気扇
 41
0.9
  0
TEXT
  8
ETC
  6
CONTINUOUS
 62
    61
 10
315.85348580277878
 20
231.65296204206641
 30
0.0
 40
40.0
  1
EF-20YSXC2-Q
 50
0.0
 41
0.9
 51
0.0
  7
STANDARD
 71
     0
 11
0.0
 21
0.0
 31
0.0
210
0.0
220
0.0
230
1.0
  0
TEXT
  8
NOTE
  6
CONTINUOUS
 62
     4
 10
187.3304229632067
 20
-268.72191765548996
 30
0.0
 40
64.0
  1
4-φ10
 50
0.0
 41
0.9
 51
0.0
  7
STANDARD
 71
     0
 11
0.0
 21
0.0
 31
0.0
210
0.0
220
0.0
230
1.0
  0
LINE
  8
NOTE
  6
CONTINUOUS
 62
     4
 10
187.24042296320661
 20
-281.52191765548997
 30
0.0
 11
456.13042296320651
 21
-281.52191765548997
 31
0.0
  0
LINE
  8
NOTE
  6
CONTINUOUS
 62
     4
 10
17.70822251102382
 20
-165.51541372876477
 30
0.0
 11
-0.0000000000009095
 21
-140.0
 31
0.0
  0
LINE
  8
NOTE
  6
CONTINUOUS
 62
     4
 10
-0.0000000000009095
 20
-140.0
 30
0.0
 11
28.093497371047377
 21
-153.24284288636329
 31
0.0
  0
LINE
  8
NOTE
  6
CONTINUOUS
 62
     4
 10
-0.0000000000009095
 20
-140.0
 30
0.0
 11
45.801719882072106
 21
-178.75825661512806
 31
0.0
  0
LINE
  8
NOTE
  6
CONTINUOUS
 62
     4
 10
45.801719882072078
 20
-178.75825661512809
 30
0.0
 11
167.24042296320661
 21
-281.52191765548997
 31
0.0
  0
LINE
  8
NOTE
  6
CONTINUOUS
 62
     4
 10
167.24042296320661
 20
-281.52191765548997
 30
0.0
 11
187.24042296320661
 21
-281.52191765548997
 31
0.0
  0
TEXT
  8
NOTE
  6
CONTINUOUS
 62
     4
 10
-368.81333393760889
 20
-264.02726805604107
 30
0.0
 40
64.0
  1
EL
 50
0.0
 41
0.9
 51
0.0
  7
STANDARD
 71
     0
 72
     2
 11
-267.43733393760891
 21
-264.02726805604107
 31
0.0
210
0.0
220
0.0
230
1.0
  0
LINE
  8
NOTE
  6
CONTINUOUS
 62
     4
 10
-267.34733393760871
 20
-276.82726805604108
 30
0.0
 11
-352.46590536618021
 21
-276.82726805604108
 31
0.0
  0
LINE
  8
NOTE
  6
CONTINUOUS
 62
     4
 10
-116.88458648559725
 20
-145.37604560053882
 30
0.0
 11
-89.392971282794861
 21
-130.9251433522
 31
0.0
  0
LINE
  8
NOTE
  6
CONTINUOUS
 62
     4
 10
-89.392971282794861
 20
-130.9251433522
 30
0.0
 11
-105.97591774196881
 21
-157.18582439786539
 31
0.0
  0
LINE
  8
NOTE
  6
CONTINUOUS
 62
     4
 10
-89.392971282794861
 20
-130.9251433522
 30
0.0
 11
-133.46753294477119
 21
-171.63672664620424
 31
0.0
  0
LINE
  8
NOTE
  6
CONTINUOUS
 62
     4
 10
-133.46753294477119
 20
-171.63672664620421
 30
0.0
 11
-247.34733393760871
 21
-276.82726805604108
 31
0.0
  0
LINE
  8
NOTE
  6
CONTINUOUS
 62
     4
 10
-247.34733393760871
 20
-276.82726805604108
 30
0.0
 11
-267.34733393760871
 21
-276.82726805604108
 31
0.0
  0
ENDSEC
  0
EOF
