  0
SECTION
  2
HEADER
  9
$ACADVER
  1
AC1009
  9
$DWGCODEPAGE
  3
dos932
  9
$INSBASE
 10
0.0
 20
0.0
 30
0.0
  9
$EXTMIN
 10
-472.67301793055782
 20
-503.08226375268168
 30
-0.0000000349181948
  9
$EXTMAX
 10
991.57105644881995
 20
311.46241004050529
 30
0.0000000814935746
  9
$LIMMIN
 10
-2970.0
 20
-2100.0
  9
$LIMMAX
 10
2970.0
 20
2100.0
  9
$ORTHOMODE
 70
     1
  9
$REGENMODE
 70
     1
  9
$FILLMODE
 70
     1
  9
$QTEXTMODE
 70
     0
  9
$MIRRTEXT
 70
     0
  9
$LTSCALE
 40
20.0
  9
$ATTMODE
 70
     1
  9
$TEXTSIZE
 40
64.0
  9
$TRACEWID
 40
0.05
  9
$TEXTSTYLE
  7
STANDARD
  9
$CLAYER
  8
SIZE
  9
$CELTYPE
  6
CONTINUOUS
  9
$CECOLOR
 62
     7
  9
$DIMSCALE
 40
1.0
  9
$DIMASZ
 40
12.0
  9
$DIMEXO
 40
20.0
  9
$DIMDLI
 40
200.0
  9
$DIMRND
 40
0.0
  9
$DIMDLE
 40
0.0
  9
$DIMEXE
 40
20.0
  9
$DIMTP
 40
0.0
  9
$DIMTM
 40
0.0
  9
$DIMTXT
 40
64.0
  9
$DIMCEN
 40
0.09
  9
$DIMTSZ
 40
0.0
  9
$DIMTOL
 70
     0
  9
$DIMLIM
 70
     0
  9
$DIMTIH
 70
     0
  9
$DIMTOH
 70
     0
  9
$DIMSE1
 70
     0
  9
$DIMSE2
 70
     0
  9
$DIMTAD
 70
     1
  9
$DIMZIN
 70
     8
  9
$DIMBLK
  1

  9
$DIMASO
 70
     1
  9
$DIMSHO
 70
     0
  9
$DIMPOST
  1

  9
$DIMAPOST
  1

  9
$DIMALT
 70
     0
  9
$DIMALTD
 70
     2
  9
$DIMALTF
 40
25.399999999999999
  9
$DIMLFAC
 40
1.0
  9
$DIMTOFL
 70
     1
  9
$DIMTVP
 40
0.0
  9
$DIMTIX
 70
     1
  9
$DIMSOXD
 70
     0
  9
$DIMSAH
 70
     0
  9
$DIMBLK1
  1

  9
$DIMBLK2
  1

  9
$DIMSTYLE
  2
STANDARD
  9
$DIMCLRD
 70
     7
  9
$DIMCLRE
 70
     7
  9
$DIMCLRT
 70
     7
  9
$DIMTFAC
 40
1.0
  9
$DIMGAP
 40
25.0
  9
$LUNITS
 70
     2
  9
$LUPREC
 70
     4
  9
$SKETCHINC
 40
0.1
  9
$FILLETRAD
 40
3.0
  9
$AUNITS
 70
     1
  9
$AUPREC
 70
     3
  9
$MENU
  1
ACAD
  9
$ELEVATION
 40
0.0
  9
$PELEVATION
 40
0.0
  9
$THICKNESS
 40
0.0
  9
$LIMCHECK
 70
     0
  9
$CHAMFERA
 40
0.0
  9
$CHAMFERB
 40
0.0
  9
$SKPOLY
 70
     0
  9
$TDCREATE
 40
2453019.62301037
  9
$TDUPDATE
 40
2459362.652851181
  9
$TDINDWG
 40
1.7205483912
  9
$TDUSRTIMER
 40
1.7205483912
  9
$USRTIMER
 70
     1
  9
$ANGBASE
 50
0.0
  9
$ANGDIR
 70
     0
  9
$PDMODE
 70
     3
  9
$PDSIZE
 40
-2.0
  9
$PLINEWID
 40
0.0
  9
$SPLFRAME
 70
     0
  9
$SPLINETYPE
 70
     6
  9
$SPLINESEGS
 70
     8
  9
$SURFTAB1
 70
     6
  9
$SURFTAB2
 70
     6
  9
$SURFTYPE
 70
     6
  9
$SURFU
 70
     6
  9
$SURFV
 70
     6
  9
$UCSNAME
  2

  9
$UCSORG
 10
0.0
 20
0.0
 30
0.0
  9
$UCSXDIR
 10
1.0
 20
0.0
 30
0.0
  9
$UCSYDIR
 10
0.0
 20
1.0
 30
0.0
  9
$PUCSNAME
  2

  9
$PUCSORG
 10
0.0
 20
0.0
 30
0.0
  9
$PUCSXDIR
 10
1.0
 20
0.0
 30
0.0
  9
$PUCSYDIR
 10
0.0
 20
1.0
 30
0.0
  9
$USERI1
 70
     0
  9
$USERI2
 70
     0
  9
$USERI3
 70
     0
  9
$USERI4
 70
     0
  9
$USERI5
 70
     0
  9
$USERR1
 40
20.0
  9
$USERR2
 40
0.0
  9
$USERR3
 40
0.0
  9
$USERR4
 40
0.0
  9
$USERR5
 40
0.0
  9
$WORLDVIEW
 70
     1
  9
$SHADEDGE
 70
     3
  9
$SHADEDIF
 70
    70
  9
$TILEMODE
 70
     1
  9
$MAXACTVP
 70
    48
  9
$PINSBASE
 10
0.0
 20
0.0
 30
0.0
  9
$PLIMCHECK
 70
     0
  9
$PEXTMIN
 10
-100000000000000000000.0
 20
-100000000000000000000.0
 30
-100000000000000000000.0
  9
$PEXTMAX
 10
100000000000000000000.0
 20
100000000000000000000.0
 30
100000000000000000000.0
  9
$PLIMMIN
 10
0.0
 20
0.0
  9
$PLIMMAX
 10
12.0
 20
9.0
  9
$UNITMODE
 70
     0
  9
$VISRETAIN
 70
     0
  9
$PLINEGEN
 70
     0
  9
$PSLTSCALE
 70
     0
  9
$TREEDEPTH
 70
  3020
  9
$ATTDIA
 70
     0
  9
$ATTREQ
 70
     1
  9
$BLIPMODE
 70
     1
  9
$COORDS
 70
     1
  9
$DRAGMODE
 70
     2
  9
$OSMODE
 70
     0
  9
$HANDLING
 70
     0
  9
$HANDSEED
  5
10634
  0
ENDSEC
  0
SECTION
  2
TABLES
  0
TABLE
  2
LTYPE
 70
     2
  0
LTYPE
  2
CONTINUOUS
 70
     0
  3
実線
 72
    65
 73
     0
 40
0.0
  0
LTYPE
  2
DASHDOT
 70
     0
  3
____ _ ____ _ ____ _ ____ _ ____ _ ____ _ ____
 72
    65
 73
     4
 40
5.5
 49
4.0
 49
-0.6
 49
0.3
 49
-0.6
  0
ENDTAB
  0
TABLE
  2
LAYER
 70
    12
  0
LAYER
  2
0
 70
     0
 62
     7
  6
CONTINUOUS
  0
LAYER
  2
BASIS
 70
     0
 62
     6
  6
DASHDOT
  0
LAYER
  2
OUTLINE
 70
     0
 62
     3
  6
CONTINUOUS
  0
LAYER
  2
DETAIL
 70
     0
 62
     5
  6
CONTINUOUS
  0
LAYER
  2
SIZE
 70
     0
 62
    30
  6
CONTINUOUS
  0
LAYER
  2
ARRANGE
 70
     0
 62
     1
  6
CONTINUOUS
  0
LAYER
  2
DEFPOINTS
 70
     0
 62
     7
  6
CONTINUOUS
  0
LAYER
  2
ETC
 70
     0
 62
    61
  6
CONTINUOUS
  0
LAYER
  2
FIX
 70
     0
 62
    11
  6
CONTINUOUS
  0
LAYER
  2
NOTE
 70
     0
 62
     4
  6
CONTINUOUS
  0
LAYER
  2
SERVICESPACE
 70
    64
 62
     2
  6
DASHDOT
  0
LAYER
  2
SYMBOLLINE
 70
    64
 62
    15
  6
CONTINUOUS
  0
ENDTAB
  0
TABLE
  2
STYLE
 70
     1
  0
STYLE
  2
STANDARD
 70
     0
 40
64.0
 41
0.9
 50
0.0
 71
     0
 42
64.0
  3
SIMPLEX.shx
  4
BIGFONT.shx
  0
ENDTAB
  0
TABLE
  2
APPID
 70
    20
  0
APPID
  2
ACAD
 70
     0
  0
APPID
  2
AUTOCAD_POSTSCRIPT_FIGURE
 70
     0
  0
APPID
  2
ACAD_EXEMPT_FROM_CAD_STANDARDS
 70
     0
  0
APPID
  2
ACAD_PSEXT
 70
     0
  0
APPID
  2
ACAUTHENVIRON
 70
     0
  0
APPID
  2
GENIUS_GENOENT_13
 70
     0
  0
APPID
  2
GENIUS_GENCFG_13
 70
     0
  0
APPID
  2
GENIUS_GENCFG0_13
 70
     0
  0
APPID
  2
GENIUS_GENCFG1_13
 70
     0
  0
APPID
  2
GENIUS_GENCFG2_13
 70
     0
  0
APPID
  2
GENIUS_GENCFG3_13
 70
     0
  0
APPID
  2
GENIUS_GENCFG4_13
 70
     0
  0
APPID
  2
GENIUS_GEVCFG0_13
 70
     0
  0
APPID
  2
CONTENTBLOCKICON
 70
     0
  0
APPID
  2
CONTENTBLOCKDESCRIPTION
 70
     0
  0
APPID
  2
ACAD_NAV_VCDISPLAY
 70
     0
  0
APPID
  2
ACAD_MLEADERVER
 70
     0
  0
APPID
  2
ACDBDYNAMICBLOCKTRUENAME
 70
     0
  0
APPID
  2
ACDBDYNAMICBLOCKGUID
 70
     0
  0
APPID
  2
ACAD_DSTYLE_DIMRADIAL_EXTENSION
 70
     0
  0
ENDTAB
  0
TABLE
  2
DIMSTYLE
 70
     1
  0
DIMSTYLE
  2
STANDARD
 70
     0
  3

  4

  5
_ORIGIN
  6

  7

 40
1.0
 41
12.0
 42
20.0
 43
200.0
 44
20.0
 45
0.0
 46
0.0
 47
0.0
 48
0.0
140
64.0
141
0.09
142
0.0
143
25.399999999999999
144
1.0
145
0.0
146
1.0
147
25.0
 71
     0
 72
     0
 73
     0
 74
     0
 75
     0
 76
     0
 77
     1
 78
     8
170
     0
171
     2
172
     1
173
     0
174
     1
175
     0
176
     7
177
     7
178
     7
  0
ENDTAB
  0
TABLE
  2
VIEW
 70
     1
  0
VIEW
  2
ALL
 70
     0
 40
4282.6198079999986
 10
0.0
 20
41.309904000000003
 41
5940.0
 11
0.0
 21
0.0
 31
1.0
 12
0.0
 22
0.0
 32
0.0
 42
50.0
 43
0.0
 44
0.0
 50
0.0
 71
     0
  0
ENDTAB
  0
TABLE
  2
UCS
 70
     0
  0
ENDTAB
  0
TABLE
  2
VPORT
 70
     1
  0
VPORT
  2
*ACTIVE
 70
     0
 10
0.0
 20
0.0
 11
1.0
 21
1.0
 12
259.44901925913109
 22
-95.809926856088168
 13
0.0
 23
0.0
 14
1.0
 24
1.0
 15
0.0
 25
0.0
 16
0.0
 26
0.0
 36
1.0
 17
0.0
 27
0.0
 37
0.0
 40
600.2713974280922
 41
2.0992248062015499
 42
50.0
 43
0.0
 44
0.0
 50
0.0
 51
0.0
 71
     0
 72
  1000
 73
     1
 74
     3
 75
     0
 76
     0
 77
     0
 78
     0
  0
ENDTAB
  0
ENDSEC
  0
SECTION
  2
BLOCKS
  0
BLOCK
  8
0
  2
_ORIGIN
 70
     0
 10
0.0
 20
0.0
 30
0.0
  3
_ORIGIN
  1
_ORIGIN
  0
CIRCLE
  8
SIZE
  6
CONTINUOUS
 62
    30
 10
0.0
 20
0.0
 30
0.0
 40
0.5
  0
LINE
  8
SIZE
  6
CONTINUOUS
 62
    30
 10
0.0
 20
0.0
 30
0.0
 11
-1.0
 21
0.0
 31
0.0
  0
ENDBLK
  8
0
  0
ENDSEC
  0
SECTION
  2
ENTITIES
  0
CIRCLE
  8
DETAIL
  6
CONTINUOUS
 62
     5
 10
115.8297139608467
 20
-25.119504069744831
 30
0.0
 40
5.0
  0
LINE
  8
DETAIL
  6
CONTINUOUS
 62
     5
 10
-160.0
 20
-5.0
 30
0.0
 11
-160.0
 21
0.0
 31
0.0
  0
LINE
  8
DETAIL
  6
CONTINUOUS
 62
     5
 10
-143.7563209110003
 20
-10.0
 30
0.0
 11
-143.7563209110003
 21
-12.99999999999636
 31
0.0
  0
LINE
  8
DETAIL
  6
CONTINUOUS
 62
     5
 10
-133.97938543300009
 20
-16.799999999995631
 30
0.0
 11
-133.97938543300009
 21
-13.200000000000729
 31
0.0
  0
LINE
  8
DETAIL
  6
CONTINUOUS
 62
     5
 10
-128.97938543300009
 20
-16.999999999996358
 30
0.0
 11
-128.97938543300009
 21
-12.99999999999636
 31
0.0
  0
LINE
  8
DETAIL
  6
CONTINUOUS
 62
     5
 10
-128.5
 20
-45.0
 30
0.0
 11
-128.5
 21
-44.200000000000728
 31
0.0
  0
LINE
  8
DETAIL
  6
CONTINUOUS
 62
     5
 10
-127.5450521249995
 20
-16.0
 30
0.0
 11
-127.5450521249995
 21
-77.499462299001607
 31
0.0
  0
LINE
  8
DETAIL
  6
CONTINUOUS
 62
     5
 10
-125.616689296
 20
-16.0
 30
0.0
 11
-125.616689296
 21
-77.499462299001607
 31
0.0
  0
LINE
  8
DETAIL
  6
CONTINUOUS
 62
     5
 10
-110.1137443919997
 20
-16.799999999995631
 30
0.0
 11
-110.1137443919997
 21
-13.200000000000729
 31
0.0
  0
LINE
  8
DETAIL
  6
CONTINUOUS
 62
     5
 10
-106.46557821799981
 20
-16.999999999996358
 30
0.0
 11
-106.46557821799981
 21
-77.499462299001607
 31
0.0
  0
LINE
  8
DETAIL
  6
CONTINUOUS
 62
     5
 10
-105.1137443919997
 20
-16.999999999996358
 30
0.0
 11
-105.1137443919997
 21
-12.99999999999636
 31
0.0
  0
LINE
  8
DETAIL
  6
CONTINUOUS
 62
     5
 10
-100.1137443919997
 20
-16.799999999995631
 30
0.0
 11
-100.1137443919997
 21
-13.200000000000729
 31
0.0
  0
LINE
  8
DETAIL
  6
CONTINUOUS
 62
     5
 10
-85.836808914000358
 20
-10.0
 30
0.0
 11
-85.836808914000358
 21
-12.99999999999636
 31
0.0
  0
LINE
  8
DETAIL
  6
CONTINUOUS
 62
     5
 10
42.0
 20
-163.59995660799899
 30
0.0
 11
-42.0
 21
-163.59995660799899
 31
0.0
  0
LINE
  8
DETAIL
  6
CONTINUOUS
 62
     5
 10
67.867859318999763
 20
-137.8867079539996
 30
0.0
 11
64.037637104000169
 21
-140.77345929999859
 31
0.0
  0
LINE
  8
DETAIL
  6
CONTINUOUS
 62
     5
 10
56.292143649000543
 20
-137.8867079539996
 30
0.0
 11
52.461921433000498
 21
-140.77345929999859
 31
0.0
  0
LINE
  8
DETAIL
  6
CONTINUOUS
 62
     5
 10
-63.955137619999732
 20
-140.77345929999859
 30
0.0
 11
-67.78535983599977
 21
-137.8867079539996
 31
0.0
  0
LINE
  8
DETAIL
  6
CONTINUOUS
 62
     5
 10
-52.464470973999603
 20
-140.77345929999859
 30
0.0
 11
-56.2946931890001
 21
-137.8867079539996
 31
0.0
  0
LINE
  8
DETAIL
  6
CONTINUOUS
 62
     5
 10
-43.942087733000328
 20
-147.49995660799689
 30
0.0
 11
-73.334284141999888
 21
-147.49995660799689
 31
0.0
  0
LINE
  8
DETAIL
  6
CONTINUOUS
 62
     5
 10
43.94208773399987
 20
-147.49995660799689
 30
0.0
 11
73.334284142999422
 21
-147.49995660799689
 31
0.0
  0
LINE
  8
DETAIL
  6
CONTINUOUS
 62
     5
 10
-72.682006072000149
 20
-122.49995660799689
 30
0.0
 11
-72.682006072000149
 21
-121.9999566080005
 31
0.0
  0
LINE
  8
DETAIL
  6
CONTINUOUS
 62
     5
 10
-70.753643242999715
 20
-122.49995660799689
 30
0.0
 11
-70.753643242999715
 21
-121.9999566080005
 31
0.0
  0
LINE
  8
DETAIL
  6
CONTINUOUS
 62
     5
 10
-67.78535983599977
 20
-137.8867079539996
 30
0.0
 11
-67.78535983599977
 21
-132.11320526199779
 31
0.0
  0
LINE
  8
DETAIL
  6
CONTINUOUS
 62
     5
 10
-63.5
 20
-115.99995660799689
 30
0.0
 11
-63.5
 21
-111.9999566080005
 31
0.0
  0
LINE
  8
DETAIL
  6
CONTINUOUS
 62
     5
 10
-62.050000000000182
 20
-111.9999566080005
 30
0.0
 11
-62.050000000000182
 21
-108.7999566079998
 31
0.0
  0
LINE
  8
DETAIL
  6
CONTINUOUS
 62
     5
 10
-60.022437298000114
 20
-111.9999566080005
 30
0.0
 11
-60.022437298000114
 21
-108.7999566079998
 31
0.0
  0
LINE
  8
DETAIL
  6
CONTINUOUS
 62
     5
 10
-59.5
 20
-108.7999566079998
 30
0.0
 11
-59.5
 21
-105.99995660799689
 31
0.0
  0
LINE
  8
DETAIL
  6
CONTINUOUS
 62
     5
 10
64.037637104000169
 20
-140.77345929999859
 30
0.0
 11
61.110756422999657
 21
-140.77345929999859
 31
0.0
  0
LINE
  8
DETAIL
  6
CONTINUOUS
 62
     5
 10
52.461921433000498
 20
-140.77345929999859
 30
0.0
 11
49.535040752999521
 21
-140.77345929999859
 31
0.0
  0
LINE
  8
DETAIL
  6
CONTINUOUS
 62
     5
 10
-63.955137619999732
 20
-140.77345929999859
 30
0.0
 11
-61.028256939999658
 21
-140.77345929999859
 31
0.0
  0
LINE
  8
DETAIL
  6
CONTINUOUS
 62
     5
 10
-52.464470973999603
 20
-140.77345929999859
 30
0.0
 11
-49.537590292999987
 21
-140.77345929999859
 31
0.0
  0
LINE
  8
DETAIL
  6
CONTINUOUS
 62
     5
 10
64.037637104000169
 20
-129.22645391599869
 30
0.0
 11
61.110756422999657
 21
-129.22645391599869
 31
0.0
  0
LINE
  8
DETAIL
  6
CONTINUOUS
 62
     5
 10
52.461921433000498
 20
-129.22645391699919
 30
0.0
 11
49.535040752999521
 21
-129.22645391699919
 31
0.0
  0
LINE
  8
DETAIL
  6
CONTINUOUS
 62
     5
 10
-63.955137619999732
 20
-129.22645391599869
 30
0.0
 11
-61.028256939999658
 21
-129.22645391599869
 31
0.0
  0
LINE
  8
DETAIL
  6
CONTINUOUS
 62
     5
 10
-52.464470973999603
 20
-129.22645391599869
 30
0.0
 11
-49.537590292999987
 21
-129.22645391599869
 31
0.0
  0
LINE
  8
DETAIL
  6
CONTINUOUS
 62
     5
 10
-56.5
 20
-108.7999566079998
 30
0.0
 11
-56.5
 21
-105.99995660799689
 31
0.0
  0
LINE
  8
DETAIL
  6
CONTINUOUS
 62
     5
 10
-56.2946931890001
 20
-137.8867079539996
 30
0.0
 11
-56.2946931890001
 21
-132.11320526199779
 31
0.0
  0
LINE
  8
DETAIL
  6
CONTINUOUS
 62
     5
 10
-55.977562701000352
 20
-111.9999566080005
 30
0.0
 11
-55.977562701000352
 21
-108.7999566079998
 31
0.0
  0
LINE
  8
DETAIL
  6
CONTINUOUS
 62
     5
 10
-53.949999999999818
 20
-111.9999566080005
 30
0.0
 11
-53.949999999999818
 21
-108.7999566079998
 31
0.0
  0
LINE
  8
DETAIL
  6
CONTINUOUS
 62
     5
 10
-49.5
 20
-156.09995660799899
 30
0.0
 11
-49.5
 21
-147.49995660799689
 31
0.0
  0
LINE
  8
DETAIL
  6
CONTINUOUS
 62
     5
 10
-42.081681360999937
 20
-122.9999566080005
 30
0.0
 11
-32.481681361000483
 21
-122.9999566080005
 31
0.0
  0
LINE
  8
DETAIL
  6
CONTINUOUS
 62
     5
 10
32.481681362000018
 20
-122.9999566080005
 30
0.0
 11
42.081681361999472
 21
-122.9999566080005
 31
0.0
  0
LINE
  8
DETAIL
  6
CONTINUOUS
 62
     5
 10
-44.718977518000429
 20
-122.49995660799689
 30
0.0
 11
-71.323421829999461
 21
-122.49995660799689
 31
0.0
  0
LINE
  8
DETAIL
  6
CONTINUOUS
 62
     5
 10
44.801477001999963
 20
-122.49995660799689
 30
0.0
 11
71.405921313999897
 21
-122.49995660799689
 31
0.0
  0
LINE
  8
DETAIL
  6
CONTINUOUS
 62
     5
 10
-68.82528041400019
 20
-118.9999566080005
 30
0.0
 11
68.82528041400019
 21
-118.9999566080005
 31
0.0
  0
LINE
  8
DETAIL
  6
CONTINUOUS
 62
     5
 10
-68.82528041400019
 20
-115.99995660799689
 30
0.0
 11
68.82528041400019
 21
-115.99995660799689
 31
0.0
  0
LINE
  8
DETAIL
  6
CONTINUOUS
 62
     5
 10
-63.499877848000317
 20
-111.9999566080005
 30
0.0
 11
63.499877847999407
 21
-111.9999566080005
 31
0.0
  0
LINE
  8
DETAIL
  6
CONTINUOUS
 62
     5
 10
-42.420844188999581
 20
-144.4999566080005
 30
0.0
 11
-42.420844188999581
 21
-125.4999566080005
 31
0.0
  0
LINE
  8
DETAIL
  6
CONTINUOUS
 62
     5
 10
-42.281681360999762
 20
-122.7999566079998
 30
0.0
 11
-42.281681360999762
 21
-119.19995660799761
 31
0.0
  0
LINE
  8
DETAIL
  6
CONTINUOUS
 62
     5
 10
-42.281681360999762
 20
-111.9999566080005
 30
0.0
 11
-42.281681360999762
 21
-106.9999566080005
 31
0.0
  0
LINE
  8
DETAIL
  6
CONTINUOUS
 62
     5
 10
-41.643954403999487
 20
-122.9999566080005
 30
0.0
 11
-41.643954403999487
 21
-144.4999566080005
 31
0.0
  0
LINE
  8
DETAIL
  6
CONTINUOUS
 62
     5
 10
-40.281681360999762
 20
-106.9999566080005
 30
0.0
 11
-40.281681360999762
 21
-104.99995660799689
 31
0.0
  0
LINE
  8
DETAIL
  6
CONTINUOUS
 62
     5
 10
-37.281681360999762
 20
-122.9999566080005
 30
0.0
 11
-37.281681360999762
 21
-118.9999566080005
 31
0.0
  0
LINE
  8
DETAIL
  6
CONTINUOUS
 62
     5
 10
-37.281681360999762
 20
-111.9999566080005
 30
0.0
 11
-37.281681360999762
 21
-106.9999566080005
 31
0.0
  0
LINE
  8
DETAIL
  6
CONTINUOUS
 62
     5
 10
-34.281681360999762
 20
-106.9999566080005
 30
0.0
 11
-34.281681360999762
 21
-104.99995660799689
 31
0.0
  0
LINE
  8
DETAIL
  6
CONTINUOUS
 62
     5
 10
-32.281681360999762
 20
-122.7999566079998
 30
0.0
 11
-32.281681360999762
 21
-119.19995660799761
 31
0.0
  0
LINE
  8
DETAIL
  6
CONTINUOUS
 62
     5
 10
-32.281681360999762
 20
-111.9999566080005
 30
0.0
 11
-32.281681360999762
 21
-106.9999566080005
 31
0.0
  0
LINE
  8
DETAIL
  6
CONTINUOUS
 62
     5
 10
62.050000000000182
 20
-108.7999566079998
 30
0.0
 11
53.949999999999818
 21
-108.7999566079998
 31
0.0
  0
LINE
  8
DETAIL
  6
CONTINUOUS
 62
     5
 10
-53.949999999999818
 20
-108.7999566079998
 30
0.0
 11
-62.050000000000182
 21
-108.7999566079998
 31
0.0
  0
LINE
  8
DETAIL
  6
CONTINUOUS
 62
     5
 10
42.281681362000199
 20
-106.9999566080005
 30
0.0
 11
32.281681362000199
 21
-106.9999566080005
 31
0.0
  0
LINE
  8
DETAIL
  6
CONTINUOUS
 62
     5
 10
-32.281681360999762
 20
-106.9999566080005
 30
0.0
 11
-42.281681360999762
 21
-106.9999566080005
 31
0.0
  0
LINE
  8
DETAIL
  6
CONTINUOUS
 62
     5
 10
59.494698137000341
 20
-105.99995660799689
 30
0.0
 11
56.505301864000103
 21
-105.99995660799689
 31
0.0
  0
LINE
  8
DETAIL
  6
CONTINUOUS
 62
     5
 10
-56.505301862999659
 20
-105.99995660799689
 30
0.0
 11
-59.494698135999897
 21
-105.99995660799689
 31
0.0
  0
LINE
  8
DETAIL
  6
CONTINUOUS
 62
     5
 10
40.281681362000199
 20
-104.99995660799689
 30
0.0
 11
34.281681362000199
 21
-104.99995660799689
 31
0.0
  0
LINE
  8
DETAIL
  6
CONTINUOUS
 62
     5
 10
-34.281681360999762
 20
-104.99995660799689
 30
0.0
 11
-40.281681360999762
 21
-104.99995660799689
 31
0.0
  0
LINE
  8
DETAIL
  6
CONTINUOUS
 62
     5
 10
-56.2946931890001
 20
-132.11320526199779
 30
0.0
 11
-52.464470973999603
 21
-129.22645391599869
 31
0.0
  0
LINE
  8
DETAIL
  6
CONTINUOUS
 62
     5
 10
-67.78535983599977
 20
-132.11320526199779
 30
0.0
 11
-63.955137619999732
 21
-129.22645391599869
 31
0.0
  0
LINE
  8
BASIS
  6
DASHDOT
 62
     6
 10
0.0
 20
-194.68036032199959
 30
0.0
 11
0.0
 21
50.0
 31
0.0
  0
LINE
  8
DETAIL
  6
CONTINUOUS
 62
     5
 10
52.461921433000498
 20
-129.22645391699919
 30
0.0
 11
56.292143649000543
 21
-132.11320526199779
 31
0.0
  0
LINE
  8
DETAIL
  6
CONTINUOUS
 62
     5
 10
64.037637104000169
 20
-129.22645391599869
 30
0.0
 11
67.867859318999763
 21
-132.11320526199779
 31
0.0
  0
LINE
  8
DETAIL
  6
CONTINUOUS
 62
     5
 10
38.699999999999818
 20
-59.39995660799832
 30
0.0
 11
-38.700000000000728
 21
-59.399956608002867
 31
0.0
  0
LINE
  8
DETAIL
  6
CONTINUOUS
 62
     5
 10
128.5
 20
-45.0
 30
0.0
 11
127.62755160799949
 21
-45.0
 31
0.0
  0
LINE
  8
DETAIL
  6
CONTINUOUS
 62
     5
 10
106.5480777009998
 20
-45.0
 30
0.0
 11
-106.46557821799981
 21
-45.0
 31
0.0
  0
LINE
  8
DETAIL
  6
CONTINUOUS
 62
     5
 10
-127.5450521249995
 20
-45.0
 30
0.0
 11
-128.5
 21
-45.0
 31
0.0
  0
LINE
  8
DETAIL
  6
CONTINUOUS
 62
     5
 10
128.5
 20
-44.200000000000728
 30
0.0
 11
127.62755160799949
 21
-44.200000000000728
 31
0.0
  0
LINE
  8
DETAIL
  6
CONTINUOUS
 62
     5
 10
106.5480777009998
 20
-44.200000000000728
 30
0.0
 11
-106.46557821799981
 21
-44.200000000000728
 31
0.0
  0
LINE
  8
DETAIL
  6
CONTINUOUS
 62
     5
 10
-127.5450521249995
 20
-44.200000000000728
 30
0.0
 11
-128.5
 21
-44.200000000000728
 31
0.0
  0
LINE
  8
DETAIL
  6
CONTINUOUS
 62
     5
 10
32.281681362000199
 20
-122.7999566079998
 30
0.0
 11
32.281681362000199
 21
-119.19995660799761
 31
0.0
  0
LINE
  8
DETAIL
  6
CONTINUOUS
 62
     5
 10
32.281681362000199
 20
-111.9999566080005
 30
0.0
 11
32.281681362000199
 21
-106.9999566080005
 31
0.0
  0
LINE
  8
DETAIL
  6
CONTINUOUS
 62
     5
 10
34.281681362000199
 20
-106.9999566080005
 30
0.0
 11
34.281681362000199
 21
-104.99995660799689
 31
0.0
  0
LINE
  8
DETAIL
  6
CONTINUOUS
 62
     5
 10
37.281681362000199
 20
-122.9999566080005
 30
0.0
 11
37.281681362000199
 21
-118.9999566080005
 31
0.0
  0
LINE
  8
DETAIL
  6
CONTINUOUS
 62
     5
 10
37.281681362000199
 20
-111.9999566080005
 30
0.0
 11
37.281681362000199
 21
-106.9999566080005
 31
0.0
  0
LINE
  8
DETAIL
  6
CONTINUOUS
 62
     5
 10
40.281681362000199
 20
-106.9999566080005
 30
0.0
 11
40.281681362000199
 21
-104.99995660799689
 31
0.0
  0
LINE
  8
DETAIL
  6
CONTINUOUS
 62
     5
 10
41.643954404999931
 20
-122.9999566080005
 30
0.0
 11
41.643954404999931
 21
-144.4999566080005
 31
0.0
  0
LINE
  8
DETAIL
  6
CONTINUOUS
 62
     5
 10
42.281681362000199
 20
-122.7999566079998
 30
0.0
 11
42.281681362000199
 21
-119.19995660799761
 31
0.0
  0
LINE
  8
DETAIL
  6
CONTINUOUS
 62
     5
 10
42.281681362000199
 20
-111.9999566080005
 30
0.0
 11
42.281681362000199
 21
-106.9999566080005
 31
0.0
  0
LINE
  8
DETAIL
  6
CONTINUOUS
 62
     5
 10
42.503343673000018
 20
-144.4999566080005
 30
0.0
 11
42.503343673000018
 21
-125.4999566080005
 31
0.0
  0
LINE
  8
DETAIL
  6
CONTINUOUS
 62
     5
 10
49.5
 20
-156.09995660799899
 30
0.0
 11
49.5
 21
-147.49995660799689
 31
0.0
  0
LINE
  8
DETAIL
  6
CONTINUOUS
 62
     5
 10
49.199999999999818
 20
-107.49995660799689
 30
0.0
 11
49.199999999999818
 21
-69.899956608001958
 31
0.0
  0
LINE
  8
DETAIL
  6
CONTINUOUS
 62
     5
 10
53.949999999999818
 20
-111.9999566080005
 30
0.0
 11
53.949999999999818
 21
-108.7999566079998
 31
0.0
  0
LINE
  8
DETAIL
  6
CONTINUOUS
 62
     5
 10
55.977562701999886
 20
-111.9999566080005
 30
0.0
 11
55.977562701999886
 21
-108.7999566079998
 31
0.0
  0
LINE
  8
DETAIL
  6
CONTINUOUS
 62
     5
 10
56.292143649000543
 20
-132.11320526199779
 30
0.0
 11
56.292143649000543
 21
-137.8867079539996
 31
0.0
  0
LINE
  8
DETAIL
  6
CONTINUOUS
 62
     5
 10
56.5
 20
-108.7999566079998
 30
0.0
 11
56.5
 21
-105.99995660799689
 31
0.0
  0
LINE
  8
DETAIL
  6
CONTINUOUS
 62
     5
 10
59.5
 20
-108.7999566079998
 30
0.0
 11
59.5
 21
-105.99995660799689
 31
0.0
  0
LINE
  8
DETAIL
  6
CONTINUOUS
 62
     5
 10
60.022437299000558
 20
-111.9999566080005
 30
0.0
 11
60.022437299000558
 21
-108.7999566079998
 31
0.0
  0
LINE
  8
DETAIL
  6
CONTINUOUS
 62
     5
 10
62.050000000000182
 20
-111.9999566080005
 30
0.0
 11
62.050000000000182
 21
-108.7999566079998
 31
0.0
  0
LINE
  8
DETAIL
  6
CONTINUOUS
 62
     5
 10
-133.77938543300019
 20
-16.999999999996358
 30
0.0
 11
-127.5450521249995
 21
-16.999999999996358
 31
0.0
  0
LINE
  8
DETAIL
  6
CONTINUOUS
 62
     5
 10
-109.9137443919999
 20
-16.999999999996358
 30
0.0
 11
-100.31374439199951
 21
-16.999999999996358
 31
0.0
  0
LINE
  8
DETAIL
  6
CONTINUOUS
 62
     5
 10
127.62755160799949
 20
-16.999999999996358
 30
0.0
 11
133.77938543399981
 21
-16.999999999996358
 31
0.0
  0
LINE
  8
DETAIL
  6
CONTINUOUS
 62
     5
 10
-143.7563209110003
 20
-12.99999999999636
 30
0.0
 11
-127.02343166999979
 21
-12.99999999999636
 31
0.0
  0
LINE
  8
DETAIL
  6
CONTINUOUS
 62
     5
 10
-123.68832646700049
 20
-12.99999999999636
 30
0.0
 11
-85.836808914000358
 21
-12.99999999999636
 31
0.0
  0
LINE
  8
DETAIL
  6
CONTINUOUS
 62
     5
 10
129.55591443700001
 20
-12.99999999999636
 30
0.0
 11
143.75632091199989
 21
-12.99999999999636
 31
0.0
  0
LINE
  8
DETAIL
  6
CONTINUOUS
 62
     5
 10
-155.0
 20
-10.0
 30
0.0
 11
155.0
 21
-10.0
 31
0.0
  0
LINE
  8
DETAIL
  6
CONTINUOUS
 62
     5
 10
63.5
 20
-115.99995660799689
 30
0.0
 11
63.5
 21
-111.9999566080005
 31
0.0
  0
LINE
  8
DETAIL
  6
CONTINUOUS
 62
     5
 10
67.867859318999763
 20
-132.11320526199779
 30
0.0
 11
67.867859318999763
 21
-137.8867079539996
 31
0.0
  0
LINE
  8
DETAIL
  6
CONTINUOUS
 62
     5
 10
70.753643242999715
 20
-122.49995660799689
 30
0.0
 11
70.753643242999715
 21
-121.9999566080005
 31
0.0
  0
LINE
  8
DETAIL
  6
CONTINUOUS
 62
     5
 10
72.682006072000149
 20
-122.49995660799689
 30
0.0
 11
72.682006072000149
 21
-121.9999566080005
 31
0.0
  0
LINE
  8
DETAIL
  6
CONTINUOUS
 62
     5
 10
-160.0
 20
0.0
 30
0.0
 11
160.0
 21
0.0
 31
0.0
  0
LINE
  8
DETAIL
  6
CONTINUOUS
 62
     5
 10
106.5480777009998
 20
-77.499462299001607
 30
0.0
 11
106.5480777009998
 21
-16.0
 31
0.0
  0
LINE
  8
DETAIL
  6
CONTINUOUS
 62
     5
 10
125.699188779
 20
-16.0
 30
0.0
 11
125.699188779
 21
-77.499462299001607
 31
0.0
  0
LINE
  8
DETAIL
  6
CONTINUOUS
 62
     5
 10
127.62755160799949
 20
-16.0
 30
0.0
 11
127.62755160799949
 21
-77.499462299001607
 31
0.0
  0
LINE
  8
DETAIL
  6
CONTINUOUS
 62
     5
 10
128.5
 20
-45.0
 30
0.0
 11
128.5
 21
-44.200000000000728
 31
0.0
  0
LINE
  8
DETAIL
  6
CONTINUOUS
 62
     5
 10
128.9793854339996
 20
-16.999999999996358
 30
0.0
 11
128.97952337686641
 21
-13.36078133595038
 31
0.0
  0
LINE
  8
DETAIL
  6
CONTINUOUS
 62
     5
 10
133.9793854339996
 20
-16.799999999995631
 30
0.0
 11
133.9793854339996
 21
-13.200000000000729
 31
0.0
  0
LINE
  8
DETAIL
  6
CONTINUOUS
 62
     5
 10
143.75632091199989
 20
-10.0
 30
0.0
 11
143.75632091199989
 21
-12.99999999999636
 31
0.0
  0
LINE
  8
DETAIL
  6
CONTINUOUS
 62
     5
 10
160.0
 20
-5.0
 30
0.0
 11
160.0
 21
0.0
 31
0.0
  0
ARC
  8
DETAIL
  6
CONTINUOUS
 62
     5
 10
-42.0
 20
-156.09995660799899
 30
0.0
 40
7.5
 50
180.0
 51
270.0
  0
ARC
  8
DETAIL
  6
CONTINUOUS
 62
     5
 10
-53.699999999999818
 20
-107.49995660799689
 30
0.0
 40
4.5
 50
270.0
 51
0.0
  0
ARC
  8
DETAIL
  6
CONTINUOUS
 62
     5
 10
-32.481681361000483
 20
-122.7999566079998
 30
0.0
 40
0.2
 50
270.0
 51
0.0
  0
ARC
  8
DETAIL
  6
CONTINUOUS
 62
     5
 10
-42.081681360999937
 20
-122.7999566079998
 30
0.0
 40
0.2
 50
180.00000000010431
 51
269.99999999989569
  0
ARC
  8
DETAIL
  6
CONTINUOUS
 62
     5
 10
-42.081681360999937
 20
-119.19995660799761
 30
0.0
 40
0.2
 50
90.000000000104222
 51
180.00000000010431
  0
ARC
  8
DETAIL
  6
CONTINUOUS
 62
     5
 10
-32.481681361000483
 20
-119.19995660799761
 30
0.0
 40
0.2
 50
0.0
 51
90.0
  0
ARC
  8
DETAIL
  6
CONTINUOUS
 62
     5
 10
-155.0
 20
-5.0
 30
0.0
 40
5.0
 50
180.0
 51
270.0
  0
ARC
  8
DETAIL
  6
CONTINUOUS
 62
     5
 10
-133.77938543300019
 20
-16.799999999995631
 30
0.0
 40
0.2
 50
180.00000000010431
 51
269.99999999989569
  0
ARC
  8
DETAIL
  6
CONTINUOUS
 62
     5
 10
-133.77938543300019
 20
-13.200000000000729
 30
0.0
 40
0.2
 50
90.000000000104222
 51
180.00000000010431
  0
ARC
  8
DETAIL
  6
CONTINUOUS
 62
     5
 10
-100.31374439199951
 20
-16.799999999995631
 30
0.0
 40
0.2
 50
270.0
 51
0.0
  0
ARC
  8
DETAIL
  6
CONTINUOUS
 62
     5
 10
-109.9137443919999
 20
-16.799999999995631
 30
0.0
 40
0.2
 50
180.00000000010431
 51
269.99999999989569
  0
ARC
  8
DETAIL
  6
CONTINUOUS
 62
     5
 10
-100.31374439199951
 20
-13.200000000000729
 30
0.0
 40
0.2
 50
0.0
 51
90.0
  0
ARC
  8
DETAIL
  6
CONTINUOUS
 62
     5
 10
-109.9137443919999
 20
-13.200000000000729
 30
0.0
 40
0.2
 50
90.000000000104222
 51
180.00000000010431
  0
ARC
  8
DETAIL
  6
CONTINUOUS
 62
     5
 10
155.0
 20
-5.0
 30
0.0
 40
5.0
 50
270.0
 51
0.0
  0
ARC
  8
DETAIL
  6
CONTINUOUS
 62
     5
 10
71.40515326700006
 20
-109.33997533500219
 30
0.0
 40
38.159981281
 50
270.00115319296037
 51
272.8953602862714
  0
ARC
  8
DETAIL
  6
CONTINUOUS
 62
     5
 10
38.699999999999818
 20
-69.899956608001958
 30
0.0
 40
10.5
 50
0.0
 51
90.0
  0
ARC
  8
DETAIL
  6
CONTINUOUS
 62
     5
 10
42.0
 20
-156.09995660799899
 30
0.0
 40
7.5
 50
270.0
 51
0.0
  0
ARC
  8
DETAIL
  6
CONTINUOUS
 62
     5
 10
53.699999999999818
 20
-107.49995660799689
 30
0.0
 40
4.5
 50
180.0
 51
270.0
  0
ARC
  8
DETAIL
  6
CONTINUOUS
 62
     5
 10
133.77938543399981
 20
-13.200000000000729
 30
0.0
 40
0.2
 50
0.0
 51
90.0
  0
ARC
  8
DETAIL
  6
CONTINUOUS
 62
     5
 10
42.081681361999472
 20
-122.7999566079998
 30
0.0
 40
0.2
 50
270.0
 51
0.0
  0
ARC
  8
DETAIL
  6
CONTINUOUS
 62
     5
 10
32.481681362000018
 20
-122.7999566079998
 30
0.0
 40
0.2
 50
180.00000000010431
 51
269.99999999989569
  0
ARC
  8
DETAIL
  6
CONTINUOUS
 62
     5
 10
32.481681362000018
 20
-119.19995660799761
 30
0.0
 40
0.2
 50
90.000000000104222
 51
180.00000000010431
  0
ARC
  8
DETAIL
  6
CONTINUOUS
 62
     5
 10
42.081681361999472
 20
-119.19995660799761
 30
0.0
 40
0.2
 50
0.0
 51
90.0
  0
ARC
  8
DETAIL
  6
CONTINUOUS
 62
     5
 10
133.77938543399981
 20
-16.799999999995631
 30
0.0
 40
0.2
 50
269.99999999989569
 51
0.0
  0
LINE
  8
SIZE
  6
CONTINUOUS
 62
    30
 10
180.00000000000011
 20
0.0000000000000032
 30
0.0
 11
325.43454674590708
 21
0.0000000000000266
 31
0.0
  0
LINE
  8
SIZE
  6
CONTINUOUS
 62
    30
 10
175.00000000000011
 20
-10.0
 30
0.0
 11
325.43454674590708
 21
-9.9999999999999751
 31
0.0
  0
LINE
  8
SIZE
  6
CONTINUOUS
 62
    30
 10
305.43454674590708
 20
-21.999999999999979
 30
0.0
 11
305.43454674590708
 21
-33.999999999999979
 31
0.0
  0
LINE
  8
SIZE
  6
CONTINUOUS
 62
    30
 10
305.43454674590708
 20
12.00000000000002
 30
0.0
 11
305.43454674590703
 21
156.28571428571439
 31
0.0
  0
LINE
  8
SIZE
  6
CONTINUOUS
 62
    30
 10
305.43454674590708
 20
-9.9999999999999787
 30
0.0
 11
305.43454674590708
 21
0.0000000000000234
 31
0.0
  0
CIRCLE
  8
SIZE
  6
CONTINUOUS
 62
    30
 10
305.43454674590708
 20
-9.9999999999999787
 30
0.0
 40
6.0
  0
LINE
  8
SIZE
  6
CONTINUOUS
 62
    30
 10
305.43454674590708
 20
-9.9999999999999787
 30
0.0
 11
305.43454674590708
 21
-21.999999999999979
 31
0.0
  0
CIRCLE
  8
SIZE
  6
CONTINUOUS
 62
    30
 10
305.43454674590708
 20
0.0000000000000234
 30
0.0
 40
6.0
  0
LINE
  8
SIZE
  6
CONTINUOUS
 62
    30
 10
305.43454674590708
 20
0.0000000000000234
 30
0.0
 11
305.43454674590708
 21
12.000000000000023
 31
0.0
  0
TEXT
  8
SIZE
  6
CONTINUOUS
 62
    30
 10
280.43454674590697
 20
41.758857142857181
 30
0.0
 40
64.0
  1
10
 50
90.0
 41
0.9
 51
0.0
  7
STANDARD
 71
     0
 72
     1
 11
280.43454674590703
 21
90.142857142857196
 31
0.0
210
0.0
220
0.0
230
1.0
  0
POINT
  8
DEFPOINTS
  6
CONTINUOUS
 62
    30
 10
160.00000000000011
 20
0.0
 30
0.0
  0
POINT
  8
DEFPOINTS
  6
CONTINUOUS
 62
    30
 10
155.00000000000011
 20
-10.0
 30
0.0
  0
POINT
  8
DEFPOINTS
  6
CONTINUOUS
 62
    30
 10
305.43454674590708
 20
-9.9999999999999787
 30
0.0
  0
LINE
  8
SIZE
  6
CONTINUOUS
 62
    30
 10
-62.000000000000021
 20
-163.5999566079991
 30
0.0
 11
-403.48199001679211
 21
-163.59995660799919
 31
0.0
  0
LINE
  8
SIZE
  6
CONTINUOUS
 62
    30
 10
-180.00000000000011
 20
-0.0000000000000032
 30
0.0
 11
-403.48199001679222
 21
-0.0000000000000392
 31
0.0
  0
LINE
  8
SIZE
  6
CONTINUOUS
 62
    30
 10
-383.48199001679211
 20
-175.59995660799919
 30
0.0
 11
-383.48199001679211
 21
-187.59995660799919
 31
0.0
  0
LINE
  8
SIZE
  6
CONTINUOUS
 62
    30
 10
-383.48199001679211
 20
11.99999999999997
 30
0.0
 11
-383.48199001679211
 21
23.999999999999972
 31
0.0
  0
LINE
  8
SIZE
  6
CONTINUOUS
 62
    30
 10
-383.48199001679211
 20
-163.59995660799919
 30
0.0
 11
-383.48199001679211
 21
-0.0000000000000359
 31
0.0
  0
CIRCLE
  8
SIZE
  6
CONTINUOUS
 62
    30
 10
-383.48199001679211
 20
-163.59995660799919
 30
0.0
 40
6.0
  0
LINE
  8
SIZE
  6
CONTINUOUS
 62
    30
 10
-383.48199001679211
 20
-163.59995660799919
 30
0.0
 11
-383.48199001679211
 21
-175.59995660799919
 31
0.0
  0
CIRCLE
  8
SIZE
  6
CONTINUOUS
 62
    30
 10
-383.48199001679211
 20
-0.0000000000000359
 30
0.0
 40
6.0
  0
LINE
  8
SIZE
  6
CONTINUOUS
 62
    30
 10
-383.48199001679211
 20
-0.0000000000000359
 30
0.0
 11
-383.48199001679211
 21
11.999999999999964
 31
0.0
  0
TEXT
  8
SIZE
  6
CONTINUOUS
 62
    30
 10
-408.48199001679211
 20
-156.96797830399947
 30
0.0
 40
64.0
  1
164
 50
90.0
 41
0.9
 51
0.0
  7
STANDARD
 71
     0
 72
     1
 11
-408.48199001679211
 21
-81.799978303999467
 31
0.0
210
0.0
220
0.0
230
1.0
  0
POINT
  8
DEFPOINTS
  6
CONTINUOUS
 62
    30
 10
-42.000000000000007
 20
-163.5999566079991
 30
0.0
  0
POINT
  8
DEFPOINTS
  6
CONTINUOUS
 62
    30
 10
-160.00000000000011
 20
0.0
 30
0.0
  0
POINT
  8
DEFPOINTS
  6
CONTINUOUS
 62
    30
 10
-383.48199001679211
 20
-0.0000000000000359
 30
0.0
  0
ARC
  8
DETAIL
  6
CONTINUOUS
 62
     5
 10
-71.451360147189916
 20
-93.310650649520539
 30
0.0
 40
54.222009212418428
 50
216.26324739562421
 51
268.00993555294849
  0
ARC
  8
DETAIL
  6
CONTINUOUS
 62
     5
 10
-32.668427002324073
 20
-78.521836308188128
 30
0.0
 40
94.882133425020967
 50
179.38261454206449
 51
209.59629336132761
  0
LINE
  8
SIZE
  6
CONTINUOUS
 62
    30
 10
-148.50000000000011
 20
-45.000000000000021
 30
0.0
 11
-257.66624844484261
 21
-45.000000000000043
 31
0.0
  0
LINE
  8
SIZE
  6
CONTINUOUS
 62
    30
 10
-180.00000000000011
 20
-0.0000000000000032
 30
0.0
 11
-257.66624844484261
 21
-0.0000000000000157
 31
0.0
  0
LINE
  8
SIZE
  6
CONTINUOUS
 62
    30
 10
-237.66624844484261
 20
-57.000000000000043
 30
0.0
 11
-237.66624844484261
 21
-69.000000000000043
 31
0.0
  0
LINE
  8
SIZE
  6
CONTINUOUS
 62
    30
 10
-237.66624844484261
 20
11.999999999999989
 30
0.0
 11
-237.66624844484261
 21
167.25714285714281
 31
0.0
  0
LINE
  8
SIZE
  6
CONTINUOUS
 62
    30
 10
-237.66624844484261
 20
-45.000000000000028
 30
0.0
 11
-237.66624844484261
 21
-0.0000000000000125
 31
0.0
  0
CIRCLE
  8
SIZE
  6
CONTINUOUS
 62
    30
 10
-237.66624844484261
 20
-45.000000000000028
 30
0.0
 40
6.0
  0
LINE
  8
SIZE
  6
CONTINUOUS
 62
    30
 10
-237.66624844484261
 20
-45.000000000000028
 30
0.0
 11
-237.66624844484261
 21
-57.000000000000028
 31
0.0
  0
CIRCLE
  8
SIZE
  6
CONTINUOUS
 62
    30
 10
-237.66624844484261
 20
-0.0000000000000125
 30
0.0
 40
6.0
  0
LINE
  8
SIZE
  6
CONTINUOUS
 62
    30
 10
-237.66624844484261
 20
-0.0000000000000125
 30
0.0
 11
-237.66624844484261
 21
11.999999999999988
 31
0.0
  0
TEXT
  8
SIZE
  6
CONTINUOUS
 62
    30
 10
-262.66624844484261
 20
41.484571428571471
 30
0.0
 40
64.0
  1
45
 50
90.0
 41
0.9
 51
0.0
  7
STANDARD
 71
     0
 72
     1
 11
-262.66624844484261
 21
95.628571428571476
 31
0.0
210
0.0
220
0.0
230
1.0
  0
POINT
  8
DEFPOINTS
  6
CONTINUOUS
 62
    30
 10
-128.50000000000011
 20
-45.000000000000007
 30
0.0
  0
POINT
  8
DEFPOINTS
  6
CONTINUOUS
 62
    30
 10
-160.00000000000011
 20
0.0
 30
0.0
  0
POINT
  8
DEFPOINTS
  6
CONTINUOUS
 62
    30
 10
-237.66624844484261
 20
-0.0000000000000125
 30
0.0
  0
ARC
  8
DETAIL
  6
CONTINUOUS
 62
     5
 10
-68.69459533709869
 20
-92.178816545084374
 30
0.0
 40
55.515360487586769
 50
215.70587330453591
 51
265.20592091553209
  0
ARC
  8
DETAIL
  6
CONTINUOUS
 62
     5
 10
-29.938764916303779
 20
-78.461908182026079
 30
0.0
 40
95.682764987664441
 50
179.42366823270299
 51
208.81469730256151
  0
ARC
  8
DETAIL
  6
CONTINUOUS
 62
     5
 10
71.350954249720417
 20
-92.9571164725985
 30
0.0
 40
54.578887928403773
 50
272.08251690473651
 51
323.55107829005419
  0
ARC
  8
DETAIL
  6
CONTINUOUS
 62
     5
 10
30.47650999087244
 20
-77.934078825278334
 30
0.0
 40
97.152013766147959
 50
330.76477445014348
 51
0.2563176485714977
  0
ARC
  8
DETAIL
  6
CONTINUOUS
 62
     5
 10
69.212144693031405
 20
-92.665570466327154
 30
0.0
 40
54.878190225619832
 50
272.28941188698411
 51
324.44170383167801
  0
ARC
  8
DETAIL
  6
CONTINUOUS
 62
     5
 10
27.607033151457781
 20
-77.85463584900468
 30
0.0
 40
98.092798634296145
 50
331.55417795473738
 51
0.2074565122102002
  0
ARC
  8
DETAIL
  6
CONTINUOUS
 62
     5
 10
67.258059528695412
 20
-121.24687450810509
 30
0.0
 40
5.4759774245160129
 50
352.09536404322921
 51
73.369450374305416
  0
ARC
  8
DETAIL
  6
CONTINUOUS
 62
     5
 10
68.041669971131341
 20
-121.6234155581933
 30
0.0
 40
2.7379887124529589
 50
352.09536404681012
 51
73.369450370824637
  0
ARC
  8
DETAIL
  6
CONTINUOUS
 62
     5
 10
-67.258059528695412
 20
-121.24687450810509
 30
0.0
 40
5.4759774245160129
 50
106.6305496256946
 51
187.90463595677079
  0
ARC
  8
DETAIL
  6
CONTINUOUS
 62
     5
 10
-68.041669971131341
 20
-121.6234155581933
 30
0.0
 40
2.7379887124529589
 50
106.63054962917541
 51
187.90463595318991
  0
ARC
  8
DETAIL
  6
CONTINUOUS
 62
     5
 10
-121.7994803699212
 20
-15.453654601190459
 30
0.0
 40
5.7714892434764504
 50
109.1032727035512
 51
185.43191287884861
  0
ARC
  8
DETAIL
  6
CONTINUOUS
 62
     5
 10
-122.1394175710675
 20
-16.11538331351403
 30
0.0
 40
3.4791855308451418
 50
116.4356847861723
 51
178.09950079634919
  0
ARC
  8
DETAIL
  6
CONTINUOUS
 62
     5
 10
131.4447605340774
 20
-15.453654601190459
 30
0.0
 40
5.7714892434764504
 50
109.1032727035512
 51
185.43191287884861
  0
ARC
  8
DETAIL
  6
CONTINUOUS
 62
     5
 10
131.10482333293109
 20
-16.11538331351403
 30
0.0
 40
3.4791855308451418
 50
116.4356847861723
 51
178.09950079634919
  0
ARC
  8
DETAIL
  6
CONTINUOUS
 62
     5
 10
55.631845174252618
 20
-73.959537088247785
 30
0.0
 40
51.039139934126617
 50
288.00249590583542
 51
356.02293969828821
  0
ARC
  8
DETAIL
  6
CONTINUOUS
 62
     5
 10
-55.631845174252618
 20
-73.959537088247799
 30
0.0
 40
51.039139934126851
 50
183.97706030171179
 51
251.99750409416461
  0
ARC
  8
DETAIL
  6
CONTINUOUS
 62
     5
 10
113.6262308361574
 20
-16.310221401718991
 30
0.0
 40
7.0849480677583792
 50
117.044739811303
 51
177.49044575760291
  0
ARC
  8
DETAIL
  6
CONTINUOUS
 62
     5
 10
-44.732100642670957
 20
-144.5145354756678
 30
0.0
 40
3.0881806512569732
 50
284.82207455151791
 51
0.2704863427918997
  0
ARC
  8
DETAIL
  6
CONTINUOUS
 62
     5
 10
-45.665739284263509
 20
-144.3944588851291
 30
0.0
 40
3.2466096083136091
 50
286.95469994277289
 51
358.13786095146429
  0
ARC
  8
DETAIL
  6
CONTINUOUS
 62
     5
 10
44.732100642670957
 20
-144.5145354756678
 30
0.0
 40
3.0881806512569732
 50
179.72951365720809
 51
255.17792544848211
  0
ARC
  8
DETAIL
  6
CONTINUOUS
 62
     5
 10
45.540405948720952
 20
-144.57512284136371
 30
0.0
 40
3.0379923023658701
 50
178.58223884974939
 51
254.312804849483
  0
ARC
  8
DETAIL
  6
CONTINUOUS
 62
     5
 10
45.242182801628587
 20
-125.21779296977731
 30
0.0
 40
2.7533354483688122
 50
99.210524898642973
 51
185.88203599582411
  0
ARC
  8
DETAIL
  6
CONTINUOUS
 62
     5
 10
-45.329182211763509
 20
-125.3632828190366
 30
0.0
 40
2.9115476604787638
 50
357.30943436853391
 51
79.557678971388128
  0
LINE
  8
DETAIL
  6
CONTINUOUS
 62
     5
 10
-61.028256939999658
 20
-140.77345929999859
 30
0.0
 11
-57.198034723999633
 21
-137.8867079539996
 31
0.0
  0
LINE
  8
DETAIL
  6
CONTINUOUS
 62
     5
 10
-57.198034723999633
 20
-137.8867079539996
 30
0.0
 11
-57.198034723999633
 21
-132.11320526199779
 31
0.0
  0
LINE
  8
DETAIL
  6
CONTINUOUS
 62
     5
 10
-57.198034723999633
 20
-132.11320526199779
 30
0.0
 11
-61.028256939999658
 21
-129.22645391599869
 31
0.0
  0
LINE
  8
DETAIL
  6
CONTINUOUS
 62
     5
 10
-49.537590292999987
 20
-140.77345929999859
 30
0.0
 11
-45.707368076999963
 21
-137.8867079539996
 31
0.0
  0
LINE
  8
DETAIL
  6
CONTINUOUS
 62
     5
 10
-45.707368076999963
 20
-137.8867079539996
 30
0.0
 11
-45.707368076999963
 21
-132.11320526199779
 31
0.0
  0
LINE
  8
DETAIL
  6
CONTINUOUS
 62
     5
 10
-45.707368076999963
 20
-132.11320526199779
 30
0.0
 11
-49.537590292999987
 21
-129.22645391599869
 31
0.0
  0
LINE
  8
DETAIL
  6
CONTINUOUS
 62
     5
 10
61.110756422999657
 20
-140.77345929999859
 30
0.0
 11
57.280534208000063
 21
-137.8867079539996
 31
0.0
  0
LINE
  8
DETAIL
  6
CONTINUOUS
 62
     5
 10
57.280534208000063
 20
-137.8867079539996
 30
0.0
 11
57.280534208000063
 21
-132.11320526199779
 31
0.0
  0
LINE
  8
DETAIL
  6
CONTINUOUS
 62
     5
 10
57.280534208000063
 20
-132.11320526199779
 30
0.0
 11
61.110756422999657
 21
-129.22645391599869
 31
0.0
  0
LINE
  8
DETAIL
  6
CONTINUOUS
 62
     5
 10
49.535040752999521
 20
-140.77345929999859
 30
0.0
 11
45.704818537999927
 21
-137.8867079539996
 31
0.0
  0
LINE
  8
DETAIL
  6
CONTINUOUS
 62
     5
 10
45.704818537999927
 20
-137.8867079539996
 30
0.0
 11
45.704818537999927
 21
-132.11320526199779
 31
0.0
  0
LINE
  8
DETAIL
  6
CONTINUOUS
 62
     5
 10
45.704818537999927
 20
-132.11320526199779
 30
0.0
 11
49.535040752999521
 21
-129.22645391599869
 31
0.0
  0
LINE
  8
SIZE
  6
CONTINUOUS
 62
    30
 10
160.0
 20
20.0
 30
0.0
 11
160.0
 21
230.96859704970669
 31
0.0
  0
LINE
  8
SIZE
  6
CONTINUOUS
 62
    30
 10
-160.0
 20
20.0
 30
0.0
 11
-160.0
 21
230.96859704970669
 31
0.0
  0
LINE
  8
SIZE
  6
CONTINUOUS
 62
    30
 10
148.0
 20
210.96859704970669
 30
0.0
 11
-148.0
 21
210.96859704970669
 31
0.0
  0
CIRCLE
  8
SIZE
  6
CONTINUOUS
 62
    30
 10
160.0
 20
210.96859704970669
 30
0.0
 40
6.0
  0
LINE
  8
SIZE
  6
CONTINUOUS
 62
    30
 10
160.0
 20
210.96859704970669
 30
0.0
 11
148.0
 21
210.96859704970669
 31
0.0
  0
CIRCLE
  8
SIZE
  6
CONTINUOUS
 62
    30
 10
-160.0
 20
210.96859704970669
 30
0.0
 40
6.0
  0
LINE
  8
SIZE
  6
CONTINUOUS
 62
    30
 10
-160.0
 20
210.96859704970669
 30
0.0
 11
-148.0
 21
210.96859704970669
 31
0.0
  0
TEXT
  8
SIZE
  6
CONTINUOUS
 62
    30
 10
-80.927999999999997
 20
235.96859704970672
 30
0.0
 40
64.0
  1
320
 50
0.0
 41
0.9
 51
0.0
  7
STANDARD
 71
     0
 72
     1
 11
0.0
 21
235.96859704970672
 31
0.0
210
0.0
220
0.0
230
1.0
  0
POINT
  8
DEFPOINTS
  6
CONTINUOUS
 62
    30
 10
160.0
 20
0.0
 30
0.0
  0
POINT
  8
DEFPOINTS
  6
CONTINUOUS
 62
    30
 10
-160.0
 20
0.0
 30
0.0
  0
POINT
  8
DEFPOINTS
  6
CONTINUOUS
 62
    30
 10
-160.0
 20
210.96859704970669
 30
0.0
  0
LINE
  8
SIZE
  6
CONTINUOUS
 62
    30
 10
-128.5
 20
-65.0
 30
0.0
 11
-128.5
 21
-503.02855069544512
 31
0.0
  0
LINE
  8
SIZE
  6
CONTINUOUS
 62
    30
 10
128.5
 20
-65.0
 30
0.0
 11
128.5
 21
-503.02855069544512
 31
0.0
  0
LINE
  8
SIZE
  6
CONTINUOUS
 62
    30
 10
-116.5
 20
-483.02855069544512
 30
0.0
 11
116.5
 21
-483.02855069544512
 31
0.0
  0
CIRCLE
  8
SIZE
  6
CONTINUOUS
 62
    30
 10
-128.5
 20
-483.02855069544512
 30
0.0
 40
6.0
  0
LINE
  8
SIZE
  6
CONTINUOUS
 62
    30
 10
-128.5
 20
-483.02855069544512
 30
0.0
 11
-116.5
 21
-483.02855069544512
 31
0.0
  0
CIRCLE
  8
SIZE
  6
CONTINUOUS
 62
    30
 10
128.5
 20
-483.02855069544512
 30
0.0
 40
6.0
  0
LINE
  8
SIZE
  6
CONTINUOUS
 62
    30
 10
128.5
 20
-483.02855069544512
 30
0.0
 11
116.5
 21
-483.02855069544512
 31
0.0
  0
TEXT
  8
SIZE
  6
CONTINUOUS
 62
    30
 10
-114.91200000000003
 20
-458.02855069544512
 30
0.0
 40
64.0
  1
φ257
 50
0.0
 41
0.9
 51
0.0
  7
STANDARD
 71
     0
 72
     1
 11
-0.0000000000000284
 21
-458.02855069544512
 31
0.0
210
0.0
220
0.0
230
1.0
  0
POINT
  8
DEFPOINTS
  6
CONTINUOUS
 62
    30
 10
-128.5
 20
-45.0
 30
0.0
  0
POINT
  8
DEFPOINTS
  6
CONTINUOUS
 62
    30
 10
128.5
 20
-45.0
 30
0.0
  0
POINT
  8
DEFPOINTS
  6
CONTINUOUS
 62
    30
 10
128.5
 20
-483.02855069544512
 30
0.0
  0
LINE
  8
BASIS
  6
DASHDOT
 62
     6
 10
-140.0
 20
20.73928719599644
 30
0.0
 11
-140.0
 21
-20.739287195003271
 31
0.0
  0
LINE
  8
BASIS
  6
DASHDOT
 62
     6
 10
159.76906066999979
 20
0.0
 30
0.0
 11
124.7309393309997
 21
0.0
 31
0.0
  0
LINE
  8
BASIS
  6
DASHDOT
 62
     6
 10
-123.76071280399989
 20
0.0
 30
0.0
 11
-160.73928719500049
 21
0.0
 31
0.0
  0
LINE
  8
BASIS
  6
DASHDOT
 62
     6
 10
140.0
 20
19.769060669998002
 30
0.0
 11
140.0
 21
-19.769060669001188
 31
0.0
  0
CIRCLE
  8
FIX
  6
CONTINUOUS
 62
    11
 10
140.0
 20
0.0
 30
0.0
 40
5.0
  0
CIRCLE
  8
FIX
  6
CONTINUOUS
 62
    11
 10
-140.0
 20
0.0
 30
0.0
 40
5.0
  0
LINE
  8
SIZE
  6
CONTINUOUS
 62
    30
 10
140.0
 20
39.769060669997998
 30
0.0
 11
140.0
 21
111.75014603217819
 31
0.0
  0
LINE
  8
SIZE
  6
CONTINUOUS
 62
    30
 10
-140.0
 20
40.73928719599644
 30
0.0
 11
-140.0
 21
111.75014603217819
 31
0.0
  0
LINE
  8
SIZE
  6
CONTINUOUS
 62
    30
 10
128.0
 20
91.750146032178236
 30
0.0
 11
-128.0
 21
91.750146032178236
 31
0.0
  0
CIRCLE
  8
SIZE
  6
CONTINUOUS
 62
    30
 10
140.0
 20
91.750146032178236
 30
0.0
 40
6.0
  0
LINE
  8
SIZE
  6
CONTINUOUS
 62
    30
 10
140.0
 20
91.750146032178236
 30
0.0
 11
128.0
 21
91.750146032178236
 31
0.0
  0
CIRCLE
  8
SIZE
  6
CONTINUOUS
 62
    30
 10
-140.0
 20
91.750146032178236
 30
0.0
 40
6.0
  0
LINE
  8
SIZE
  6
CONTINUOUS
 62
    30
 10
-140.0
 20
91.750146032178236
 30
0.0
 11
-128.0
 21
91.750146032178236
 31
0.0
  0
TEXT
  8
SIZE
  6
CONTINUOUS
 62
    30
 10
-80.927999999999997
 20
116.75014603217821
 30
0.0
 40
64.0
  1
280
 50
0.0
 41
0.9
 51
0.0
  7
STANDARD
 71
     0
 72
     1
 11
0.0
 21
116.75014603217821
 31
0.0
210
0.0
220
0.0
230
1.0
  0
POINT
  8
DEFPOINTS
  6
CONTINUOUS
 62
    30
 10
140.0
 20
19.769060669998002
 30
0.0
  0
POINT
  8
DEFPOINTS
  6
CONTINUOUS
 62
    30
 10
-140.0
 20
20.73928719599644
 30
0.0
  0
POINT
  8
DEFPOINTS
  6
CONTINUOUS
 62
    30
 10
-140.0
 20
91.750146032178236
 30
0.0
  0
POINT
  8
ARRANGE
  6
CONTINUOUS
 62
     1
 10
0.0
 20
0.0
 30
0.0
 50
89.999999999999986
  0
LINE
  8
SIZE
  6
CONTINUOUS
 62
    30
 10
49.5
 20
-176.09995660799899
 30
0.0
 11
49.499999999999993
 21
-371.88370696710263
 31
0.0
  0
LINE
  8
SIZE
  6
CONTINUOUS
 62
    30
 10
-49.5
 20
-176.09995660799899
 30
0.0
 11
-49.500000000000007
 21
-371.88370696710263
 31
0.0
  0
LINE
  8
SIZE
  6
CONTINUOUS
 62
    30
 10
-37.500000000000007
 20
-351.88370696710263
 30
0.0
 11
37.499999999999993
 21
-351.88370696710263
 31
0.0
  0
LINE
  8
SIZE
  6
CONTINUOUS
 62
    30
 10
49.499999999999993
 20
-351.88370696710263
 30
0.0
 11
316.45249198105381
 21
-351.88370696710263
 31
0.0
  0
CIRCLE
  8
SIZE
  6
CONTINUOUS
 62
    30
 10
-49.500000000000007
 20
-351.88370696710263
 30
0.0
 40
6.0
  0
LINE
  8
SIZE
  6
CONTINUOUS
 62
    30
 10
-49.500000000000007
 20
-351.88370696710263
 30
0.0
 11
-37.500000000000007
 21
-351.88370696710263
 31
0.0
  0
CIRCLE
  8
SIZE
  6
CONTINUOUS
 62
    30
 10
49.499999999999993
 20
-351.88370696710263
 30
0.0
 40
6.0
  0
LINE
  8
SIZE
  6
CONTINUOUS
 62
    30
 10
49.499999999999993
 20
-351.88370696710263
 30
0.0
 11
37.499999999999993
 21
-351.88370696710263
 31
0.0
  0
TEXT
  8
SIZE
  6
CONTINUOUS
 62
    30
 10
132.01020626676808
 20
-326.88370696710263
 30
0.0
 40
64.0
  1
φ99
 50
0.0
 41
0.9
 51
0.0
  7
STANDARD
 71
     0
 72
     1
 11
220.13820626676807
 21
-326.88370696710263
 31
0.0
210
0.0
220
0.0
230
1.0
  0
POINT
  8
DEFPOINTS
  6
CONTINUOUS
 62
    30
 10
49.5
 20
-156.09995660799899
 30
0.0
  0
POINT
  8
DEFPOINTS
  6
CONTINUOUS
 62
    30
 10
-49.5
 20
-156.09995660799899
 30
0.0
  0
POINT
  8
DEFPOINTS
  6
CONTINUOUS
 62
    30
 10
-49.500000000000007
 20
-351.88370696710263
 30
0.0
  0
CIRCLE
  8
ARRANGE
  6
CONTINUOUS
 62
     1
 10
0.0
 20
0.0
 30
0.0
 40
40.0
  0
LINE
  8
DETAIL
  6
CONTINUOUS
 62
     5
 10
-49.199999999999818
 20
-107.49995660799689
 30
0.0
 11
-49.199999999999818
 21
-69.899956608001958
 31
0.0
  0
ARC
  8
DETAIL
  6
CONTINUOUS
 62
     5
 10
-38.699999999999818
 20
-69.899956608001958
 30
0.0
 40
10.5
 50
90.0
 51
180.0
  0
ARC
  8
DETAIL
  6
CONTINUOUS
 62
     5
 10
-50.169269811402962
 20
-202.8132408209303
 30
0.0
 40
199.16494993305619
 50
42.68630603211593
 51
52.407975421406412
  0
ARC
  8
DETAIL
  6
CONTINUOUS
 62
     5
 10
92.573695246352145
 20
-72.451183647109247
 30
0.0
 40
5.9313301706734878
 50
235.37639395220631
 51
51.915991157326658
  0
ARC
  8
DETAIL
  6
CONTINUOUS
 62
     5
 10
1788.148740112925
 20
2827.209912153025
 30
0.0
 40
3364.9336954200439
 50
238.60222481143239
 51
239.67548088432471
  0
ARC
  8
DETAIL
  6
CONTINUOUS
 62
     5
 10
-116.8306067101157
 20
206.59042077998669
 30
0.0
 40
298.13538832590018
 50
296.85154669590707
 51
301.54928845429902
  0
ARC
  8
DETAIL
  6
CONTINUOUS
 62
     5
 10
-116.8306067101157
 20
206.59042077998669
 30
0.0
 40
298.13538832590018
 50
278.09416860267282
 51
283.11141123838019
  0
ARC
  8
DETAIL
  6
CONTINUOUS
 62
     5
 10
-141.19236530407849
 20
175.17404126122619
 30
0.0
 40
270.76116113332921
 50
304.71379213692421
 51
305.57529718585931
  0
ARC
  8
DETAIL
  6
CONTINUOUS
 62
     5
 10
-141.19236530407849
 20
175.17404126122619
 30
0.0
 40
270.76116113332921
 50
302.67894707355629
 51
304.26293287112492
  0
ARC
  8
DETAIL
  6
CONTINUOUS
 62
     5
 10
-141.19236530407849
 20
175.17404126122619
 30
0.0
 40
270.76116113332921
 50
284.06224192729752
 51
288.46282792262838
  0
ARC
  8
DETAIL
  6
CONTINUOUS
 62
     5
 10
-74.901566820401968
 20
-87.910536359087928
 30
0.0
 40
0.6661768072807853
 50
138.9496636422794
 51
274.18043870050491
  0
ARC
  8
DETAIL
  6
CONTINUOUS
 62
     5
 10
-26.548257620464032
 20
-0.6599370356989311
 30
0.0
 40
85.991639031981109
 50
211.07861556907059
 51
254.72703093314081
  0
LINE
  8
DETAIL
  6
CONTINUOUS
 62
     5
 10
-6.5
 20
-54.899956608001958
 30
0.0
 11
-6.6274270879994219
 21
-55.806647456000057
 31
0.0
  0
LINE
  8
DETAIL
  6
CONTINUOUS
 62
     5
 10
-13.0
 20
-45.0
 30
0.0
 11
-13.0
 21
-47.999956608000502
 31
0.0
  0
LINE
  8
DETAIL
  6
CONTINUOUS
 62
     5
 10
-11.5
 20
-57.399956608001958
 30
0.0
 11
-11.5
 21
-58.39995660799832
 31
0.0
  0
LINE
  8
DETAIL
  6
CONTINUOUS
 62
     5
 10
-5.0
 20
-59.39995660799832
 30
0.0
 11
-5.0
 21
-58.39995660799832
 31
0.0
  0
LINE
  8
DETAIL
  6
CONTINUOUS
 62
     5
 10
-5.0
 20
-54.899956608001958
 30
0.0
 11
-5.0
 21
-48.599956607999047
 31
0.0
  0
LINE
  8
DETAIL
  6
CONTINUOUS
 62
     5
 10
5.0
 20
-59.39995660799832
 30
0.0
 11
5.0
 21
-58.39995660799832
 31
0.0
  0
LINE
  8
DETAIL
  6
CONTINUOUS
 62
     5
 10
5.0
 20
-54.899956608001958
 30
0.0
 11
5.0
 21
-48.599956607999047
 31
0.0
  0
LINE
  8
DETAIL
  6
CONTINUOUS
 62
     5
 10
11.5
 20
-57.399956608001958
 30
0.0
 11
11.5
 21
-58.39995660799832
 31
0.0
  0
LINE
  8
DETAIL
  6
CONTINUOUS
 62
     5
 10
13.0
 20
-45.0
 30
0.0
 11
13.0
 21
-47.999956608000502
 31
0.0
  0
LINE
  8
DETAIL
  6
CONTINUOUS
 62
     5
 10
6.5
 20
-54.899956608001958
 30
0.0
 11
6.6274270889998661
 21
-55.806647456000057
 31
0.0
  0
LINE
  8
DETAIL
  6
CONTINUOUS
 62
     5
 10
7.9820955780005534
 20
-57.092179851995752
 30
0.0
 11
11.5
 21
-57.399956608001958
 31
0.0
  0
LINE
  8
DETAIL
  6
CONTINUOUS
 62
     5
 10
-11.5
 20
-58.39995660799832
 30
0.0
 11
11.5
 21
-58.39995660799832
 31
0.0
  0
LINE
  8
DETAIL
  6
CONTINUOUS
 62
     5
 10
-11.5
 20
-57.399956608001958
 30
0.0
 11
11.5
 21
-57.399956608001958
 31
0.0
  0
LINE
  8
DETAIL
  6
CONTINUOUS
 62
     5
 10
-6.4994829440001922
 20
-54.899956608001958
 30
0.0
 11
6.4994829449997269
 21
-54.899956608001958
 31
0.0
  0
LINE
  8
DETAIL
  6
CONTINUOUS
 62
     5
 10
-12.400000000000549
 20
-48.599956607999047
 30
0.0
 11
12.400000000000549
 21
-48.599956607999047
 31
0.0
  0
LINE
  8
DETAIL
  6
CONTINUOUS
 62
     5
 10
-7.9820955770001092
 20
-57.092179851995752
 30
0.0
 11
-11.5
 21
-57.399956608001958
 31
0.0
  0
ARC
  8
DETAIL
  6
CONTINUOUS
 62
     5
 10
-12.400000000000549
 20
-47.999956608000502
 30
0.0
 40
0.6
 50
180.0
 51
270.0
  0
ARC
  8
DETAIL
  6
CONTINUOUS
 62
     5
 10
-8.1128291909999461
 20
-55.597887804000493
 30
0.0
 40
1.5
 50
274.99999999997362
 51
351.99999999996299
  0
ARC
  8
DETAIL
  6
CONTINUOUS
 62
     5
 10
8.1128291920003903
 20
-55.597887804000493
 30
0.0
 40
1.5
 50
188.00000000003701
 51
264.99999999992173
  0
ARC
  8
DETAIL
  6
CONTINUOUS
 62
     5
 10
12.400000000000549
 20
-47.999956608000502
 30
0.0
 40
0.6
 50
270.0
 51
0.0
  0
ARC
  8
OUTLINE
  6
CONTINUOUS
 62
     3
 10
-71.35095424972144
 20
-92.957116472600717
 30
0.0
 40
54.578887928401926
 50
216.44892170996559
 51
267.91748309534
  0
ARC
  8
OUTLINE
  6
CONTINUOUS
 62
     3
 10
-30.476509990825136
 20
-77.934078825276231
 30
0.0
 40
97.152013766195452
 50
179.74368235143629
 51
209.23522554978854
  0
LINE
  8
OUTLINE
  6
CONTINUOUS
 62
     3
 10
-127.6275516080004
 20
-77.499462299003426
 30
0.0
 11
-127.62755160799949
 21
-45.0
 31
0.0
  0
LINE
  8
OUTLINE
  6
CONTINUOUS
 62
     3
 10
-127.62755160799949
 20
-45.0
 30
0.0
 11
-128.5
 21
-45.0
 31
0.0
  0
LINE
  8
OUTLINE
  6
CONTINUOUS
 62
     3
 10
-128.5
 20
-45.0
 30
0.0
 11
-128.5
 21
-44.200000000000728
 31
0.0
  0
LINE
  8
OUTLINE
  6
CONTINUOUS
 62
     3
 10
-128.5
 20
-44.200000000000728
 30
0.0
 11
-127.62755160799949
 21
-44.200000000000728
 31
0.0
  0
LINE
  8
OUTLINE
  6
CONTINUOUS
 62
     3
 10
-127.62755160799949
 20
-44.200000000000728
 30
0.0
 11
-127.62755160799949
 21
-16.999999999996358
 31
0.0
  0
LINE
  8
OUTLINE
  6
CONTINUOUS
 62
     3
 10
-127.62755160799949
 20
-16.999999999996358
 30
0.0
 11
-133.9793854339996
 21
-16.999999999996358
 31
0.0
  0
LINE
  8
OUTLINE
  6
CONTINUOUS
 62
     3
 10
-133.9793854339996
 20
-16.999999999996358
 30
0.0
 11
-133.9793854339996
 21
-12.99999999999636
 31
0.0
  0
LINE
  8
OUTLINE
  6
CONTINUOUS
 62
     3
 10
-133.9793854339996
 20
-12.99999999999636
 30
0.0
 11
-143.75632091199989
 21
-12.99999999999636
 31
0.0
  0
LINE
  8
OUTLINE
  6
CONTINUOUS
 62
     3
 10
-143.75632091199989
 20
-12.99999999999636
 30
0.0
 11
-143.75632091199989
 21
-10.0
 31
0.0
  0
LINE
  8
OUTLINE
  6
CONTINUOUS
 62
     3
 10
-143.75632091199989
 20
-10.0
 30
0.0
 11
-155.0
 21
-10.0
 31
0.0
  0
ARC
  8
OUTLINE
  6
CONTINUOUS
 62
     3
 10
-155.0
 20
-5.0000000000000009
 30
0.0
 40
4.9999999999999991
 50
180.0
 51
270.0
  0
LINE
  8
OUTLINE
  6
CONTINUOUS
 62
     3
 10
-160.0
 20
-5.0
 30
0.0
 11
-160.0
 21
0.0
 31
0.0
  0
LINE
  8
OUTLINE
  6
CONTINUOUS
 62
     3
 10
-160.0
 20
0.0
 30
0.0
 11
160.0
 21
0.0
 31
0.0
  0
LINE
  8
OUTLINE
  6
CONTINUOUS
 62
     3
 10
160.0
 20
0.0
 30
0.0
 11
160.0
 21
-5.0
 31
0.0
  0
ARC
  8
OUTLINE
  6
CONTINUOUS
 62
     3
 10
155.0
 20
-5.0000000000000009
 30
0.0
 40
4.9999999999999991
 50
270.0
 51
0.0
  0
LINE
  8
OUTLINE
  6
CONTINUOUS
 62
     3
 10
155.0
 20
-10.0
 30
0.0
 11
153.48075306735339
 21
-10.0
 31
0.0
  0
LINE
  8
OUTLINE
  6
CONTINUOUS
 62
     3
 10
153.48075306735339
 20
-10.0
 30
0.0
 11
153.48075306735339
 21
-39.799999999999272
 31
0.0
  0
LINE
  8
OUTLINE
  6
CONTINUOUS
 62
     3
 10
153.48075306735339
 20
-39.799999999999272
 30
0.0
 11
127.5450521249995
 21
-39.799999999999272
 31
0.0
  0
LINE
  8
OUTLINE
  6
CONTINUOUS
 62
     3
 10
127.5450521249995
 20
-39.799999999999272
 30
0.0
 11
127.5450521249995
 21
-44.200000000000728
 31
0.0
  0
LINE
  8
OUTLINE
  6
CONTINUOUS
 62
     3
 10
127.5450521249995
 20
-44.200000000000728
 30
0.0
 11
128.5
 21
-44.200000000000728
 31
0.0
  0
LINE
  8
OUTLINE
  6
CONTINUOUS
 62
     3
 10
128.5
 20
-44.200000000000728
 30
0.0
 11
128.5
 21
-45.0
 31
0.0
  0
LINE
  8
OUTLINE
  6
CONTINUOUS
 62
     3
 10
128.5
 20
-45.0
 30
0.0
 11
127.5450521249995
 21
-45.0
 31
0.0
  0
LINE
  8
OUTLINE
  6
CONTINUOUS
 62
     3
 10
127.5450521249995
 20
-45.0
 30
0.0
 11
127.54505212499861
 21
-77.499462299011611
 31
0.0
  0
ARC
  8
OUTLINE
  6
CONTINUOUS
 62
     3
 10
32.668427002350384
 20
-78.521836308192277
 30
0.0
 40
94.882133424992986
 50
330.4037066386411
 51
0.6173854579539011
  0
ARC
  8
OUTLINE
  6
CONTINUOUS
 62
     3
 10
71.451360147189163
 20
-93.310650649519033
 30
0.0
 40
54.222009212419458
 50
273.05377022121138
 51
323.73675260438677
  0
LINE
  8
OUTLINE
  6
CONTINUOUS
 62
     3
 10
74.339935442698334
 20
-147.45566349275211
 30
0.0
 11
49.5
 21
-147.49995660799689
 31
0.0
  0
LINE
  8
OUTLINE
  6
CONTINUOUS
 62
     3
 10
49.5
 20
-147.49995660799689
 30
0.0
 11
49.5
 21
-156.09995660799899
 31
0.0
  0
ARC
  8
OUTLINE
  6
CONTINUOUS
 62
     3
 10
41.99999999999995
 20
-156.09995660799893
 30
0.0
 40
7.500000000000048
 50
270.0
 51
0.0
  0
LINE
  8
OUTLINE
  6
CONTINUOUS
 62
     3
 10
42.0
 20
-163.59995660799899
 30
0.0
 11
-42.0
 21
-163.59995660799899
 31
0.0
  0
ARC
  8
OUTLINE
  6
CONTINUOUS
 62
     3
 10
-41.99999999999995
 20
-156.09995660799893
 30
0.0
 40
7.500000000000048
 50
180.0
 51
270.0
  0
LINE
  8
OUTLINE
  6
CONTINUOUS
 62
     3
 10
-49.5
 20
-156.09995660799899
 30
0.0
 11
-49.5
 21
-147.49995660799689
 31
0.0
  0
LINE
  8
OUTLINE
  6
CONTINUOUS
 62
     3
 10
-49.5
 20
-147.49995660799689
 30
0.0
 11
-73.334284143000332
 21
-147.4999566079978
 31
0.0
  0
LINE
  8
DETAIL
  6
CONTINUOUS
 62
     5
 10
153.48075306735339
 20
-39.799999999999272
 30
0.0
 11
153.48075306735339
 21
-10.0
 31
0.0
  0
LINE
  8
DETAIL
  6
CONTINUOUS
 62
     5
 10
153.48075306735339
 20
-39.799999999999272
 30
0.0
 11
127.5450521249995
 21
-39.799999999999272
 31
0.0
  0
TEXT
  8
ETC
  6
CONTINUOUS
 62
    61
 10
385.09764360902591
 20
247.3786136022018
 30
0.0
 40
64.0
  1
EF-20YSXC2_6
 41
0.9
  0
TEXT
  8
ETC
  6
CONTINUOUS
 62
    61
 10
380.91164960902643
 20
129.42330358737041
 30
0.0
 40
64.0
  1
有圧換気扇
 41
0.9
  0
TEXT
  8
ETC
  6
CONTINUOUS
 62
    61
 10
431.61304785758148
 20
21.274530701145522
 30
0.0
 40
40.0
  1
EF-20YSXC2
 50
0.0
 41
0.9
 51
0.0
  7
STANDARD
 71
     0
 11
0.0
 21
0.0
 31
0.0
210
0.0
220
0.0
230
1.0
  0
TEXT
  8
NOTE
  6
CONTINUOUS
 62
     4
 10
272.76581387570599
 20
-229.58897001880001
 30
0.0
 40
64.0
  1
EL
 50
0.0
 41
0.9
 51
0.0
  7
STANDARD
 71
     0
 11
0.0
 21
0.0
 31
0.0
210
0.0
220
0.0
230
1.0
  0
LINE
  8
NOTE
  6
CONTINUOUS
 62
     4
 10
272.6758138757059
 20
-242.38897001880011
 30
0.0
 11
357.79438530427728
 21
-242.38897001880011
 31
0.0
  0
LINE
  8
NOTE
  6
CONTINUOUS
 62
     4
 10
125.01624606850416
 20
-54.788092005219255
 30
0.0
 11
115.8297139608467
 21
-25.119504069744831
 31
0.0
  0
LINE
  8
NOTE
  6
CONTINUOUS
 62
     4
 10
115.8297139608467
 20
-25.119504069744831
 30
0.0
 11
138.61980990371418
 21
-46.219954519081099
 31
0.0
  0
LINE
  8
NOTE
  6
CONTINUOUS
 62
     4
 10
115.8297139608467
 20
-25.119504069744831
 30
0.0
 11
147.80634201137161
 21
-75.88854245455552
 31
0.0
  0
LINE
  8
NOTE
  6
CONTINUOUS
 62
     4
 10
147.80634201137161
 20
-75.888542454555548
 30
0.0
 11
252.6758138757059
 21
-242.38897001880011
 31
0.0
  0
LINE
  8
NOTE
  6
CONTINUOUS
 62
     4
 10
252.6758138757059
 20
-242.38897001880011
 30
0.0
 11
272.6758138757059
 21
-242.38897001880011
 31
0.0
  0
TEXT
  8
NOTE
  6
CONTINUOUS
 62
     4
 10
239.97737579598919
 20
-124.20891881230909
 30
0.0
 40
64.0
  1
4-10×10
 50
0.0
 41
0.9
 51
0.0
  7
STANDARD
 71
     0
 11
0.0
 21
0.0
 31
0.0
210
0.0
220
0.0
230
1.0
  0
LINE
  8
NOTE
  6
CONTINUOUS
 62
     4
 10
239.8873757959891
 20
-137.0089188123093
 30
0.0
 11
618.49166151027475
 21
-137.0089188123093
 31
0.0
  0
LINE
  8
NOTE
  6
CONTINUOUS
 62
     4
 10
148.16701484861369
 20
-29.96526907458906
 30
0.0
 11
140.0
 21
0.0
 31
0.0
  0
LINE
  8
NOTE
  6
CONTINUOUS
 62
     4
 10
140.0
 20
0.0
 30
0.0
 11
162.05550982185881
 21
-21.867143589135949
 31
0.0
  0
LINE
  8
NOTE
  6
CONTINUOUS
 62
     4
 10
140.0
 20
0.0
 30
0.0
 11
170.2225246704725
 21
-51.832412663725009
 31
0.0
  0
LINE
  8
NOTE
  6
CONTINUOUS
 62
     4
 10
170.2225246704725
 20
-51.832412663724988
 30
0.0
 11
219.8873757959891
 21
-137.0089188123093
 31
0.0
  0
LINE
  8
NOTE
  6
CONTINUOUS
 62
     4
 10
219.8873757959891
 20
-137.0089188123093
 30
0.0
 11
239.8873757959891
 21
-137.0089188123093
 31
0.0
  0
ENDSEC
  0
EOF
