  0
SECTION
  2
HEADER
  9
$ACADVER
  1
AC1009
  9
$DWGCODEPAGE
  3
dos932
  9
$INSBASE
 10
0.0
 20
0.0
 30
0.0
  9
$EXTMIN
 10
-541.104109
 20
-404.708851
 30
-0.001526
  9
$EXTMAX
 10
693.374645
 20
566.848763
 30
50.001526
  9
$LIMMIN
 10
-2970.0
 20
-2100.0
  9
$LIMMAX
 10
2970.0
 20
2100.0
  9
$ORTHOMODE
 70
     1
  9
$REGENMODE
 70
     0
  9
$FILLMODE
 70
     1
  9
$QTEXTMODE
 70
     0
  9
$MIRRTEXT
 70
     0
  9
$DRAGMODE
 70
     2
  9
$LTSCALE
 40
20.0
  9
$OSMODE
 70
    33
  9
$ATTMODE
 70
     1
  9
$TEXTSIZE
 40
64.0
  9
$TRACEWID
 40
0.05
  9
$TEXTSTYLE
  7
STANDARD
  9
$CLAYER
  8
SIZE
  9
$CELTYPE
  6
CONTINUOUS
  9
$CECOLOR
 62
    30
  9
$DIMSCALE
 40
1.0
  9
$DIMASZ
 40
12.0
  9
$DIMEXO
 40
20.0
  9
$DIMDLI
 40
200.0
  9
$DIMRND
 40
0.0
  9
$DIMDLE
 40
0.0
  9
$DIMEXE
 40
20.0
  9
$DIMTP
 40
0.0
  9
$DIMTM
 40
0.0
  9
$DIMTXT
 40
64.0
  9
$DIMCEN
 40
0.09
  9
$DIMTSZ
 40
0.0
  9
$DIMTOL
 70
     0
  9
$DIMLIM
 70
     0
  9
$DIMTIH
 70
     0
  9
$DIMTOH
 70
     0
  9
$DIMSE1
 70
     0
  9
$DIMSE2
 70
     0
  9
$DIMTAD
 70
     1
  9
$DIMZIN
 70
     8
  9
$DIMBLK
  1
DOT1
  9
$DIMASO
 70
     1
  9
$DIMSHO
 70
     0
  9
$DIMPOST
  1

  9
$DIMAPOST
  1

  9
$DIMALT
 70
     0
  9
$DIMALTD
 70
     2
  9
$DIMALTF
 40
25.4
  9
$DIMLFAC
 40
1.0
  9
$DIMTOFL
 70
     1
  9
$DIMTVP
 40
0.0
  9
$DIMTIX
 70
     1
  9
$DIMSOXD
 70
     0
  9
$DIMSAH
 70
     1
  9
$DIMBLK1
  1
_ORIGIN
  9
$DIMBLK2
  1
_ORIGIN
  9
$DIMSTYLE
  2
STANDARD
  9
$DIMCLRD
 70
     7
  9
$DIMCLRE
 70
     7
  9
$DIMCLRT
 70
     7
  9
$DIMTFAC
 40
1.0
  9
$DIMGAP
 40
25.0
  9
$LUNITS
 70
     2
  9
$LUPREC
 70
     4
  9
$SKETCHINC
 40
0.1
  9
$FILLETRAD
 40
25.0
  9
$AUNITS
 70
     1
  9
$AUPREC
 70
     3
  9
$MENU
  1
ACAD
  9
$ELEVATION
 40
0.0
  9
$PELEVATION
 40
0.0
  9
$THICKNESS
 40
50.0
  9
$LIMCHECK
 70
     0
  9
$BLIPMODE
 70
     0
  9
$CHAMFERA
 40
0.0
  9
$CHAMFERB
 40
0.0
  9
$SKPOLY
 70
     0
  9
$TDCREATE
 40
2452809.681062396
  9
$TDUPDATE
 40
2452822.474215451
  9
$TDINDWG
 40
0.0916679167
  9
$TDUSRTIMER
 40
0.0916679167
  9
$USRTIMER
 70
     1
  9
$ANGBASE
 50
0.0
  9
$ANGDIR
 70
     0
  9
$PDMODE
 70
     3
  9
$PDSIZE
 40
-2.0
  9
$PLINEWID
 40
0.0
  9
$COORDS
 70
     2
  9
$SPLFRAME
 70
     0
  9
$SPLINETYPE
 70
     6
  9
$SPLINESEGS
 70
     8
  9
$ATTDIA
 70
     0
  9
$ATTREQ
 70
     1
  9
$HANDLING
 70
     0
  9
$HANDSEED
  5
3AFC
  9
$SURFTAB1
 70
     6
  9
$SURFTAB2
 70
     6
  9
$SURFTYPE
 70
     6
  9
$SURFU
 70
     6
  9
$SURFV
 70
     6
  9
$UCSNAME
  2

  9
$UCSORG
 10
0.0
 20
0.0
 30
0.0
  9
$UCSXDIR
 10
1.0
 20
0.0
 30
0.0
  9
$UCSYDIR
 10
0.0
 20
1.0
 30
0.0
  9
$PUCSNAME
  2

  9
$PUCSORG
 10
0.0
 20
0.0
 30
0.0
  9
$PUCSXDIR
 10
1.0
 20
0.0
 30
0.0
  9
$PUCSYDIR
 10
0.0
 20
1.0
 30
0.0
  9
$USERI1
 70
     0
  9
$USERI2
 70
     0
  9
$USERI3
 70
     0
  9
$USERI4
 70
     0
  9
$USERI5
 70
     0
  9
$USERR1
 40
20.0
  9
$USERR2
 40
0.0
  9
$USERR3
 40
0.0
  9
$USERR4
 40
0.0
  9
$USERR5
 40
0.0
  9
$WORLDVIEW
 70
     1
  9
$SHADEDGE
 70
     3
  9
$SHADEDIF
 70
    70
  9
$TILEMODE
 70
     1
  9
$MAXACTVP
 70
    48
  9
$PINSBASE
 10
0.0
 20
0.0
 30
0.0
  9
$PLIMCHECK
 70
     0
  9
$PEXTMIN
 10
100000000000000000000.0
 20
100000000000000000000.0
 30
100000000000000000000.0
  9
$PEXTMAX
 10
-100000000000000000000.0
 20
-100000000000000000000.0
 30
-100000000000000000000.0
  9
$PLIMMIN
 10
0.0
 20
0.0
  9
$PLIMMAX
 10
12.0
 20
9.0
  9
$UNITMODE
 70
     0
  9
$VISRETAIN
 70
     0
  9
$PLINEGEN
 70
     0
  9
$PSLTSCALE
 70
     0
  9
$TREEDEPTH
 70
  3020
  0
ENDSEC
  0
SECTION
  2
TABLES
  0
TABLE
  2
LTYPE
 70
     2
  0
LTYPE
  2
CONTINUOUS
 70
     0
  3
実線
 72
    65
 73
     0
 40
0.0
  0
LTYPE
  2
DASHDOT
 70
     0
  3
____ _ ____ _ ____ _ ____ _ ____ _ ____ _ ____
 72
    65
 73
     4
 40
5.5
 49
4.0
 49
-0.6
 49
0.3
 49
-0.6
  0
ENDTAB
  0
TABLE
  2
LAYER
 70
    12
  0
LAYER
  2
0
 70
     0
 62
     7
  6
CONTINUOUS
  0
LAYER
  2
BASIS
 70
     0
 62
     6
  6
DASHDOT
  0
LAYER
  2
OUTLINE
 70
     0
 62
     3
  6
CONTINUOUS
  0
LAYER
  2
DETAIL
 70
     0
 62
     5
  6
CONTINUOUS
  0
LAYER
  2
SIZE
 70
     0
 62
    30
  6
CONTINUOUS
  0
LAYER
  2
ARRANGE
 70
     0
 62
     1
  6
CONTINUOUS
  0
LAYER
  2
DEFPOINTS
 70
     0
 62
     7
  6
CONTINUOUS
  0
LAYER
  2
ETC
 70
     0
 62
    61
  6
CONTINUOUS
  0
LAYER
  2
FIX
 70
     0
 62
    11
  6
CONTINUOUS
  0
LAYER
  2
NOTE
 70
     0
 62
     4
  6
CONTINUOUS
  0
LAYER
  2
SERVICESPACE
 70
     0
 62
     2
  6
DASHDOT
  0
LAYER
  2
SYMBOLLINE
 70
     0
 62
    15
  6
CONTINUOUS
  0
ENDTAB
  0
TABLE
  2
STYLE
 70
     1
  0
STYLE
  2
STANDARD
 70
     0
 40
64.0
 41
0.9
 50
0.0
 71
     0
 42
64.0
  3
SIMPLEX.shx
  4
BIGFONT.shx
  0
ENDTAB
  0
TABLE
  2
APPID
 70
     2
  0
APPID
  2
ACAD
 70
     0
  0
APPID
  2
AUTOCAD_POSTSCRIPT_FIGURE
 70
     0
  0
ENDTAB
  0
TABLE
  2
DIMSTYLE
 70
     1
  0
DIMSTYLE
 70
     0
  3

  4

  5

  2
STANDARD
  6

  7

 40
1.0
 41
0.18
 42
0.0625
 43
0.38
 44
0.18
 45
0.0
 46
0.0
 47
0.0
 48
0.0
140
0.18
141
0.09
142
0.0
143
25.4
144
1.0
145
0.0
146
1.0
147
0.09
 71
     0
 72
     0
 73
     1
 74
     1
 75
     0
 76
     0
 77
     0
 78
     0
170
     0
171
     2
172
     0
173
     0
174
     0
175
     0
176
     7
177
     7
178
     7
  0
ENDTAB
  0
TABLE
  2
VIEW
 70
     1
  0
VIEW
  2
ALL
 70
     0
 40
4282.619808
 10
0.0
 20
41.309904
 41
5940.0
 11
0.0
 21
0.0
 31
1.0
 12
0.0
 22
0.0
 32
0.0
 42
50.0
 43
0.0
 44
0.0
 50
0.0
 71
     0
  0
ENDTAB
  0
TABLE
  2
UCS
 70
     0
  0
ENDTAB
  0
TABLE
  2
VPORT
 70
     1
  0
VPORT
  2
*ACTIVE
 70
     0
 10
0.0
 20
0.0
 11
1.0
 21
1.0
 12
76.135268
 22
81.069956
 13
0.0
 23
0.0
 14
1.0
 24
1.0
 15
0.0
 25
0.0
 16
0.0
 26
0.0
 36
1.0
 17
0.0
 27
0.0
 37
0.0
 40
979.147907
 41
1.485007
 42
50.0
 43
0.0
 44
0.0
 50
0.0
 51
0.0
 71
     0
 72
  1000
 73
     1
 74
     0
 75
     0
 76
     0
 77
     0
 78
     0
  0
ENDTAB
  0
ENDSEC
  0
SECTION
  2
BLOCKS
  0
BLOCK
  8
0
  6
CONTINUOUS
 62
     7
  2
DOT1
 70
     0
 10
0.0
 20
0.0
 30
0.0
  3
DOT1
  1

  0
CIRCLE
  8
SIZE
  6
CONTINUOUS
 62
     7
 10
0.0
 20
0.0
 30
0.0
 40
3.0
  0
ENDBLK
  8
0
  6
CONTINUOUS
 62
     7
  0
BLOCK
  8
0
  6
CONTINUOUS
 62
     7
  2
_ORIGIN
 70
     0
 10
0.0
 20
0.0
 30
0.0
  3
_ORIGIN
  1

  0
CIRCLE
  8
0
  6
CONTINUOUS
 62
     7
 10
0.0
 20
0.0
 30
0.0
 40
0.5
  0
LINE
  8
0
  6
CONTINUOUS
 62
     7
 10
0.0
 20
0.0
 30
0.0
 11
-1.0
 21
0.0
 31
0.0
  0
ENDBLK
  8
0
  6
CONTINUOUS
 62
     7
  0
ENDSEC
  0
SECTION
  2
ENTITIES
  0
TEXT
  8
ETC
  6
CONTINUOUS
 62
    61
 10
337.248188
 20
407.072086
 30
0.0
 40
64.0
  1
産業扇
 41
0.9
  0
TEXT
  8
ETC
  6
CONTINUOUS
 62
    61
 10
339.367969
 20
502.686961
 30
0.0
 40
64.0
  1
NEF0173
 41
0.9
  0
LINE
  8
BASIS
  6
DASHDOT
 62
     6
 10
236.71406
 20
0.0
 30
0.0
 11
-236.796632
 21
0.0
 31
0.0
  0
LINE
  8
BASIS
  6
DASHDOT
 62
     6
 10
0.0
 20
-240.887027
 30
0.0
 11
0.0
 21
242.133217
 31
0.0
  0
POINT
  8
ARRANGE
  6
CONTINUOUS
 62
     1
 10
0.0
 20
0.0
 30
0.0
  0
CIRCLE
  8
ARRANGE
  6
CONTINUOUS
 62
     1
 10
0.0
 20
0.0
 30
0.0
 40
40.0
  0
LINE
  8
SIZE
  6
CONTINUOUS
 62
    30
 10
-185.0
 20
20.0
 30
0.0
 11
-185.0
 21
461.033816
 31
0.0
  0
LINE
  8
SIZE
  6
CONTINUOUS
 62
    30
 10
185.0
 20
20.0
 30
0.0
 11
185.0
 21
461.033816
 31
0.0
  0
LINE
  8
SIZE
  6
CONTINUOUS
 62
    30
 10
-173.0
 20
441.033816
 30
0.0
 11
173.0
 21
441.033816
 31
0.0
  0
CIRCLE
  8
SIZE
  6
CONTINUOUS
 62
    30
 10
-185.0
 20
441.033816
 30
0.0
 40
6.0
  0
LINE
  8
SIZE
  6
CONTINUOUS
 62
    30
 10
-185.0
 20
441.033816
 30
0.0
 11
-173.0
 21
441.033816
 31
0.0
  0
CIRCLE
  8
SIZE
  6
CONTINUOUS
 62
    30
 10
185.0
 20
441.033816
 30
0.0
 40
6.0
  0
LINE
  8
SIZE
  6
CONTINUOUS
 62
    30
 10
185.0
 20
441.033816
 30
0.0
 11
173.0
 21
441.033816
 31
0.0
  0
TEXT
  8
SIZE
  6
CONTINUOUS
 62
    30
 10
-80.928
 20
466.033816
 30
0.0
 40
64.0
  1
370
 41
0.9
  7
STANDARD
 72
     1
 11
0.0
 21
466.033816
 31
0.0
  0
POINT
  8
DEFPOINTS
  6
CONTINUOUS
 62
    30
 10
-185.0
 20
0.0
 30
0.0
  0
POINT
  8
DEFPOINTS
  6
CONTINUOUS
 62
    30
 10
185.0
 20
0.0
 30
0.0
  0
POINT
  8
DEFPOINTS
  6
CONTINUOUS
 62
    30
 10
185.0
 20
441.033816
 30
0.0
  0
LINE
  8
SIZE
  6
CONTINUOUS
 62
    30
 10
-20.0
 20
185.0
 30
0.0
 11
-471.956061
 21
185.0
 31
0.0
  0
LINE
  8
SIZE
  6
CONTINUOUS
 62
    30
 10
-20.0
 20
-185.0
 30
0.0
 11
-471.956061
 21
-185.0
 31
0.0
  0
LINE
  8
SIZE
  6
CONTINUOUS
 62
    30
 10
-451.956061
 20
173.0
 30
0.0
 11
-451.956061
 21
-173.0
 31
0.0
  0
CIRCLE
  8
SIZE
  6
CONTINUOUS
 62
    30
 10
-451.956061
 20
185.0
 30
0.0
 40
6.0
  0
LINE
  8
SIZE
  6
CONTINUOUS
 62
    30
 10
-451.956061
 20
185.0
 30
0.0
 11
-451.956061
 21
173.0
 31
0.0
  0
CIRCLE
  8
SIZE
  6
CONTINUOUS
 62
    30
 10
-451.956061
 20
-185.0
 30
0.0
 40
6.0
  0
LINE
  8
SIZE
  6
CONTINUOUS
 62
    30
 10
-451.956061
 20
-185.0
 30
0.0
 11
-451.956061
 21
-173.0
 31
0.0
  0
TEXT
  8
SIZE
  6
CONTINUOUS
 62
    30
 10
-476.956061
 20
-80.928
 30
0.0
 40
64.0
  1
370
 50
90.0
 41
0.9
  7
STANDARD
 72
     1
 11
-476.956061
 21
0.0
 31
0.0
  0
POINT
  8
DEFPOINTS
  6
CONTINUOUS
 62
    30
 10
0.0
 20
185.0
 30
0.0
  0
POINT
  8
DEFPOINTS
  6
CONTINUOUS
 62
    30
 10
0.0
 20
-185.0
 30
0.0
  0
POINT
  8
DEFPOINTS
  6
CONTINUOUS
 62
    30
 10
-451.956061
 20
-185.0
 30
0.0
  0
LINE
  8
NOTE
  6
CONTINUOUS
 62
     4
 10
562.357181
 20
265.924605
 30
0.0
 11
251.794969
 21
265.924605
 31
0.0
  0
TEXT
  8
NOTE
  6
CONTINUOUS
 62
     4
 10
275.271348
 20
297.933921
 30
0.0
 40
64.0
  1
4-φ10
 41
0.9
  0
LINE
  8
NOTE
  6
CONTINUOUS
 62
     4
 10
165.0
 20
165.0
 30
0.0
 11
251.794969
 21
265.924605
 31
0.0
  0
LINE
  8
NOTE
  6
CONTINUOUS
 62
     4
 10
182.961053
 20
200.740741
 30
0.0
 11
165.0
 21
165.0
 31
0.0
  0
LINE
  8
NOTE
  6
CONTINUOUS
 62
     4
 10
165.0
 20
165.0
 30
0.0
 11
198.425099
 21
186.971863
 31
0.0
  0
CIRCLE
  8
DETAIL
  6
CONTINUOUS
 62
     5
 39
50.0
 10
0.0
 20
0.0
 30
0.0
 40
132.5
  0
ARC
  8
DETAIL
  6
CONTINUOUS
 62
     5
 10
-43.322045
 20
64.030722
 30
0.0
 40
81.036497
 50
203.488556
 51
220.393653
  0
ARC
  8
DETAIL
  6
CONTINUOUS
 62
     5
 39
50.0
 10
0.0
 20
0.0
 30
0.0
 40
129.0
 50
166.048256
 51
233.536315
  0
ARC
  8
DETAIL
  6
CONTINUOUS
 62
     5
 10
38.99745
 20
-89.588691
 30
0.0
 40
118.871497
 50
42.691652
 51
86.278344
  0
ARC
  8
DETAIL
  6
CONTINUOUS
 62
     5
 39
50.0
 10
34.555833
 20
-120.128658
 30
0.0
 40
4.0
 50
143.488533
 51
286.048244
  0
ARC
  8
DETAIL
  6
CONTINUOUS
 62
     5
 39
50.0
 10
0.0
 20
0.0
 30
0.0
 40
129.0
 50
286.048244
 51
353.536328
  0
ARC
  8
DETAIL
  6
CONTINUOUS
 62
     5
 10
41.012193
 20
-41.012193
 30
0.0
 40
4.5
 50
181.510756
 51
323.060337
  0
ARC
  8
DETAIL
  6
CONTINUOUS
 62
     5
 10
41.012193
 20
-41.012193
 30
0.0
 40
4.0
 50
175.085338
 51
328.372336
  0
LINE
  8
DETAIL
  6
CONTINUOUS
 62
     5
 10
40.414476
 20
-43.242903
 30
0.0
 11
38.781483
 21
-41.60991
 31
0.0
  0
LINE
  8
DETAIL
  6
CONTINUOUS
 62
     5
 10
39.3792
 20
-39.3792
 30
0.0
 11
38.781483
 21
-41.60991
 31
0.0
  0
LINE
  8
DETAIL
  6
CONTINUOUS
 62
     5
 10
36.062446
 20
-45.961941
 30
0.0
 11
41.7193
 21
-51.618795
 31
0.0
  0
ARC
  8
DETAIL
  6
CONTINUOUS
 62
     5
 10
39.848566
 20
-52.075316
 30
0.0
 40
2.0
 50
229.327184
 51
315.0
  0
ARC
  8
DETAIL
  6
CONTINUOUS
 62
     5
 10
-33.791214
 20
-69.533331
 30
0.0
 40
81.036497
 50
323.488533
 51
340.393683
  0
ARC
  8
DETAIL
  6
CONTINUOUS
 62
     5
 10
-31.367239
 20
-67.274902
 30
0.0
 40
79.544761
 50
356.914709
 51
23.267463
  0
LINE
  8
DETAIL
  6
CONTINUOUS
 62
     5
 10
98.576995
 20
-83.208028
 30
0.0
 11
101.199031
 21
-85.527809
 31
0.0
  0
LINE
  8
DETAIL
  6
CONTINUOUS
 62
     5
 10
96.615264
 20
-85.478013
 30
0.0
 11
99.236609
 21
-87.797183
 31
0.0
  0
ARC
  8
DETAIL
  6
CONTINUOUS
 62
     5
 10
-26.01807
 20
-68.833635
 30
0.0
 40
74.020996
 50
337.863454
 51
357.897983
  0
ARC
  8
DETAIL
  6
CONTINUOUS
 62
     5
 10
121.224499
 20
-13.733934
 30
0.0
 40
7.0
 50
353.536328
 51
42.691652
  0
LINE
  8
DETAIL
  6
CONTINUOUS
 62
     5
 10
42.645186
 20
-42.645186
 30
0.0
 11
40.414476
 21
-43.242903
 31
0.0
  0
LINE
  8
DETAIL
  6
CONTINUOUS
 62
     5
 10
41.60991
 20
-38.781483
 30
0.0
 11
39.3792
 21
-39.3792
 31
0.0
  0
LINE
  8
DETAIL
  6
CONTINUOUS
 62
     5
 10
43.242903
 20
-40.414476
 30
0.0
 11
42.645186
 21
-42.645186
 31
0.0
  0
LINE
  8
DETAIL
  6
CONTINUOUS
 62
     5
 10
41.60991
 20
-38.781483
 30
0.0
 11
43.242903
 21
-40.414476
 31
0.0
  0
ARC
  8
DETAIL
  6
CONTINUOUS
 62
     5
 10
41.012193
 20
-52.325902
 30
0.0
 40
1.0
 50
315.0
 51
45.0
  0
LINE
  8
DETAIL
  6
CONTINUOUS
 62
     5
 10
41.262779
 20
-53.489529
 30
0.0
 11
45.992662
 21
-48.759647
 31
0.0
  0
LINE
  8
DETAIL
  6
CONTINUOUS
 62
     5
 10
45.544275
 20
-54.313653
 30
0.0
 11
45.238972
 21
-53.375947
 31
0.0
  0
LINE
  8
DETAIL
  6
CONTINUOUS
 62
     5
 10
45.238982
 20
-53.375943
 30
0.0
 11
46.653249
 21
-51.777405
 31
0.0
  0
ARC
  8
DETAIL
  6
CONTINUOUS
 62
     5
 10
47.519193
 20
-52.968052
 30
0.0
 40
2.316406
 50
228.5
 51
266.858053
  0
LINE
  8
DETAIL
  6
CONTINUOUS
 62
     5
 10
-83.208028
 20
-98.576995
 30
0.0
 11
-85.527809
 21
-101.199031
 31
0.0
  0
ARC
  8
DETAIL
  6
CONTINUOUS
 62
     5
 10
-42.578181
 20
60.802294
 30
0.0
 40
79.544761
 50
236.914678
 51
248.722491
  0
LINE
  8
DETAIL
  6
CONTINUOUS
 62
     5
 10
-85.478013
 20
-96.615264
 30
0.0
 11
-87.797183
 21
-99.236609
 31
0.0
  0
ARC
  8
DETAIL
  6
CONTINUOUS
 62
     5
 10
-97.08483
 20
11.021579
 30
0.0
 40
118.871497
 50
282.691653
 51
326.278335
  0
ARC
  8
DETAIL
  6
CONTINUOUS
 62
     5
 10
-72.506206
 20
-98.116513
 30
0.0
 40
7.0
 50
233.536315
 51
282.691653
  0
ARC
  8
DETAIL
  6
CONTINUOUS
 62
     5
 10
41.012193
 20
-41.012193
 30
0.0
 40
7.0
 50
196.456065
 51
225.0
  0
ARC
  8
DETAIL
  6
CONTINUOUS
 62
     5
 10
29.715235
 20
-48.641595
 30
0.0
 40
2.0
 50
49.327184
 51
121.42083
  0
LINE
  8
DETAIL
  6
CONTINUOUS
 62
     5
 10
38.545089
 20
-53.592203
 30
0.0
 11
31.018712
 21
-47.124708
 31
0.0
  0
ARC
  8
DETAIL
  6
CONTINUOUS
 62
     5
 10
-49.07319
 20
46.254889
 30
0.0
 40
63.636746
 50
249.418624
 51
266.520374
  0
ARC
  8
DETAIL
  6
CONTINUOUS
 62
     5
 10
-46.602658
 20
56.949133
 30
0.0
 40
74.020996
 50
217.863423
 51
237.897952
  0
ARC
  8
DETAIL
  6
CONTINUOUS
 62
     5
 39
50.0
 10
-48.718324
 20
111.850458
 30
0.0
 40
7.0
 50
113.536333
 51
162.691668
  0
ARC
  8
DETAIL
  6
CONTINUOUS
 62
     5
 39
50.0
 10
0.0
 20
0.0
 30
0.0
 40
129.0
 50
46.048266
 51
113.536333
  0
ARC
  8
DETAIL
  6
CONTINUOUS
 62
     5
 39
50.0
 10
86.75652
 20
89.99059
 30
0.0
 40
4.0
 50
263.488555
 51
46.048266
  0
LINE
  8
DETAIL
  6
CONTINUOUS
 62
     5
 10
38.781483
 20
41.60991
 30
0.0
 11
39.3792
 21
39.3792
 31
0.0
  0
LINE
  8
DETAIL
  6
CONTINUOUS
 62
     5
 10
38.781483
 20
41.60991
 30
0.0
 11
40.414476
 21
43.242903
 31
0.0
  0
ARC
  8
DETAIL
  6
CONTINUOUS
 62
     5
 10
41.012193
 20
41.012193
 30
0.0
 40
4.5
 50
271.510756
 51
178.489244
  0
ARC
  8
DETAIL
  6
CONTINUOUS
 62
     5
 10
41.012193
 20
41.012193
 30
0.0
 40
4.0
 50
265.085338
 51
184.914662
  0
LINE
  8
DETAIL
  6
CONTINUOUS
 62
     5
 10
36.062446
 20
45.961941
 30
0.0
 11
41.7193
 21
51.618795
 31
0.0
  0
ARC
  8
DETAIL
  6
CONTINUOUS
 62
     5
 10
39.848566
 20
52.075316
 30
0.0
 40
2.0
 50
45.0
 51
130.672816
  0
ARC
  8
DETAIL
  6
CONTINUOUS
 62
     5
 10
72.620708
 20
11.884537
 30
0.0
 40
74.020996
 50
97.86343
 51
117.897959
  0
LINE
  8
DETAIL
  6
CONTINUOUS
 62
     5
 10
42.353245
 20
52.399063
 30
0.0
 11
72.43844
 21
86.40419
 31
0.0
  0
LINE
  8
DETAIL
  6
CONTINUOUS
 62
     5
 10
52.559938
 20
59.408149
 30
0.0
 11
76.561752
 21
86.537265
 31
0.0
  0
LINE
  8
DETAIL
  6
CONTINUOUS
 62
     5
 10
42.645186
 20
42.645186
 30
0.0
 11
43.242903
 21
40.414476
 31
0.0
  0
LINE
  8
DETAIL
  6
CONTINUOUS
 62
     5
 10
40.414476
 20
43.242903
 30
0.0
 11
42.645186
 21
42.645186
 31
0.0
  0
LINE
  8
DETAIL
  6
CONTINUOUS
 62
     5
 10
43.242903
 20
40.414476
 30
0.0
 11
41.60991
 21
38.781483
 31
0.0
  0
LINE
  8
DETAIL
  6
CONTINUOUS
 62
     5
 10
39.3792
 20
39.3792
 30
0.0
 11
41.60991
 21
38.781483
 31
0.0
  0
ARC
  8
DETAIL
  6
CONTINUOUS
 62
     5
 10
41.012193
 20
41.012193
 30
0.0
 40
7.0
 50
286.456065
 51
315.0
  0
ARC
  8
DETAIL
  6
CONTINUOUS
 62
     5
 10
52.325902
 20
41.012193
 30
0.0
 40
1.0
 50
45.0
 51
135.0
  0
LINE
  8
DETAIL
  6
CONTINUOUS
 62
     5
 10
45.961941
 20
36.062446
 30
0.0
 11
51.618795
 21
41.7193
 31
0.0
  0
ARC
  8
DETAIL
  6
CONTINUOUS
 62
     5
 10
41.012193
 20
52.325902
 30
0.0
 40
1.0
 50
315.0
 51
45.0
  0
LINE
  8
DETAIL
  6
CONTINUOUS
 62
     5
 10
53.489529
 20
41.262779
 30
0.0
 11
41.262779
 21
53.489529
 31
0.0
  0
ARC
  8
DETAIL
  6
CONTINUOUS
 62
     5
 10
48.641595
 20
29.715235
 30
0.0
 40
2.0
 50
139.327184
 51
211.42083
  0
ARC
  8
DETAIL
  6
CONTINUOUS
 62
     5
 10
52.075316
 20
39.848566
 30
0.0
 40
2.0
 50
319.327184
 51
45.0
  0
LINE
  8
DETAIL
  6
CONTINUOUS
 62
     5
 10
53.592203
 20
38.545089
 30
0.0
 11
47.124708
 21
31.018712
 31
0.0
  0
LINE
  8
DETAIL
  6
CONTINUOUS
 62
     5
 10
44.47853
 20
50.273779
 30
0.0
 11
52.559938
 21
59.408149
 31
0.0
  0
LINE
  8
DETAIL
  6
CONTINUOUS
 62
     5
 10
60.182901
 20
64.251552
 30
0.0
 11
62.429769
 21
62.263692
 31
0.0
  0
LINE
  8
DETAIL
  6
CONTINUOUS
 62
     5
 10
55.544561
 20
59.008862
 30
0.0
 11
57.791428
 21
57.021002
 31
0.0
  0
LINE
  8
DETAIL
  6
CONTINUOUS
 62
     5
 10
47.59312
 20
50.021393
 30
0.0
 11
49.839988
 21
48.033533
 31
0.0
  0
LINE
  8
DETAIL
  6
CONTINUOUS
 62
     5
 10
46.249548
 20
48.502761
 30
0.0
 11
60.182901
 21
64.251552
 31
0.0
  0
LINE
  8
DETAIL
  6
CONTINUOUS
 62
     5
 10
48.374832
 20
46.377476
 30
0.0
 11
62.429769
 21
62.263692
 31
0.0
  0
LINE
  8
DETAIL
  6
CONTINUOUS
 62
     5
 10
50.005643
 20
48.220773
 30
0.0
 11
57.625773
 21
56.833762
 31
0.0
  0
LINE
  8
DETAIL
  6
CONTINUOUS
 62
     5
 10
57.625773
 20
56.833763
 30
0.0
 11
60.996074
 21
53.851973
 31
0.0
  0
LINE
  8
DETAIL
  6
CONTINUOUS
 62
     5
 10
60.996084
 20
53.85197
 30
0.0
 11
60.807335
 21
52.884047
 31
0.0
  0
LINE
  8
DETAIL
  6
CONTINUOUS
 62
     5
 10
60.807322
 20
52.884051
 30
0.0
 11
54.313647
 21
45.544287
 31
0.0
  0
LINE
  8
DETAIL
  6
CONTINUOUS
 62
     5
 10
54.313653
 20
45.544275
 30
0.0
 11
53.375947
 21
45.238972
 31
0.0
  0
LINE
  8
DETAIL
  6
CONTINUOUS
 62
     5
 10
53.375943
 20
45.238982
 30
0.0
 11
50.005643
 21
48.220772
 31
0.0
  0
LINE
  8
DETAIL
  6
CONTINUOUS
 62
     5
 10
51.910675
 20
50.37402
 30
0.0
 11
55.280976
 21
47.39223
 31
0.0
  0
ARC
  8
DETAIL
  6
CONTINUOUS
 62
     5
 10
52.968052
 20
47.519193
 30
0.0
 40
2.316406
 50
318.5
 51
356.858053
  0
ARC
  8
DETAIL
  6
CONTINUOUS
 62
     5
 10
51.18266
 20
54.856791
 30
0.0
 40
8.515625
 50
298.768421
 51
338.23167
  0
ARC
  8
DETAIL
  6
CONTINUOUS
 62
     5
 10
58.68315
 20
53.978936
 30
0.0
 40
2.316406
 50
280.142003
 51
318.5
  0
LINE
  8
DETAIL
  6
CONTINUOUS
 62
     5
 10
55.72074
 20
54.680514
 30
0.0
 11
59.091041
 21
51.698724
 31
0.0
  0
LINE
  8
DETAIL
  6
CONTINUOUS
 62
     5
 10
39.470134
 20
61.213582
 30
0.0
 11
41.717001
 21
59.225722
 31
0.0
  0
LINE
  8
DETAIL
  6
CONTINUOUS
 62
     5
 10
39.801444
 20
61.58806
 30
0.0
 11
42.048311
 21
59.6002
 31
0.0
  0
LINE
  8
DETAIL
  6
CONTINUOUS
 62
     5
 10
43.445854
 20
65.707317
 30
0.0
 11
45.692721
 21
63.719456
 31
0.0
  0
LINE
  8
DETAIL
  6
CONTINUOUS
 62
     5
 10
43.114544
 20
65.332839
 30
0.0
 11
45.361411
 21
63.344979
 31
0.0
  0
LINE
  8
DETAIL
  6
CONTINUOUS
 62
     5
 10
43.445854
 20
65.707317
 30
0.0
 11
39.470134
 21
61.213582
 31
0.0
  0
LINE
  8
DETAIL
  6
CONTINUOUS
 62
     5
 10
51.259704
 20
62.465984
 30
0.0
 11
43.639575
 21
53.852994
 31
0.0
  0
LINE
  8
DETAIL
  6
CONTINUOUS
 62
     5
 10
43.639574
 20
53.852994
 30
0.0
 11
40.269274
 21
56.834784
 31
0.0
  0
LINE
  8
DETAIL
  6
CONTINUOUS
 62
     5
 10
40.269263
 20
56.834787
 30
0.0
 11
40.458013
 21
57.802709
 31
0.0
  0
LINE
  8
DETAIL
  6
CONTINUOUS
 62
     5
 10
40.458026
 20
57.802705
 30
0.0
 11
46.9517
 21
65.142469
 31
0.0
  0
LINE
  8
DETAIL
  6
CONTINUOUS
 62
     5
 10
46.951695
 20
65.142482
 30
0.0
 11
47.8894
 21
65.447784
 31
0.0
  0
LINE
  8
DETAIL
  6
CONTINUOUS
 62
     5
 10
47.889404
 20
65.447775
 30
0.0
 11
51.259705
 21
62.465984
 31
0.0
  0
LINE
  8
DETAIL
  6
CONTINUOUS
 62
     5
 10
49.354672
 20
60.312737
 30
0.0
 11
45.984371
 21
63.294527
 31
0.0
  0
ARC
  8
DETAIL
  6
CONTINUOUS
 62
     5
 10
48.297296
 20
63.167564
 30
0.0
 40
2.316406
 50
138.5
 51
176.858053
  0
ARC
  8
DETAIL
  6
CONTINUOUS
 62
     5
 10
50.082687
 20
55.829965
 30
0.0
 40
8.515625
 50
118.768421
 51
158.23167
  0
ARC
  8
DETAIL
  6
CONTINUOUS
 62
     5
 10
42.582198
 20
56.70782
 30
0.0
 40
2.316406
 50
100.142003
 51
138.5
  0
LINE
  8
DETAIL
  6
CONTINUOUS
 62
     5
 10
45.544608
 20
56.006242
 30
0.0
 11
42.174307
 21
58.988032
 31
0.0
  0
ARC
  8
DETAIL
  6
CONTINUOUS
 62
     5
 10
77.113238
 20
5.502644
 30
0.0
 40
81.036497
 50
83.488555
 51
100.393659
  0
LINE
  8
DETAIL
  6
CONTINUOUS
 62
     5
 10
-56.139159
 20
45.662202
 30
0.0
 11
-101.199031
 21
85.527809
 31
0.0
  0
LINE
  8
DETAIL
  6
CONTINUOUS
 62
     5
 10
-57.516247
 20
50.886125
 30
0.0
 11
-99.236609
 21
87.797183
 31
0.0
  0
ARC
  8
DETAIL
  6
CONTINUOUS
 62
     5
 10
58.087357
 20
78.567154
 30
0.0
 40
118.871497
 50
162.691668
 51
206.278352
  0
ARC
  8
DETAIL
  6
CONTINUOUS
 62
     5
 10
41.012193
 20
41.012193
 30
0.0
 40
7.0
 50
135.0
 51
163.543935
  0
ARC
  8
DETAIL
  6
CONTINUOUS
 62
     5
 10
29.715235
 20
48.641595
 30
0.0
 40
2.0
 50
238.57917
 51
310.672816
  0
LINE
  8
DETAIL
  6
CONTINUOUS
 62
     5
 10
38.545089
 20
53.592203
 30
0.0
 11
31.018712
 21
47.124708
 31
0.0
  0
ARC
  8
DETAIL
  6
CONTINUOUS
 62
     5
 10
73.945395
 20
6.472652
 30
0.0
 40
79.544761
 50
116.914685
 51
128.722497
  0
ARC
  8
DETAIL
  6
CONTINUOUS
 62
     5
 10
64.594476
 20
19.371199
 30
0.0
 40
63.636746
 50
129.41863
 51
146.547638
  0
LINE
  8
DETAIL
  6
CONTINUOUS
 62
     5
 10
-64.251552
 20
60.182901
 30
0.0
 11
-62.263692
 21
62.429769
 31
0.0
  0
LINE
  8
DETAIL
  6
CONTINUOUS
 62
     5
 10
-59.008862
 20
55.544561
 30
0.0
 11
-58.619405
 21
55.984762
 31
0.0
  0
LINE
  8
DETAIL
  6
CONTINUOUS
 62
     5
 10
-58.431332
 20
55.033606
 30
0.0
 11
-64.251552
 21
60.182901
 31
0.0
  0
LINE
  8
DETAIL
  6
CONTINUOUS
 62
     5
 10
-59.293673
 20
59.802118
 30
0.0
 11
-62.263692
 21
62.429769
 31
0.0
  0
LINE
  8
DETAIL
  6
CONTINUOUS
 62
     5
 10
-61.213582
 20
39.470134
 30
0.0
 11
-59.225722
 21
41.717001
 31
0.0
  0
LINE
  8
DETAIL
  6
CONTINUOUS
 62
     5
 10
-61.58806
 20
39.801444
 30
0.0
 11
-59.6002
 21
42.048311
 31
0.0
  0
LINE
  8
DETAIL
  6
CONTINUOUS
 62
     5
 10
-65.707317
 20
43.445854
 30
0.0
 11
-63.719456
 21
45.692721
 31
0.0
  0
LINE
  8
DETAIL
  6
CONTINUOUS
 62
     5
 10
-65.332839
 20
43.114544
 30
0.0
 11
-63.344979
 21
45.361411
 31
0.0
  0
LINE
  8
DETAIL
  6
CONTINUOUS
 62
     5
 10
-65.707317
 20
43.445854
 30
0.0
 11
-61.213582
 21
39.470134
 31
0.0
  0
LINE
  8
DETAIL
  6
CONTINUOUS
 62
     5
 10
-62.465984
 20
51.259704
 30
0.0
 11
-56.139159
 21
45.662202
 31
0.0
  0
LINE
  8
DETAIL
  6
CONTINUOUS
 62
     5
 10
-55.095698
 20
42.234953
 30
0.0
 11
-56.834784
 21
40.269274
 31
0.0
  0
LINE
  8
DETAIL
  6
CONTINUOUS
 62
     5
 10
-56.834787
 20
40.269263
 30
0.0
 11
-57.802709
 21
40.458013
 31
0.0
  0
LINE
  8
DETAIL
  6
CONTINUOUS
 62
     5
 10
-57.802705
 20
40.458026
 30
0.0
 11
-65.142469
 21
46.9517
 31
0.0
  0
LINE
  8
DETAIL
  6
CONTINUOUS
 62
     5
 10
-65.142482
 20
46.951695
 30
0.0
 11
-65.447784
 21
47.8894
 31
0.0
  0
LINE
  8
DETAIL
  6
CONTINUOUS
 62
     5
 10
-65.447775
 20
47.889404
 30
0.0
 11
-62.465984
 21
51.259705
 31
0.0
  0
LINE
  8
DETAIL
  6
CONTINUOUS
 62
     5
 10
-60.312737
 20
49.354672
 30
0.0
 11
-63.294527
 21
45.984371
 31
0.0
  0
ARC
  8
DETAIL
  6
CONTINUOUS
 62
     5
 10
-63.167564
 20
48.297296
 30
0.0
 40
2.316406
 50
228.5
 51
266.858053
  0
ARC
  8
DETAIL
  6
CONTINUOUS
 62
     5
 10
-55.829965
 20
50.082687
 30
0.0
 40
8.515625
 50
208.768421
 51
248.23167
  0
ARC
  8
DETAIL
  6
CONTINUOUS
 62
     5
 10
-56.70782
 20
42.582198
 30
0.0
 40
2.316406
 50
190.142003
 51
228.5
  0
LINE
  8
DETAIL
  6
CONTINUOUS
 62
     5
 10
-56.006242
 20
45.544608
 30
0.0
 11
-58.988032
 21
42.174307
 31
0.0
  0
ARC
  8
DETAIL
  6
CONTINUOUS
 62
     5
 10
-121.312392
 20
30.138075
 30
0.0
 40
4.0
 50
23.488556
 51
166.048256
  0
CIRCLE
  8
FIX
  6
CONTINUOUS
 62
    11
 39
50.0
 10
165.0
 20
165.0
 30
0.0
 40
5.0
  0
CIRCLE
  8
DETAIL
  6
CONTINUOUS
 62
     5
 10
165.0
 20
165.0
 30
0.0
 40
5.0
  0
LINE
  8
NOTE
  6
CONTINUOUS
 62
     4
 10
165.0
 20
145.0
 30
0.0
 11
165.0
 21
185.0
 31
0.0
  0
LINE
  8
NOTE
  6
CONTINUOUS
 62
     4
 10
185.0
 20
165.0
 30
0.0
 11
145.0
 21
165.0
 31
0.0
  0
LINE
  8
DETAIL
  6
CONTINUOUS
 62
     5
 10
185.009432
 20
0.0
 30
0.0
 11
183.450274
 21
158.687657
 31
0.0
  0
LINE
  8
DETAIL
  6
CONTINUOUS
 62
     5
 10
0.0
 20
185.0
 30
0.0
 11
158.697089
 21
183.440829
 31
0.0
  0
ARC
  8
DETAIL
  6
CONTINUOUS
 62
     5
 10
158.45148
 20
158.442036
 30
0.0
 40
25.0
 50
0.562932
 51
89.437097
  0
LINE
  8
DETAIL
  6
CONTINUOUS
 62
     5
 10
0.0
 20
185.0
 30
0.0
 11
-158.697089
 21
183.440829
 31
0.0
  0
ARC
  8
DETAIL
  6
CONTINUOUS
 62
     5
 10
-158.45148
 20
158.442036
 30
0.0
 40
25.0
 50
90.562903
 51
179.437068
  0
LINE
  8
DETAIL
  6
CONTINUOUS
 62
     5
 10
-185.009432
 20
0.0
 30
0.0
 11
-183.450274
 21
158.687657
 31
0.0
  0
CIRCLE
  8
FIX
  6
CONTINUOUS
 62
    11
 39
50.0
 10
-165.0
 20
165.0
 30
0.0
 40
5.0
  0
LINE
  8
NOTE
  6
CONTINUOUS
 62
     4
 10
-165.0
 20
145.0
 30
0.0
 11
-165.0
 21
185.0
 31
0.0
  0
LINE
  8
NOTE
  6
CONTINUOUS
 62
     4
 10
-185.0
 20
165.0
 30
0.0
 11
-145.0
 21
165.0
 31
0.0
  0
CIRCLE
  8
DETAIL
  6
CONTINUOUS
 62
     5
 10
-165.0
 20
165.0
 30
0.0
 40
5.0
  0
CIRCLE
  8
FIX
  6
CONTINUOUS
 62
    11
 39
50.0
 10
-165.0
 20
-165.0
 30
0.0
 40
5.0
  0
CIRCLE
  8
DETAIL
  6
CONTINUOUS
 62
     5
 10
-165.0
 20
-165.0
 30
0.0
 40
5.0
  0
LINE
  8
NOTE
  6
CONTINUOUS
 62
     4
 10
-165.0
 20
-145.0
 30
0.0
 11
-165.0
 21
-185.0
 31
0.0
  0
LINE
  8
NOTE
  6
CONTINUOUS
 62
     4
 10
-185.0
 20
-165.0
 30
0.0
 11
-145.0
 21
-165.0
 31
0.0
  0
CIRCLE
  8
FIX
  6
CONTINUOUS
 62
    11
 39
50.0
 10
165.0
 20
-165.0
 30
0.0
 40
5.0
  0
LINE
  8
NOTE
  6
CONTINUOUS
 62
     4
 10
165.0
 20
-145.0
 30
0.0
 11
165.0
 21
-185.0
 31
0.0
  0
LINE
  8
NOTE
  6
CONTINUOUS
 62
     4
 10
185.0
 20
-165.0
 30
0.0
 11
145.0
 21
-165.0
 31
0.0
  0
CIRCLE
  8
DETAIL
  6
CONTINUOUS
 62
     5
 10
165.0
 20
-165.0
 30
0.0
 40
5.0
  0
ARC
  8
DETAIL
  6
CONTINUOUS
 62
     5
 10
158.45148
 20
-158.442036
 30
0.0
 40
25.0
 50
270.562903
 51
359.437068
  0
LINE
  8
DETAIL
  6
CONTINUOUS
 62
     5
 10
0.0
 20
-185.0
 30
0.0
 11
158.697089
 21
-183.440829
 31
0.0
  0
LINE
  8
DETAIL
  6
CONTINUOUS
 62
     5
 10
185.009432
 20
0.0
 30
0.0
 11
183.450274
 21
-158.687657
 31
0.0
  0
LINE
  8
DETAIL
  6
CONTINUOUS
 62
     5
 10
0.0
 20
-185.0
 30
0.0
 11
-158.697089
 21
-183.440829
 31
0.0
  0
ARC
  8
DETAIL
  6
CONTINUOUS
 62
     5
 10
-158.45148
 20
-158.442036
 30
0.0
 40
25.0
 50
180.562932
 51
269.437097
  0
LINE
  8
DETAIL
  6
CONTINUOUS
 62
     5
 10
-185.009432
 20
0.0
 30
0.0
 11
-183.450274
 21
-158.687657
 31
0.0
  0
LINE
  8
SIZE
  6
CONTINUOUS
 62
    30
 10
-165.0
 20
205.0
 30
0.0
 11
-165.0
 21
341.310515
 31
0.0
  0
LINE
  8
SIZE
  6
CONTINUOUS
 62
    30
 10
165.0
 20
205.0
 30
0.0
 11
165.0
 21
341.310515
 31
0.0
  0
LINE
  8
SIZE
  6
CONTINUOUS
 62
    30
 10
-153.0
 20
321.310515
 30
0.0
 11
153.0
 21
321.310515
 31
0.0
  0
CIRCLE
  8
SIZE
  6
CONTINUOUS
 62
    30
 10
-165.0
 20
321.310515
 30
0.0
 40
6.0
  0
LINE
  8
SIZE
  6
CONTINUOUS
 62
    30
 10
-165.0
 20
321.310515
 30
0.0
 11
-153.0
 21
321.310515
 31
0.0
  0
CIRCLE
  8
SIZE
  6
CONTINUOUS
 62
    30
 10
165.0
 20
321.310515
 30
0.0
 40
6.0
  0
LINE
  8
SIZE
  6
CONTINUOUS
 62
    30
 10
165.0
 20
321.310515
 30
0.0
 11
153.0
 21
321.310515
 31
0.0
  0
TEXT
  8
SIZE
  6
CONTINUOUS
 62
    30
 10
-80.928
 20
346.310515
 30
0.0
 40
64.0
  1
330
 41
0.9
  7
STANDARD
 72
     1
 11
0.0
 21
346.310515
 31
0.0
  0
POINT
  8
DEFPOINTS
  6
CONTINUOUS
 62
    30
 10
-165.0
 20
185.0
 30
0.0
  0
POINT
  8
DEFPOINTS
  6
CONTINUOUS
 62
    30
 10
165.0
 20
185.0
 30
0.0
  0
POINT
  8
DEFPOINTS
  6
CONTINUOUS
 62
    30
 10
165.0
 20
321.310515
 30
0.0
  0
LINE
  8
SIZE
  6
CONTINUOUS
 62
    30
 10
-205.0
 20
165.0
 30
0.0
 11
-343.432823
 21
165.0
 31
0.0
  0
LINE
  8
SIZE
  6
CONTINUOUS
 62
    30
 10
-205.0
 20
-165.0
 30
0.0
 11
-343.432823
 21
-165.0
 31
0.0
  0
LINE
  8
SIZE
  6
CONTINUOUS
 62
    30
 10
-323.432823
 20
153.0
 30
0.0
 11
-323.432823
 21
-153.0
 31
0.0
  0
CIRCLE
  8
SIZE
  6
CONTINUOUS
 62
    30
 10
-323.432823
 20
165.0
 30
0.0
 40
6.0
  0
LINE
  8
SIZE
  6
CONTINUOUS
 62
    30
 10
-323.432823
 20
165.0
 30
0.0
 11
-323.432823
 21
153.0
 31
0.0
  0
CIRCLE
  8
SIZE
  6
CONTINUOUS
 62
    30
 10
-323.432823
 20
-165.0
 30
0.0
 40
6.0
  0
LINE
  8
SIZE
  6
CONTINUOUS
 62
    30
 10
-323.432823
 20
-165.0
 30
0.0
 11
-323.432823
 21
-153.0
 31
0.0
  0
TEXT
  8
SIZE
  6
CONTINUOUS
 62
    30
 10
-348.432823
 20
-80.928
 30
0.0
 40
64.0
  1
330
 50
90.0
 41
0.9
  7
STANDARD
 72
     1
 11
-348.432823
 21
0.0
 31
0.0
  0
POINT
  8
DEFPOINTS
  6
CONTINUOUS
 62
    30
 10
-185.0
 20
165.0
 30
0.0
  0
POINT
  8
DEFPOINTS
  6
CONTINUOUS
 62
    30
 10
-185.0
 20
-165.0
 30
0.0
  0
POINT
  8
DEFPOINTS
  6
CONTINUOUS
 62
    30
 10
-323.432823
 20
-165.0
 30
0.0
  0
LINE
  8
SIZE
  6
CONTINUOUS
 62
    30
 10
-132.5
 20
-20.0
 30
0.0
 11
-132.5
 21
-404.596058
 31
0.0
  0
LINE
  8
SIZE
  6
CONTINUOUS
 62
    30
 10
132.5
 20
-20.0
 30
0.0
 11
132.5
 21
-404.596058
 31
0.0
  0
LINE
  8
SIZE
  6
CONTINUOUS
 62
    30
 10
-120.5
 20
-384.596058
 30
0.0
 11
120.5
 21
-384.596058
 31
0.0
  0
CIRCLE
  8
SIZE
  6
CONTINUOUS
 62
    30
 10
-132.5
 20
-384.596058
 30
0.0
 40
6.0
  0
LINE
  8
SIZE
  6
CONTINUOUS
 62
    30
 10
-132.5
 20
-384.596058
 30
0.0
 11
-120.5
 21
-384.596058
 31
0.0
  0
CIRCLE
  8
SIZE
  6
CONTINUOUS
 62
    30
 10
132.5
 20
-384.596058
 30
0.0
 40
6.0
  0
LINE
  8
SIZE
  6
CONTINUOUS
 62
    30
 10
132.5
 20
-384.596058
 30
0.0
 11
120.5
 21
-384.596058
 31
0.0
  0
TEXT
  8
SIZE
  6
CONTINUOUS
 62
    30
 10
-114.912
 20
-359.596058
 30
0.0
 40
64.0
  1
φ265
 41
0.9
  7
STANDARD
 72
     1
 11
0.0
 21
-359.596058
 31
0.0
  0
POINT
  8
DEFPOINTS
  6
CONTINUOUS
 62
    30
 10
-132.5
 20
0.0
 30
0.0
  0
POINT
  8
DEFPOINTS
  6
CONTINUOUS
 62
    30
 10
132.5
 20
0.0
 30
0.0
  0
POINT
  8
DEFPOINTS
  6
CONTINUOUS
 62
    30
 10
132.5
 20
-384.596058
 30
0.0
  0
LINE
  8
SIZE
  6
CONTINUOUS
 62
    30
 10
480.021917
 20
-79.896064
 30
0.0
 11
139.086595
 21
-23.149925
 31
0.0
  0
LINE
  8
SIZE
  6
CONTINUOUS
 62
    30
 10
-139.086595
 20
23.149925
 30
0.0
 11
-150.923752
 21
25.120132
 31
0.0
  0
TEXT
  8
SIZE
  6
CONTINUOUS
 62
    30
 10
247.357442
 20
-15.826866
 30
0.0
 40
64.0
  1
φ258
 50
350.550168
 41
0.9
  7
STANDARD
 72
     1
 11
360.710056
 21
-34.693573
 31
0.0
  0
LINE
  8
SIZE
  6
CONTINUOUS
 62
    30
 10
-127.249438
 20
21.179719
 30
0.0
 11
127.249438
 21
-21.179719
 31
0.0
  0
CIRCLE
  8
SIZE
  6
CONTINUOUS
 62
    30
 10
-127.249438
 20
21.179719
 30
0.0
 40
6.0
  0
LINE
  8
SIZE
  6
CONTINUOUS
 62
    30
 10
-127.249438
 20
21.179719
 30
0.0
 11
-139.086595
 21
23.149925
 31
0.0
  0
CIRCLE
  8
SIZE
  6
CONTINUOUS
 62
    30
 10
127.249438
 20
-21.179719
 30
0.0
 40
6.0
  0
LINE
  8
SIZE
  6
CONTINUOUS
 62
    30
 10
127.249438
 20
-21.179719
 30
0.0
 11
139.086595
 21
-23.149925
 31
0.0
  0
POINT
  8
DEFPOINTS
  6
CONTINUOUS
 62
    30
 10
127.249438
 20
-21.179719
 30
0.0
  0
POINT
  8
DEFPOINTS
  6
CONTINUOUS
 62
    30
 10
-127.249438
 20
21.179719
 30
0.0
  0
LINE
  8
OUTLINE
  6
CONTINUOUS
 62
     3
 10
0.0
 20
185.0
 30
0.0
 11
158.697089
 21
183.440829
 31
0.0
  0
ARC
  8
OUTLINE
  6
CONTINUOUS
 62
     3
 10
158.45148
 20
158.442036
 30
0.0
 40
25.0
 50
0.562932
 51
89.437097
  0
LINE
  8
OUTLINE
  6
CONTINUOUS
 62
     3
 10
185.009432
 20
0.0
 30
0.0
 11
183.450274
 21
158.687657
 31
0.0
  0
LINE
  8
OUTLINE
  6
CONTINUOUS
 62
     3
 10
185.009432
 20
0.0
 30
0.0
 11
183.450274
 21
-158.687657
 31
0.0
  0
ARC
  8
OUTLINE
  6
CONTINUOUS
 62
     3
 10
158.45148
 20
-158.442036
 30
0.0
 40
25.0
 50
270.562903
 51
359.437068
  0
LINE
  8
OUTLINE
  6
CONTINUOUS
 62
     3
 10
0.0
 20
-185.0
 30
0.0
 11
158.697089
 21
-183.440829
 31
0.0
  0
LINE
  8
OUTLINE
  6
CONTINUOUS
 62
     3
 10
0.0
 20
-185.0
 30
0.0
 11
-158.697089
 21
-183.440829
 31
0.0
  0
ARC
  8
OUTLINE
  6
CONTINUOUS
 62
     3
 10
-158.45148
 20
-158.442036
 30
0.0
 40
25.0
 50
180.562932
 51
269.437097
  0
LINE
  8
OUTLINE
  6
CONTINUOUS
 62
     3
 10
-185.009432
 20
0.0
 30
0.0
 11
-183.450274
 21
-158.687657
 31
0.0
  0
LINE
  8
OUTLINE
  6
CONTINUOUS
 62
     3
 10
-185.009432
 20
0.0
 30
0.0
 11
-183.450274
 21
158.687657
 31
0.0
  0
ARC
  8
OUTLINE
  6
CONTINUOUS
 62
     3
 10
-158.45148
 20
158.442036
 30
0.0
 40
25.0
 50
90.562903
 51
179.437068
  0
LINE
  8
OUTLINE
  6
CONTINUOUS
 62
     3
 10
0.0
 20
185.0
 30
0.0
 11
-158.697089
 21
183.440829
 31
0.0
  0
LINE
  8
DETAIL
  6
CONTINUOUS
 62
     5
 10
83.208028
 20
98.576995
 30
0.0
 11
85.527809
 21
101.199031
 31
0.0
  0
LINE
  8
DETAIL
  6
CONTINUOUS
 62
     5
 10
85.478013
 20
96.615264
 30
0.0
 11
87.797183
 21
99.236609
 31
0.0
  0
CIRCLE
  8
DETAIL
  6
CONTINUOUS
 62
     5
 10
0.0
 20
0.0
 30
0.0
 40
55.0
  0
LINE
  8
DETAIL
  6
CONTINUOUS
 62
     5
 10
45.544275
 20
-54.313653
 30
0.0
 11
45.984296
 21
-54.702938
 31
0.0
  0
CIRCLE
  8
DETAIL
  6
CONTINUOUS
 62
     5
 10
0.0
 20
0.0
 30
0.0
 40
9.0
  0
ARC
  8
DETAIL
  6
CONTINUOUS
 62
     5
 10
41.012193
 20
-41.012193
 30
0.0
 40
4.0
 50
71.514034
 51
94.914662
  0
ARC
  8
DETAIL
  6
CONTINUOUS
 62
     5
 10
41.012193
 20
-41.012193
 30
0.0
 40
4.5
 50
76.826034
 51
88.489244
  0
ENDSEC
  0
EOF
