  0
SECTION
  2
HEADER
  9
$ACADVER
  1
AC1009
  9
$INSBASE
 10
0.0
 20
0.0
 30
0.0
  9
$EXTMIN
 10
-527.96171428398509
 20
-366.57713664064431
 30
-0.0015258207003583
  9
$EXTMAX
 10
986.58601005629669
 20
618.11829418656089
 30
0.0000000349246037
  9
$LIMMIN
 10
-2970.0
 20
-2100.0
  9
$LIMMAX
 10
2970.0
 20
2100.0
  9
$ORTHOMODE
 70
     1
  9
$REGENMODE
 70
     1
  9
$FILLMODE
 70
     1
  9
$QTEXTMODE
 70
     0
  9
$MIRRTEXT
 70
     0
  9
$DRAGMODE
 70
     2
  9
$LTSCALE
 40
20.0
  9
$OSMODE
 70
    37
  9
$ATTMODE
 70
     1
  9
$TEXTSIZE
 40
64.0
  9
$TRACEWID
 40
0.05
  9
$TEXTSTYLE
  7
STANDARD
  9
$CLAYER
  8
OUTLINE
  9
$CELTYPE
  6
CONTINUOUS
  9
$CECOLOR
 62
     7
  9
$DIMSCALE
 40
1.0
  9
$DIMASZ
 40
2.0
  9
$DIMEXO
 40
20.0
  9
$DIMDLI
 40
200.0
  9
$DIMRND
 40
0.0
  9
$DIMDLE
 40
0.0
  9
$DIMEXE
 40
30.0
  9
$DIMTP
 40
0.0
  9
$DIMTM
 40
0.0
  9
$DIMTXT
 40
64.0
  9
$DIMCEN
 40
0.09
  9
$DIMTSZ
 40
0.0
  9
$DIMTOL
 70
     0
  9
$DIMLIM
 70
     0
  9
$DIMTIH
 70
     0
  9
$DIMTOH
 70
     0
  9
$DIMSE1
 70
     0
  9
$DIMSE2
 70
     0
  9
$DIMTAD
 70
     1
  9
$DIMZIN
 70
     8
  9
$DIMBLK
  1
DOT1
  9
$DIMASO
 70
     1
  9
$DIMSHO
 70
     0
  9
$DIMPOST
  1

  9
$DIMAPOST
  1

  9
$DIMALT
 70
     0
  9
$DIMALTD
 70
     2
  9
$DIMALTF
 40
25.399999999999999
  9
$DIMLFAC
 40
1.0
  9
$DIMTOFL
 70
     1
  9
$DIMTVP
 40
0.0
  9
$DIMTIX
 70
     1
  9
$DIMSOXD
 70
     0
  9
$DIMSAH
 70
     0
  9
$DIMBLK1
  1

  9
$DIMBLK2
  1

  9
$DIMSTYLE
  2
STANDARD
  9
$DIMCLRD
 70
     7
  9
$DIMCLRE
 70
     7
  9
$DIMCLRT
 70
     7
  9
$DIMTFAC
 40
1.0
  9
$DIMGAP
 40
20.0
  9
$LUNITS
 70
     2
  9
$LUPREC
 70
     4
  9
$SKETCHINC
 40
0.1
  9
$FILLETRAD
 40
5.0
  9
$AUNITS
 70
     1
  9
$AUPREC
 70
     3
  9
$MENU
  1
ACAD
  9
$ELEVATION
 40
0.0
  9
$PELEVATION
 40
0.0
  9
$THICKNESS
 40
0.0
  9
$LIMCHECK
 70
     0
  9
$BLIPMODE
 70
     0
  9
$CHAMFERA
 40
0.0
  9
$CHAMFERB
 40
0.0
  9
$SKPOLY
 70
     0
  9
$TDCREATE
 40
2451481.5803587958
  9
$TDUPDATE
 40
2454939.5814857748
  9
$TDINDWG
 40
0.0550787731
  9
$TDUSRTIMER
 40
0.0550785995
  9
$USRTIMER
 70
     1
  9
$ANGBASE
 50
0.0
  9
$ANGDIR
 70
     0
  9
$PDMODE
 70
     3
  9
$PDSIZE
 40
-2.0
  9
$PLINEWID
 40
0.0
  9
$COORDS
 70
     0
  9
$SPLFRAME
 70
     0
  9
$SPLINETYPE
 70
     6
  9
$SPLINESEGS
 70
     8
  9
$ATTDIA
 70
     0
  9
$ATTREQ
 70
     1
  9
$HANDLING
 70
     1
  9
$HANDSEED
  5
195
  9
$SURFTAB1
 70
     6
  9
$SURFTAB2
 70
     6
  9
$SURFTYPE
 70
     6
  9
$SURFU
 70
     6
  9
$SURFV
 70
     6
  9
$UCSNAME
  2

  9
$UCSORG
 10
0.0
 20
0.0
 30
0.0
  9
$UCSXDIR
 10
1.0
 20
0.0
 30
0.0
  9
$UCSYDIR
 10
0.0
 20
1.0
 30
0.0
  9
$PUCSNAME
  2

  9
$PUCSORG
 10
0.0
 20
0.0
 30
0.0
  9
$PUCSXDIR
 10
1.0
 20
0.0
 30
0.0
  9
$PUCSYDIR
 10
0.0
 20
1.0
 30
0.0
  9
$USERI1
 70
     0
  9
$USERI2
 70
     0
  9
$USERI3
 70
     0
  9
$USERI4
 70
     0
  9
$USERI5
 70
     0
  9
$USERR1
 40
20.0
  9
$USERR2
 40
0.0
  9
$USERR3
 40
0.0
  9
$USERR4
 40
0.0
  9
$USERR5
 40
0.0
  9
$WORLDVIEW
 70
     1
  9
$SHADEDGE
 70
     3
  9
$SHADEDIF
 70
    70
  9
$TILEMODE
 70
     1
  9
$MAXACTVP
 70
    48
  9
$PLIMCHECK
 70
     0
  9
$PEXTMIN
 10
-1.0000000000000000E+020
 20
-1.0000000000000000E+020
 30
-1.0000000000000000E+020
  9
$PEXTMAX
 10
1.0000000000000000E+020
 20
1.0000000000000000E+020
 30
1.0000000000000000E+020
  9
$PLIMMIN
 10
0.0
 20
0.0
  9
$PLIMMAX
 10
12.0
 20
9.0
  9
$UNITMODE
 70
     0
  9
$VISRETAIN
 70
     0
  9
$PLINEGEN
 70
     0
  9
$PSLTSCALE
 70
     0
  0
ENDSEC
  0
SECTION
  2
TABLES
  0
TABLE
  2
VPORT
 70
     1
  0
VPORT
  2
*ACTIVE
 70
     0
 10
0.0
 20
0.0
 11
1.0
 21
1.0
 12
245.74816904262431
 22
78.477292314684973
 13
0.0
 23
0.0
 14
50.0
 24
50.0
 15
100.0
 25
100.0
 16
0.0
 26
0.0
 36
1.0
 17
0.0
 27
0.0
 37
0.0
 40
1266.4008485067379
 41
1.350591715976331
 42
50.0
 43
0.0
 44
0.0
 50
0.0
 51
0.0
 71
     0
 72
  1000
 73
     1
 74
     0
 75
     0
 76
     0
 77
     0
 78
     0
  0
ENDTAB
  0
TABLE
  2
LTYPE
 70
     3
  0
LTYPE
  2
CONTINUOUS
 70
     0
  3
実線
 72
    65
 73
     0
 40
0.0
  0
LTYPE
  2
DASHDOT
 70
     0
  3
____ _ ____ _ ____ _ ____ _ ____ _ ____ _ ____
 72
    65
 73
     4
 40
5.5
 49
4.0
 49
-0.6
 49
0.3
 49
-0.6
  0
ENDTAB
  0
TABLE
  2
LAYER
 70
    12
  0
LAYER
  2
0
 70
     0
 62
     7
  6
CONTINUOUS
  0
LAYER
  2
OUTLINE
 70
     0
 62
     3
  6
CONTINUOUS
  0
LAYER
  2
DETAIL
 70
     0
 62
     5
  6
CONTINUOUS
  0
LAYER
  2
BASIS
 70
     0
 62
     6
  6
DASHDOT
  0
LAYER
  2
SIZE
 70
     0
 62
    30
  6
CONTINUOUS
  0
LAYER
  2
NOTE
 70
     0
 62
     4
  6
CONTINUOUS
  0
LAYER
  2
DEFPOINTS
 70
     0
 62
     7
  6
CONTINUOUS
  0
LAYER
  2
ETC
 70
     0
 62
    61
  6
CONTINUOUS
  0
LAYER
  2
FIX
 70
     0
 62
    11
  6
CONTINUOUS
  0
LAYER
  2
ARRANGE
 70
     0
 62
     1
  6
CONTINUOUS
  0
LAYER
  2
SERVICESPACE
 70
     0
 62
     2
  6
DASHDOT
  0
LAYER
  2
SYMBOLLINE
 70
     0
 62
    15
  6
CONTINUOUS
  0
ENDTAB
  0
TABLE
  2
STYLE
 70
     2
  0
STYLE
  2
STANDARD
 70
     0
 40
0.0
 41
0.9
 50
0.0
 71
     0
 42
64.0
  3
SIMPLEX
  4
BIGFONT
  0
STYLE
  2
ANNOTATIVE
 70
     0
 40
0.0
 41
1.0
 50
0.0
 71
     0
 42
0.2
  3
txt
  4

  0
ENDTAB
  0
TABLE
  2
VIEW
 70
     1
  0
VIEW
  2
ALL
 70
     0
 40
4282.6198079999986
 10
0.0
 20
41.309903999999989
 41
5940.0
 11
0.0
 21
0.0
 31
1.0
 12
0.0
 22
0.0
 32
0.0
 42
50.0
 43
0.0
 44
0.0
 50
0.0
 71
     0
  0
ENDTAB
  0
TABLE
  2
UCS
 70
     0
  0
ENDTAB
  0
TABLE
  2
APPID
 70
     4
  0
APPID
  2
ACAD
 70
     0
  0
APPID
  2
ACADANNOTATIVE
 70
     0
  0
APPID
  2
ACAD_MLEADERVER
 70
     0
  0
APPID
  2
ACAD_EXEMPT_FROM_CAD_STANDARDS
 70
     0
  0
ENDTAB
  0
TABLE
  2
DIMSTYLE
 70
     2
  0
DIMSTYLE
  2
STANDARD
 70
     0
  3

  4

  5

  6

  7

 40
1.0
 41
0.18
 42
0.0625
 43
0.38
 44
0.18
 45
0.0
 46
0.0
 47
0.0
 48
0.0
140
0.18
141
0.09
142
0.0
143
25.399999999999999
144
1.0
145
0.0
146
1.0
147
0.09
 71
     0
 72
     0
 73
     1
 74
     1
 75
     0
 76
     0
 77
     0
 78
     0
170
     0
171
     2
172
     0
173
     0
174
     0
175
     0
176
     7
177
     7
178
     7
  0
DIMSTYLE
  2
ANNOTATIVE
 70
     0
  3

  4

  5

  6

  7

 40
1.0
 41
0.18
 42
0.0625
 43
0.38
 44
0.18
 45
0.0
 46
0.0
 47
0.0
 48
0.0
140
0.18
141
0.09
142
0.0
143
25.399999999999999
144
1.0
145
0.0
146
1.0
147
0.09
 71
     0
 72
     0
 73
     1
 74
     1
 75
     0
 76
     0
 77
     0
 78
     0
170
     0
171
     2
172
     0
173
     0
174
     0
175
     0
176
     0
177
     0
178
     0
  0
ENDTAB
  0
ENDSEC
  0
SECTION
  2
BLOCKS
  0
BLOCK
  8
0
  2
$MODEL_SPACE
 70
     0
 10
0.0
 20
0.0
 30
0.0
  3
$MODEL_SPACE
  1

  0
ENDBLK
  5
76
  8
0
  0
BLOCK
 67
     1
  8
0
  2
$PAPER_SPACE
 70
     0
 10
0.0
 20
0.0
 30
0.0
  3
$PAPER_SPACE
  1

  0
ENDBLK
  5
72
 67
     1
  8
0
  0
BLOCK
  8
0
  2
DOT1
 70
     0
 10
0.0
 20
0.0
 30
0.0
  3
DOT1
  1

  0
CIRCLE
  5
8B
  8
SIZE
  6
CONTINUOUS
 62
     7
 10
0.0
 20
0.0
 30
0.0
 40
3.0
  0
ENDBLK
  5
8C
  8
0
  0
ENDSEC
  0
SECTION
  2
ENTITIES
  0
LINE
  5
8E
  8
DETAIL
  6
CONTINUOUS
 62
     5
 10
139.143969
 20
-44.202334999999998
 30
0.0
 11
149.0
 21
-44.202334999999998
 31
0.0
  0
LINE
  5
8F
  8
DETAIL
  6
CONTINUOUS
 62
     5
 10
139.143969
 20
-50.0
 30
0.0
 11
149.0
 21
-50.0
 31
0.0
  0
LINE
  5
90
  8
DETAIL
  6
CONTINUOUS
 62
     5
 10
149.0
 20
-44.202334999999998
 30
0.0
 11
149.0
 21
-50.0
 31
0.0
  0
LINE
  5
91
  8
DETAIL
  6
CONTINUOUS
 62
     5
 10
-149.0
 20
-44.202334999999998
 30
0.0
 11
-149.0
 21
-50.0
 31
0.0
  0
LINE
  5
92
  8
DETAIL
  6
CONTINUOUS
 62
     5
 10
81.167315000000002
 20
-125.386015
 30
0.0
 11
-81.167315000000002
 21
-125.386015
 31
0.0
  0
LINE
  5
93
  8
DETAIL
  6
CONTINUOUS
 62
     5
 10
110.155642
 20
-50.0
 30
0.0
 11
-110.155642
 21
-50.0
 31
0.0
  0
LINE
  5
94
  8
DETAIL
  6
CONTINUOUS
 62
     5
 10
110.155642
 20
-44.202334999999998
 30
0.0
 11
-110.155642
 21
-44.202334999999998
 31
0.0
  0
LINE
  5
95
  8
DETAIL
  6
CONTINUOUS
 62
     5
 10
-139.143969
 20
-50.0
 30
0.0
 11
-149.0
 21
-50.0
 31
0.0
  0
LINE
  5
96
  8
DETAIL
  6
CONTINUOUS
 62
     5
 10
-139.143969
 20
-44.202334999999998
 30
0.0
 11
-149.0
 21
-44.202334999999998
 31
0.0
  0
LINE
  5
97
  8
DETAIL
  6
CONTINUOUS
 62
     5
 10
185.0
 20
-10.0
 30
0.0
 11
-185.0
 21
-10.0
 31
0.0
  0
LINE
  5
98
  8
DETAIL
  6
CONTINUOUS
 62
     5
 10
-185.0
 20
-10.0
 30
0.0
 11
-185.0
 21
0.0
 31
0.0
  0
LINE
  5
99
  8
DETAIL
  6
CONTINUOUS
 62
     5
 10
185.0
 20
-10.0
 30
0.0
 11
185.0
 21
0.0
 31
0.0
  0
LINE
  5
9A
  8
DETAIL
  6
CONTINUOUS
 62
     5
 10
81.167315000000002
 20
-154.37434200000001
 30
0.0
 11
-81.167315000000002
 21
-154.37434200000001
 31
0.0
  0
LINE
  5
9B
  8
DETAIL
  6
CONTINUOUS
 62
     5
 10
139.143969
 20
-10.0
 30
0.0
 11
139.143969
 21
-96.397688000000002
 31
0.0
  0
LINE
  5
9C
  8
DETAIL
  6
CONTINUOUS
 62
     5
 10
-139.143969
 20
-11.595331
 30
0.0
 11
-139.143969
 21
-96.397688000000002
 31
0.0
  0
LINE
  5
9D
  8
BASIS
  6
DASHDOT
 62
     6
 10
0.0
 20
44.261400999999999
 30
0.0
 11
0.0
 21
-215.26791499999999
 31
0.0
  0
LINE
  5
9E
  8
DETAIL
  6
CONTINUOUS
 62
     5
 10
185.0
 20
0.0
 30
0.0
 11
-185.0
 21
0.0
 31
0.0
  0
LINE
  5
9F
  8
DETAIL
  6
CONTINUOUS
 62
     5
 10
-110.155642
 20
-11.595331
 30
0.0
 11
-110.155642
 21
-96.397688000000002
 31
0.0
  0
ARC
  5
A0
  8
DETAIL
  6
CONTINUOUS
 62
     5
 10
-81.167315000000002
 20
-96.397688000000002
 30
0.0
 40
57.976654000000003
 50
180.0
 51
270.0
  0
ARC
  5
A1
  8
DETAIL
  6
CONTINUOUS
 62
     5
 10
81.167315000000002
 20
-96.397688000000002
 30
0.0
 40
57.976654000000003
 50
270.0
 51
0.0
  0
LINE
  5
A2
  8
DETAIL
  6
CONTINUOUS
 62
     5
 10
110.155642
 20
-11.595331
 30
0.0
 11
110.155642
 21
-96.397688000000002
 31
0.0
  0
ARC
  5
A3
  8
DETAIL
  6
CONTINUOUS
 62
     5
 10
-81.167315000000002
 20
-96.397688000000002
 30
0.0
 40
28.988327000000002
 50
180.0
 51
270.0
  0
ARC
  5
A4
  8
DETAIL
  6
CONTINUOUS
 62
     5
 10
81.167315000000002
 20
-96.397688000000002
 30
0.0
 40
28.988327000000002
 50
270.0
 51
0.0
  0
LINE
  5
A5
  8
NOTE
  6
CONTINUOUS
 62
     4
 10
165.0
 20
20.0
 30
0.0
 11
165.0
 21
-20.0
 31
0.0
  0
LINE
  5
A6
  8
NOTE
  6
CONTINUOUS
 62
     4
 10
145.0
 20
0.0
 30
0.0
 11
185.0
 21
0.0
 31
0.0
  0
CIRCLE
  5
A7
  8
FIX
  6
CONTINUOUS
 62
    11
 10
165.0
 20
0.0
 30
0.0
 40
5.0
  0
LINE
  5
A8
  8
NOTE
  6
CONTINUOUS
 62
     4
 10
178.41863799999999
 20
37.682093000000002
 30
0.0
 11
165.0
 21
0.0
 31
0.0
  0
LINE
  5
A9
  8
NOTE
  6
CONTINUOUS
 62
     4
 10
165.0
 20
0.0
 30
0.0
 11
195.461928
 21
25.924330999999999
 31
0.0
  0
LINE
  5
AA
  8
NOTE
  6
CONTINUOUS
 62
     4
 10
165.0
 20
0.0
 30
0.0
 11
248.86326800000001
 21
123.64929100000001
 31
0.0
  0
TEXT
  5
AB
  8
NOTE
  6
CONTINUOUS
 62
     4
 10
255.4522
 20
152.80593500000001
 30
0.0
 40
64.0
  1
4ヶ所×10×10取付穴
 41
0.9
  0
LINE
  5
AC
  8
NOTE
  6
CONTINUOUS
 62
     4
 10
248.86326800000001
 20
123.64929100000001
 30
0.0
 11
986.56516899999986
 21
123.64929100000001
 31
0.0
  0
CIRCLE
  5
AD
  8
FIX
  6
CONTINUOUS
 62
    11
 10
-165.0
 20
0.0
 30
0.0
 40
5.0
  0
LINE
  5
AE
  8
NOTE
  6
CONTINUOUS
 62
     4
 10
-165.0
 20
20.0
 30
0.0
 11
-165.0
 21
-20.0
 31
0.0
  0
LINE
  5
AF
  8
NOTE
  6
CONTINUOUS
 62
     4
 10
-185.0
 20
0.0
 30
0.0
 11
-145.0
 21
0.0
 31
0.0
  0
POINT
  5
B1
  8
ARRANGE
  6
CONTINUOUS
 62
     1
 10
0.0
 20
0.0
 30
0.0
  0
CIRCLE
  5
B2
  8
ARRANGE
  6
CONTINUOUS
 62
     1
 10
0.0
 20
0.0
 30
0.0
 40
40.0
  0
LINE
  5
B3
  8
DETAIL
  6
CONTINUOUS
 62
     5
 10
-75.092556000000002
 20
-171.0
 30
0.0
 11
75.092556000000002
 21
-171.0
 31
0.0
  0
LINE
  5
B4
  8
DETAIL
  6
CONTINUOUS
 62
     5
 10
-75.092556000000002
 20
-154.37434200000001
 30
0.0
 11
75.646743999999998
 21
-154.37434200000001
 31
0.0
  0
LINE
  5
B5
  8
DETAIL
  6
CONTINUOUS
 62
     5
 10
63.731689000000003
 20
-120.568837
 30
0.0
 11
-63.731689000000003
 21
-120.568837
 31
0.0
  0
LINE
  5
B6
  8
DETAIL
  6
CONTINUOUS
 62
     5
 10
-63.731689000000003
 20
-116.135328
 30
0.0
 11
63.731689000000003
 21
-116.135328
 31
0.0
  0
LINE
  5
B7
  8
DETAIL
  6
CONTINUOUS
 62
     5
 10
63.731689000000003
 20
-118.35208299999999
 30
0.0
 11
-63.731689000000003
 21
-118.35208299999999
 31
0.0
  0
LINE
  5
B8
  8
DETAIL
  6
CONTINUOUS
 62
     5
 10
-75.092556000000002
 20
-120.568837
 30
0.0
 11
75.092556000000002
 21
-120.568837
 31
0.0
  0
LINE
  5
B9
  8
DETAIL
  6
CONTINUOUS
 62
     5
 10
39.347391000000002
 20
-69.029297
 30
0.0
 11
36.583041999999999
 21
-69.029297
 31
0.0
  0
LINE
  5
BA
  8
DETAIL
  6
CONTINUOUS
 62
     5
 10
-75.092556000000002
 20
-126.11072299999999
 30
0.0
 11
75.092556000000002
 21
-126.11072299999999
 31
0.0
  0
LINE
  5
BB
  8
DETAIL
  6
CONTINUOUS
 62
     5
 10
-45.99765399999999
 20
-116.135328
 30
0.0
 11
-45.99765399999999
 21
-75.679560999999993
 31
0.0
  0
LINE
  5
BC
  8
DETAIL
  6
CONTINUOUS
 62
     5
 10
-66.502631999999991
 20
-153.820153
 30
0.0
 11
-66.502631999999991
 21
-126.11072299999999
 31
0.0
  0
LINE
  5
BD
  8
DETAIL
  6
CONTINUOUS
 62
     5
 10
-75.092556000000002
 20
-171.0
 30
0.0
 11
-75.092556000000002
 21
-153.820153
 31
0.0
  0
LINE
  5
BE
  8
DETAIL
  6
CONTINUOUS
 62
     5
 10
-75.092556000000002
 20
-120.568837
 30
0.0
 11
-75.092556000000002
 21
-126.11072299999999
 31
0.0
  0
LINE
  5
BF
  8
DETAIL
  6
CONTINUOUS
 62
     5
 10
-63.731689000000003
 20
-120.568837
 30
0.0
 11
-63.731689000000003
 21
-116.135328
 31
0.0
  0
ARC
  5
C0
  8
DETAIL
  6
CONTINUOUS
 62
     5
 10
-39.347391000000002
 20
-75.679560999999993
 30
0.0
 40
6.6502629999999998
 50
90.0
 51
180.0
  0
LINE
  5
C1
  8
DETAIL
  6
CONTINUOUS
 62
     5
 10
45.99765399999999
 20
-116.135328
 30
0.0
 11
45.99765399999999
 21
-75.679560999999993
 31
0.0
  0
LINE
  5
C2
  8
DETAIL
  6
CONTINUOUS
 62
     5
 10
-75.092556000000002
 20
-153.820153
 30
0.0
 11
75.646743999999998
 21
-153.820153
 31
0.0
  0
CIRCLE
  5
C3
  8
DETAIL
  6
CONTINUOUS
 62
     5
 10
0.0
 20
-159.91622799999999
 30
0.0
 40
5.2093730000000003
  0
LINE
  5
C4
  8
DETAIL
  6
CONTINUOUS
 62
     5
 10
1.6625659999999991
 20
-111.81265999999999
 30
0.0
 11
-1.6625659999999991
 21
-111.81265999999999
 31
0.0
  0
LINE
  5
C5
  8
DETAIL
  6
CONTINUOUS
 62
     5
 10
3.5468069999999989
 20
-116.135328
 30
0.0
 11
-3.5468069999999989
 21
-116.135328
 31
0.0
  0
LINE
  5
C6
  8
DETAIL
  6
CONTINUOUS
 62
     5
 10
-1.6625659999999991
 20
-111.81265999999999
 30
0.0
 11
-1.6625659999999991
 21
-113.47522600000001
 31
0.0
  0
LINE
  5
C7
  8
DETAIL
  6
CONTINUOUS
 62
     5
 10
-3.5468079999999991
 20
-116.13533
 30
0.0
 11
-3.5468079999999991
 21
-113.807737
 31
0.0
  0
LINE
  5
C8
  8
DETAIL
  6
CONTINUOUS
 62
     5
 10
-3.5468059999999988
 20
-113.80773600000001
 30
0.0
 11
-2.937198
 21
-113.475223
 31
0.0
  0
LINE
  5
C9
  8
DETAIL
  6
CONTINUOUS
 62
     5
 10
-2.937198
 20
-113.475224
 30
0.0
 11
-1.6625659999999991
 21
-113.475224
 31
0.0
  0
LINE
  5
CA
  8
DETAIL
  6
CONTINUOUS
 62
     5
 10
1.6625659999999991
 20
-113.475224
 30
0.0
 11
2.937198
 21
-113.475224
 31
0.0
  0
LINE
  5
CB
  8
DETAIL
  6
CONTINUOUS
 62
     5
 10
1.6625659999999991
 20
-111.81265999999999
 30
0.0
 11
1.6625659999999991
 21
-113.47522600000001
 31
0.0
  0
LINE
  5
CC
  8
DETAIL
  6
CONTINUOUS
 62
     5
 10
2.937198
 20
-113.475223
 30
0.0
 11
3.5468059999999988
 21
-113.80773600000001
 31
0.0
  0
LINE
  5
CD
  8
DETAIL
  6
CONTINUOUS
 62
     5
 10
3.5468079999999991
 20
-113.807737
 30
0.0
 11
3.5468079999999991
 21
-116.135327
 31
0.0
  0
LINE
  5
CE
  8
DETAIL
  6
CONTINUOUS
 62
     5
 10
66.502631999999991
 20
-153.820153
 30
0.0
 11
66.502631999999991
 21
-126.11072299999999
 31
0.0
  0
LINE
  5
CF
  8
DETAIL
  6
CONTINUOUS
 62
     5
 10
75.646743999999998
 20
-171.0
 30
0.0
 11
75.646743999999998
 21
-153.820153
 31
0.0
  0
LINE
  5
D0
  8
DETAIL
  6
CONTINUOUS
 62
     5
 10
63.731689000000003
 20
-120.568837
 30
0.0
 11
63.731689000000003
 21
-116.135328
 31
0.0
  0
LINE
  5
D1
  8
DETAIL
  6
CONTINUOUS
 62
     5
 10
75.092556000000002
 20
-126.11072299999999
 30
0.0
 11
75.092556000000002
 21
-120.568837
 31
0.0
  0
ARC
  5
D2
  8
DETAIL
  6
CONTINUOUS
 62
     5
 10
39.347391000000002
 20
-75.679560999999993
 30
0.0
 40
6.6502629999999998
 50
0.0
 51
90.0
  0
LINE
  5
D3
  8
DETAIL
  6
CONTINUOUS
 62
     5
 10
-83.176007999999996
 20
-62.437761000000002
 30
0.0
 11
-96.451651999999996
 21
-67.463678000000002
 31
0.0
  0
LINE
  5
D4
  8
DETAIL
  6
CONTINUOUS
 62
     5
 10
-83.470906999999997
 20
-56.097439999999999
 30
0.0
 11
-94.508953000000005
 21
-62.332512000000001
 31
0.0
  0
LINE
  5
D5
  8
DETAIL
  6
CONTINUOUS
 62
     5
 10
-102.641918
 20
-67.232373999999993
 30
0.0
 11
-107.622714
 21
-70.87033000000001
 31
0.0
  0
LINE
  5
D6
  8
DETAIL
  6
CONTINUOUS
 62
     5
 10
-96.451651999999996
 20
-67.463646999999995
 30
0.0
 11
-108.80815800000001
 21
-72.12152900000001
 31
0.0
  0
LINE
  5
D7
  8
DETAIL
  6
CONTINUOUS
 62
     5
 10
-94.508948999999987
 20
-62.332618000000011
 30
0.0
 11
-102.64192300000001
 21
-67.232368000000008
 31
0.0
  0
LINE
  5
D8
  8
DETAIL
  6
CONTINUOUS
 62
     5
 10
-107.62270599999999
 20
-70.870339999999999
 30
0.0
 11
-108.808179
 21
-72.121560000000002
 31
0.0
  0
LINE
  5
D9
  8
DETAIL
  6
CONTINUOUS
 62
     5
 10
-72.660690000000002
 20
-50.0
 30
0.0
 11
-83.470905999999985
 21
-56.097575999999997
 31
0.0
  0
LINE
  5
DA
  8
DETAIL
  6
CONTINUOUS
 62
     5
 10
-69.483648000000002
 20
-57.054322999999997
 30
0.0
 11
-83.176007999999996
 21
-62.437806000000002
 31
0.0
  0
LINE
  5
DB
  8
DETAIL
  6
CONTINUOUS
 62
     5
 10
-55.849803999999999
 20
-51.313428999999992
 30
0.0
 11
-69.483649
 21
-57.054316
 31
0.0
  0
LINE
  5
DC
  8
DETAIL
  6
CONTINUOUS
 62
     5
 10
-55.849793999999989
 20
-51.313513999999991
 30
0.0
 11
-53.033343000000002
 21
-50.0
 31
0.0
  0
LINE
  5
DD
  8
DETAIL
  6
CONTINUOUS
 62
     5
 10
-18.069412
 20
-56.097575999999997
 30
0.0
 11
-32.83644300000001
 21
-50.0
 31
0.0
  0
LINE
  5
DE
  8
DETAIL
  6
CONTINUOUS
 62
     5
 10
-18.069414999999999
 20
-56.097557000000002
 30
0.0
 11
1.10165
 21
-62.332604000000003
 31
0.0
  0
LINE
  5
DF
  8
DETAIL
  6
CONTINUOUS
 62
     5
 10
1.1015950000000001
 20
-62.332621000000003
 30
0.0
 11
20.272632000000002
 21
-67.232391000000007
 31
0.0
  0
LINE
  5
E0
  8
DETAIL
  6
CONTINUOUS
 62
     5
 10
20.272635000000001
 20
-67.232399999999998
 30
0.0
 11
38.861144000000003
 21
-70.870401000000001
 31
0.0
  0
LINE
  5
E1
  8
DETAIL
  6
CONTINUOUS
 62
     5
 10
47.042118999999992
 20
-72.121611999999999
 30
0.0
 11
31.287853999999999
 21
-67.463729999999998
 31
0.0
  0
LINE
  5
E2
  8
DETAIL
  6
CONTINUOUS
 62
     5
 10
38.861142999999998
 20
-70.870470999999995
 30
0.0
 11
47.042113999999998
 21
-72.12169200000001
 31
0.0
  0
LINE
  5
E3
  8
DETAIL
  6
CONTINUOUS
 62
     5
 10
5.9432580000000002
 20
-57.054405000000003
 30
0.0
 11
-3.142088999999999
 21
-51.313544999999998
 31
0.0
  0
LINE
  5
E4
  8
DETAIL
  6
CONTINUOUS
 62
     5
 10
31.287853999999999
 20
-67.463729999999998
 30
0.0
 11
5.9432619999999989
 21
-57.054333999999997
 31
0.0
  0
LINE
  5
E5
  8
DETAIL
  6
CONTINUOUS
 62
     5
 10
-3.1421149999999991
 20
-51.313400000000001
 30
0.0
 11
-4.5298780000000001
 21
-50.0
 31
0.0
  0
LINE
  5
E6
  8
DETAIL
  6
CONTINUOUS
 62
     5
 10
85.823552000000007
 20
-62.332632999999987
 30
0.0
 11
61.177773000000002
 21
-70.870380000000011
 31
0.0
  0
LINE
  5
E7
  8
DETAIL
  6
CONTINUOUS
 62
     5
 10
51.40813099999999
 20
-51.313524000000001
 30
0.0
 11
55.956612
 21
-57.054386999999998
 31
0.0
  0
LINE
  5
E8
  8
DETAIL
  6
CONTINUOUS
 62
     5
 10
51.408126000000003
 20
-51.313592
 30
0.0
 11
49.979512
 21
-50.0
 31
0.0
  0
LINE
  5
E9
  8
DETAIL
  6
CONTINUOUS
 62
     5
 10
58.111709999999988
 20
-62.437789999999993
 30
0.0
 11
57.580002
 21
-67.463696999999996
 31
0.0
  0
LINE
  5
EA
  8
DETAIL
  6
CONTINUOUS
 62
     5
 10
57.579968000000001
 20
-67.463666000000003
 30
0.0
 11
54.182264000000004
 21
-72.121542000000005
 31
0.0
  0
LINE
  5
EB
  8
DETAIL
  6
CONTINUOUS
 62
     5
 10
61.177770999999993
 20
-70.870334
 30
0.0
 11
54.182220999999998
 21
-72.121531000000004
 31
0.0
  0
LINE
  5
EC
  8
DETAIL
  6
CONTINUOUS
 62
     5
 10
55.956583999999999
 20
-57.054425000000002
 30
0.0
 11
58.111736999999998
 21
-62.437795999999992
 31
0.0
  0
LINE
  5
ED
  8
DETAIL
  6
CONTINUOUS
 62
     5
 10
93.956484000000003
 20
-56.097622999999992
 30
0.0
 11
85.823571000000015
 21
-62.332694999999987
 31
0.0
  0
LINE
  5
EE
  8
DETAIL
  6
CONTINUOUS
 62
     5
 10
93.956614999999999
 20
-56.097594999999998
 30
0.0
 11
97.913445999999993
 21
-50.0
 31
0.0
  0
LINE
  5
EF
  8
DETAIL
  6
CONTINUOUS
 62
     5
 10
29.453951
 20
-69.029297
 30
0.0
 11
-39.347391000000002
 21
-69.029297
 31
0.0
  0
LINE
  5
F0
  8
DETAIL
  6
CONTINUOUS
 62
     5
 10
-5.7976650000000003
 20
-69.029297
 30
0.0
 11
-5.7976650000000003
 21
-60.08872499999999
 31
0.0
  0
LINE
  5
F1
  8
DETAIL
  6
CONTINUOUS
 62
     5
 10
5.7976650000000003
 20
-69.029297
 30
0.0
 11
5.7976650000000003
 21
-63.532851000000001
 31
0.0
  0
LINE
  5
F2
  8
DETAIL
  6
CONTINUOUS
 62
     5
 10
-5.7976650000000003
 20
-66.036699999999996
 30
0.0
 11
-5.7976650000000003
 21
-60.08872499999999
 31
0.0
  0
LINE
  5
F3
  8
DETAIL
  6
CONTINUOUS
 62
     5
 10
5.7976650000000003
 20
-69.029297
 30
0.0
 11
5.7976650000000003
 21
-63.532851000000001
 31
0.0
  0
LINE
  5
F4
  8
DETAIL
  6
CONTINUOUS
 62
     5
 10
5.7976650000000003
 20
-56.994534999999999
 30
0.0
 11
5.7976650000000003
 21
-50.0
 31
0.0
  0
LINE
  5
F5
  8
SIZE
  6
CONTINUOUS
 62
    30
 10
-205.52529200000001
 20
0.0
 30
0.0
 11
-243.15739600000001
 21
0.0
 31
0.0
  0
LINE
  5
F6
  8
SIZE
  6
CONTINUOUS
 62
    30
 10
-205.52529200000001
 20
-10.0
 30
0.0
 11
-243.15739600000001
 21
-10.0
 31
0.0
  0
LINE
  5
F7
  8
SIZE
  6
CONTINUOUS
 62
    30
 10
-213.15739600000001
 20
2.0
 30
0.0
 11
-213.15739600000001
 21
4.0
 31
0.0
  0
LINE
  5
F8
  8
SIZE
  6
CONTINUOUS
 62
    30
 10
-213.15739600000001
 20
-12.0
 30
0.0
 11
-213.15739600000001
 21
-14.0
 31
0.0
  0
LINE
  5
F9
  8
SIZE
  6
CONTINUOUS
 62
    30
 10
-213.15739600000001
 20
132.168879
 30
0.0
 11
-213.15739600000001
 21
0.0
 31
0.0
  0
TEXT
  5
FA
  8
SIZE
  6
CONTINUOUS
 62
    30
 10
-233.15739600000001
 20
29.883163857142861
 30
0.0
 40
64.0
  1
10
 50
90.0
 41
0.9
 72
     1
 11
-233.15739600000001
 21
71.026021
 31
0.0
  0
LINE
  5
FB
  8
SIZE
  6
CONTINUOUS
 62
    30
 10
-213.15739600000001
 20
0.0
 30
0.0
 11
-213.15739600000001
 21
-10.0
 31
0.0
  0
LINE
  5
FC
  8
SIZE
  6
CONTINUOUS
 62
    30
 10
-213.15739600000001
 20
0.0
 30
0.0
 11
-213.15739600000001
 21
-10.0
 31
0.0
  0
CIRCLE
  5
FD
  8
SIZE
  6
CONTINUOUS
 62
    30
 10
-213.15739600000001
 20
0.0
 30
0.0
 40
6.0
  0
CIRCLE
  5
FE
  8
SIZE
  6
CONTINUOUS
 62
    30
 10
-213.15739600000001
 20
-10.0
 30
0.0
 40
6.0
  0
POINT
  5
FF
  8
DEFPOINTS
  6
CONTINUOUS
 62
    30
 10
-185.52529200000001
 20
0.0
 30
0.0
  0
POINT
  5
100
  8
DEFPOINTS
  6
CONTINUOUS
 62
    30
 10
-185.52529200000001
 20
-10.0
 30
0.0
  0
POINT
  5
101
  8
DEFPOINTS
  6
CONTINUOUS
 62
    30
 10
-213.15739600000001
 20
-10.0
 30
0.0
  0
LINE
  5
102
  8
SIZE
  6
CONTINUOUS
 62
    30
 10
-205.52529200000001
 20
0.0
 30
0.0
 11
-354.77807799999999
 21
0.0
 31
0.0
  0
LINE
  5
103
  8
SIZE
  6
CONTINUOUS
 62
    30
 10
-169.0
 20
-50.0
 30
0.0
 11
-354.77807799999999
 21
-50.0
 31
0.0
  0
LINE
  5
104
  8
SIZE
  6
CONTINUOUS
 62
    30
 10
-324.77807799999999
 20
-2.0
 30
0.0
 11
-324.77807799999999
 21
-48.0
 31
0.0
  0
LINE
  5
105
  8
SIZE
  6
CONTINUOUS
 62
    30
 10
-324.77807799999999
 20
145.77787900000001
 30
0.0
 11
-324.77807799999999
 21
0.0
 31
0.0
  0
TEXT
  5
106
  8
SIZE
  6
CONTINUOUS
 62
    30
 10
-344.77807799999999
 20
32.520735571428567
 30
0.0
 40
64.0
  1
50
 50
90.0
 41
0.9
 72
     1
 11
-344.77807799999999
 21
79.149306999999993
 31
0.0
  0
CIRCLE
  5
107
  8
SIZE
  6
CONTINUOUS
 62
    30
 10
-324.77807799999999
 20
0.0
 30
0.0
 40
6.0
  0
CIRCLE
  5
108
  8
SIZE
  6
CONTINUOUS
 62
    30
 10
-324.77807799999999
 20
-50.0
 30
0.0
 40
6.0
  0
POINT
  5
109
  8
DEFPOINTS
  6
CONTINUOUS
 62
    30
 10
-185.52529200000001
 20
0.0
 30
0.0
  0
POINT
  5
10A
  8
DEFPOINTS
  6
CONTINUOUS
 62
    30
 10
-149.0
 20
-50.0
 30
0.0
  0
POINT
  5
10B
  8
DEFPOINTS
  6
CONTINUOUS
 62
    30
 10
-324.77807799999999
 20
-50.0
 30
0.0
  0
LINE
  5
10C
  8
SIZE
  6
CONTINUOUS
 62
    30
 10
-205.52529200000001
 20
0.0
 30
0.0
 11
-473.84841799999992
 21
0.0
 31
0.0
  0
LINE
  5
10D
  8
SIZE
  6
CONTINUOUS
 62
    30
 10
-95.092556000000016
 20
-171.0
 30
0.0
 11
-473.84841799999992
 21
-171.0
 31
0.0
  0
LINE
  5
10E
  8
SIZE
  6
CONTINUOUS
 62
    30
 10
-443.84841799999992
 20
-2.0
 30
0.0
 11
-443.84841799999992
 21
-169.0
 31
0.0
  0
CIRCLE
  5
10F
  8
SIZE
  6
CONTINUOUS
 62
    30
 10
-443.84841799999992
 20
0.0
 30
0.0
 40
6.0
  0
CIRCLE
  5
110
  8
SIZE
  6
CONTINUOUS
 62
    30
 10
-443.84841799999992
 20
-171.0
 30
0.0
 40
6.0
  0
TEXT
  5
111
  8
SIZE
  6
CONTINUOUS
 62
    30
 10
-463.84841799999992
 20
-141.7285714285714
 30
0.0
 40
64.0
  1
171
 50
90.0
 41
0.9
 72
     1
 11
-463.84841799999992
 21
-85.5
 31
0.0
  0
POINT
  5
112
  8
DEFPOINTS
  6
CONTINUOUS
 62
    30
 10
-185.52529200000001
 20
0.0
 30
0.0
  0
POINT
  5
113
  8
DEFPOINTS
  6
CONTINUOUS
 62
    30
 10
-75.092556000000002
 20
-171.0
 30
0.0
  0
POINT
  5
114
  8
DEFPOINTS
  6
CONTINUOUS
 62
    30
 10
-443.84841799999992
 20
-171.0
 30
0.0
  0
LINE
  5
115
  8
SIZE
  6
CONTINUOUS
 62
    30
 10
-165.0
 20
40.0
 30
0.0
 11
-165.0
 21
89.991471000000004
 31
0.0
  0
LINE
  5
116
  8
SIZE
  6
CONTINUOUS
 62
    30
 10
165.0
 20
40.0
 30
0.0
 11
165.0
 21
89.991471000000004
 31
0.0
  0
LINE
  5
117
  8
SIZE
  6
CONTINUOUS
 62
    30
 10
-163.0
 20
59.991470999999997
 30
0.0
 11
163.0
 21
59.991470999999997
 31
0.0
  0
CIRCLE
  5
118
  8
SIZE
  6
CONTINUOUS
 62
    30
 10
-165.0
 20
59.991470999999997
 30
0.0
 40
6.0
  0
CIRCLE
  5
119
  8
SIZE
  6
CONTINUOUS
 62
    30
 10
165.0
 20
59.991470999999997
 30
0.0
 40
6.0
  0
TEXT
  5
11A
  8
SIZE
  6
CONTINUOUS
 62
    30
 10
-74.057142857142864
 20
79.99147099999999
 30
0.0
 40
64.0
  1
330
 41
0.9
 72
     1
 11
0.0
 21
79.99147099999999
 31
0.0
  0
POINT
  5
11B
  8
DEFPOINTS
  6
CONTINUOUS
 62
    30
 10
-165.0
 20
20.0
 30
0.0
  0
POINT
  5
11C
  8
DEFPOINTS
  6
CONTINUOUS
 62
    30
 10
165.0
 20
20.0
 30
0.0
  0
POINT
  5
11D
  8
DEFPOINTS
  6
CONTINUOUS
 62
    30
 10
165.0
 20
59.991470999999997
 30
0.0
  0
LINE
  5
11E
  8
SIZE
  6
CONTINUOUS
 62
    30
 10
-185.0
 20
20.0
 30
0.0
 11
-185.0
 21
213.73709600000001
 31
0.0
  0
LINE
  5
11F
  8
SIZE
  6
CONTINUOUS
 62
    30
 10
185.0
 20
20.0
 30
0.0
 11
185.0
 21
213.73709600000001
 31
0.0
  0
LINE
  5
120
  8
SIZE
  6
CONTINUOUS
 62
    30
 10
-183.0
 20
183.73709600000001
 30
0.0
 11
183.0
 21
183.73709600000001
 31
0.0
  0
CIRCLE
  5
121
  8
SIZE
  6
CONTINUOUS
 62
    30
 10
-185.0
 20
183.73709600000001
 30
0.0
 40
6.0
  0
CIRCLE
  5
122
  8
SIZE
  6
CONTINUOUS
 62
    30
 10
185.0
 20
183.73709600000001
 30
0.0
 40
6.0
  0
TEXT
  5
123
  8
SIZE
  6
CONTINUOUS
 62
    30
 10
-74.05714285714285
 20
203.73709600000001
 30
0.0
 40
64.0
  1
370
 41
0.9
 72
     1
 11
0.0
 21
203.73709600000001
 31
0.0
  0
POINT
  5
124
  8
DEFPOINTS
  6
CONTINUOUS
 62
    30
 10
-185.0
 20
0.0
 30
0.0
  0
POINT
  5
125
  8
DEFPOINTS
  6
CONTINUOUS
 62
    30
 10
185.0
 20
0.0
 30
0.0
  0
POINT
  5
126
  8
DEFPOINTS
  6
CONTINUOUS
 62
    30
 10
185.0
 20
183.73709600000001
 30
0.0
  0
LINE
  5
127
  8
SIZE
  6
CONTINUOUS
 62
    30
 10
-149.0
 20
-70.0
 30
0.0
 11
-149.0
 21
-366.50674400000003
 31
0.0
  0
LINE
  5
128
  8
SIZE
  6
CONTINUOUS
 62
    30
 10
149.0
 20
-70.0
 30
0.0
 11
149.0
 21
-366.50674400000003
 31
0.0
  0
LINE
  5
129
  8
SIZE
  6
CONTINUOUS
 62
    30
 10
-147.0
 20
-336.50674400000003
 30
0.0
 11
147.0
 21
-336.50674400000003
 31
0.0
  0
CIRCLE
  5
12A
  8
SIZE
  6
CONTINUOUS
 62
    30
 10
-149.0
 20
-336.50674400000003
 30
0.0
 40
6.0
  0
CIRCLE
  5
12B
  8
SIZE
  6
CONTINUOUS
 62
    30
 10
149.0
 20
-336.50674400000003
 30
0.0
 40
6.0
  0
TEXT
  5
12C
  8
SIZE
  6
CONTINUOUS
 62
    30
 10
-114.3771428571428
 20
-316.50674400000003
 30
0.0
 40
64.0
  1
φ298
 41
0.9
 72
     1
 11
0.0
 21
-316.50674400000003
 31
0.0
  0
POINT
  5
12D
  8
DEFPOINTS
  6
CONTINUOUS
 62
    30
 10
-149.0
 20
-50.0
 30
0.0
  0
POINT
  5
12E
  8
DEFPOINTS
  6
CONTINUOUS
 62
    30
 10
149.0
 20
-50.0
 30
0.0
  0
POINT
  5
12F
  8
DEFPOINTS
  6
CONTINUOUS
 62
    30
 10
149.0
 20
-336.50674400000003
 30
0.0
  0
LINE
  5
130
  8
OUTLINE
  6
CONTINUOUS
 62
     3
 10
185.0
 20
0.0
 30
0.0
 11
-185.0
 21
0.0
 31
0.0
  0
LINE
  5
131
  8
OUTLINE
  6
CONTINUOUS
 62
     3
 10
185.0
 20
-10.0
 30
0.0
 11
-185.0
 21
-10.0
 31
0.0
  0
LINE
  5
132
  8
OUTLINE
  6
CONTINUOUS
 62
     3
 10
-75.092556000000002
 20
-154.37434200000001
 30
0.0
 11
75.646743999999998
 21
-154.37434200000001
 31
0.0
  0
LINE
  5
133
  8
OUTLINE
  6
CONTINUOUS
 62
     3
 10
-75.092556000000002
 20
-171.0
 30
0.0
 11
75.092556000000002
 21
-171.0
 31
0.0
  0
LINE
  5
134
  8
OUTLINE
  6
CONTINUOUS
 62
     3
 10
81.167315000000002
 20
-154.37434200000001
 30
0.0
 11
-81.167315000000002
 21
-154.37434200000001
 31
0.0
  0
LINE
  5
135
  8
OUTLINE
  6
CONTINUOUS
 62
     3
 10
-75.092556000000002
 20
-171.0
 30
0.0
 11
-75.092556000000002
 21
-154.37434200000001
 31
0.0
  0
ARC
  5
136
  8
OUTLINE
  6
CONTINUOUS
 62
     3
 10
-81.167315000000002
 20
-96.397688000000002
 30
0.0
 40
57.976654000000003
 50
180.0
 51
270.0
  0
LINE
  5
137
  8
OUTLINE
  6
CONTINUOUS
 62
     3
 10
-139.143969
 20
-11.595331
 30
0.0
 11
-139.143969
 21
-96.397688000000002
 31
0.0
  0
LINE
  5
138
  8
OUTLINE
  6
CONTINUOUS
 62
     3
 10
-185.0
 20
-10.0
 30
0.0
 11
-185.0
 21
0.0
 31
0.0
  0
LINE
  5
139
  8
OUTLINE
  6
CONTINUOUS
 62
     3
 10
-139.143969
 20
-50.0
 30
0.0
 11
-149.0
 21
-50.0
 31
0.0
  0
LINE
  5
13A
  8
OUTLINE
  6
CONTINUOUS
 62
     3
 10
-139.143969
 20
-44.202334999999998
 30
0.0
 11
-149.0
 21
-44.202334999999998
 31
0.0
  0
LINE
  5
13B
  8
OUTLINE
  6
CONTINUOUS
 62
     3
 10
-149.0
 20
-44.202334999999998
 30
0.0
 11
-149.0
 21
-50.0
 31
0.0
  0
LINE
  5
13C
  8
OUTLINE
  6
CONTINUOUS
 62
     3
 10
75.646743999999998
 20
-171.0
 30
0.0
 11
75.646743999999998
 21
-154.37434200000001
 31
0.0
  0
ARC
  5
13D
  8
OUTLINE
  6
CONTINUOUS
 62
     3
 10
81.167315000000002
 20
-96.397688000000002
 30
0.0
 40
57.976654000000003
 50
270.0
 51
0.0
  0
LINE
  5
13E
  8
OUTLINE
  6
CONTINUOUS
 62
     3
 10
139.143969
 20
-11.595331
 30
0.0
 11
139.143969
 21
-96.397688000000002
 31
0.0
  0
LINE
  5
13F
  8
OUTLINE
  6
CONTINUOUS
 62
     3
 10
139.143969
 20
-50.0
 30
0.0
 11
149.0
 21
-50.0
 31
0.0
  0
LINE
  5
140
  8
OUTLINE
  6
CONTINUOUS
 62
     3
 10
149.0
 20
-44.202334999999998
 30
0.0
 11
149.0
 21
-50.0
 31
0.0
  0
LINE
  5
141
  8
OUTLINE
  6
CONTINUOUS
 62
     3
 10
139.143969
 20
-44.202334999999998
 30
0.0
 11
149.0
 21
-44.202334999999998
 31
0.0
  0
LINE
  5
142
  8
OUTLINE
  6
CONTINUOUS
 62
     3
 10
185.0
 20
-10.0
 30
0.0
 11
185.0
 21
0.0
 31
0.0
  0
LINE
  5
143
  8
NOTE
  6
CONTINUOUS
 62
     4
 10
127.036903
 20
-30.0
 30
0.0
 11
127.036903
 21
10.0
 31
0.0
  0
LINE
  5
144
  8
NOTE
  6
CONTINUOUS
 62
     4
 10
107.036903
 20
-10.0
 30
0.0
 11
147.036903
 21
-10.0
 31
0.0
  0
LINE
  5
145
  8
NOTE
  6
CONTINUOUS
 62
     4
 10
158.647188
 20
-34.511015999999998
 30
0.0
 11
127.036903
 21
-10.0
 31
0.0
  0
LINE
  5
146
  8
NOTE
  6
CONTINUOUS
 62
     4
 10
127.036903
 20
-10.0
 30
0.0
 11
142.15670399999999
 21
-47.032305000000001
 31
0.0
  0
TEXT
  5
147
  8
NOTE
  6
CONTINUOUS
 62
     4
 10
237.55497500000001
 20
-128.68097700000001
 30
0.0
 40
64.0
  1
EL
 41
0.9
  0
LINE
  5
148
  8
NOTE
  6
CONTINUOUS
 62
     4
 10
234.50826900000001
 20
-139.33904100000001
 30
0.0
 11
339.61958099999998
 21
-139.33904100000001
 31
0.0
  0
LINE
  5
149
  8
NOTE
  6
CONTINUOUS
 62
     4
 10
234.50826900000001
 20
-139.33904100000001
 30
0.0
 11
127.036903
 21
-10.0
 31
0.0
  0
TEXT
  5
155
  8
ETC
  6
CONTINUOUS
 62
    61
 10
538.85723034467969
 20
519.74370589289583
 30
0.0
 40
40.0
  1
産業扇
 41
0.9
  0
TEXT
  5
156
  8
ETC
  6
CONTINUOUS
 62
    61
 10
546.41785134467955
 20
578.05458689289583
 30
0.0
 40
40.0
  1
EF-25ASXB3_6
 41
0.9
  0
TEXT
  5
157
  8
ETC
  6
CONTINUOUS
 62
    61
 10
585.25249997239735
 20
403.36567752093111
 30
0.0
 40
40.0
  1
EF-25ATXB
 41
0.9
  0
TEXT
  5
158
  8
ETC
  6
CONTINUOUS
 62
    61
 10
585.25249997239735
 20
463.45155652093109
 30
0.0
 40
40.0
  1
EF-25ASXB
 41
0.9
  0
TEXT
  5
159
  8
ETC
  6
CONTINUOUS
 62
    61
 10
585.25249997239735
 20
284.96541776505012
 30
0.0
 40
40.0
  1
EF-25ATXB3
 41
0.9
  0
TEXT
  5
15A
  8
ETC
  6
CONTINUOUS
 62
    61
 10
585.25249997239735
 20
345.0512967650501
 30
0.0
 40
40.0
  1
EF-25ASXB3
 41
0.9
  0
ENDSEC
  0
EOF
