  0
SECTION
  2
HEADER
  9
$ACADVER
  1
AC1009
  9
$DWGCODEPAGE
  3
dos932
  9
$INSBASE
 10
0.0
 20
0.0
 30
0.0
  9
$EXTMIN
 10
-447.29459993226368
 20
-356.00279580802089
 30
-0.0000000000000058
  9
$EXTMAX
 10
1240.823376074924
 20
467.19361139367538
 30
0.0000000000000104
  9
$LIMMIN
 10
-2970.0
 20
-2100.0
  9
$LIMMAX
 10
2970.0
 20
2100.0
  9
$ORTHOMODE
 70
     1
  9
$REGENMODE
 70
     1
  9
$FILLMODE
 70
     1
  9
$QTEXTMODE
 70
     0
  9
$MIRRTEXT
 70
     0
  9
$LTSCALE
 40
20.0
  9
$ATTMODE
 70
     1
  9
$TEXTSIZE
 40
64.0
  9
$TRACEWID
 40
0.05
  9
$TEXTSTYLE
  7
STANDARD
  9
$CLAYER
  8
SIZE
  9
$CELTYPE
  6
CONTINUOUS
  9
$CECOLOR
 62
     7
  9
$DIMSCALE
 40
1.0
  9
$DIMASZ
 40
12.0
  9
$DIMEXO
 40
20.0
  9
$DIMDLI
 40
200.0
  9
$DIMRND
 40
0.0
  9
$DIMDLE
 40
0.0
  9
$DIMEXE
 40
20.0
  9
$DIMTP
 40
0.0
  9
$DIMTM
 40
0.0
  9
$DIMTXT
 40
64.0
  9
$DIMCEN
 40
0.09
  9
$DIMTSZ
 40
0.0
  9
$DIMTOL
 70
     0
  9
$DIMLIM
 70
     0
  9
$DIMTIH
 70
     0
  9
$DIMTOH
 70
     0
  9
$DIMSE1
 70
     0
  9
$DIMSE2
 70
     0
  9
$DIMTAD
 70
     1
  9
$DIMZIN
 70
     8
  9
$DIMBLK
  1

  9
$DIMASO
 70
     1
  9
$DIMSHO
 70
     0
  9
$DIMPOST
  1

  9
$DIMAPOST
  1

  9
$DIMALT
 70
     0
  9
$DIMALTD
 70
     2
  9
$DIMALTF
 40
25.399999999999999
  9
$DIMLFAC
 40
1.0
  9
$DIMTOFL
 70
     1
  9
$DIMTVP
 40
0.0
  9
$DIMTIX
 70
     1
  9
$DIMSOXD
 70
     0
  9
$DIMSAH
 70
     0
  9
$DIMBLK1
  1

  9
$DIMBLK2
  1

  9
$DIMSTYLE
  2
STANDARD
  9
$DIMCLRD
 70
     7
  9
$DIMCLRE
 70
     7
  9
$DIMCLRT
 70
     7
  9
$DIMTFAC
 40
1.0
  9
$DIMGAP
 40
25.0
  9
$LUNITS
 70
     2
  9
$LUPREC
 70
     4
  9
$SKETCHINC
 40
0.1
  9
$FILLETRAD
 40
3.0
  9
$AUNITS
 70
     1
  9
$AUPREC
 70
     3
  9
$MENU
  1
ACAD
  9
$ELEVATION
 40
0.0
  9
$PELEVATION
 40
0.0
  9
$THICKNESS
 40
0.0
  9
$LIMCHECK
 70
     0
  9
$CHAMFERA
 40
0.0
  9
$CHAMFERB
 40
0.0
  9
$SKPOLY
 70
     0
  9
$TDCREATE
 40
2453019.62301037
  9
$TDUPDATE
 40
2459362.654360799
  9
$TDINDWG
 40
1.7212081134
  9
$TDUSRTIMER
 40
1.7212081134
  9
$USRTIMER
 70
     1
  9
$ANGBASE
 50
0.0
  9
$ANGDIR
 70
     0
  9
$PDMODE
 70
     3
  9
$PDSIZE
 40
-2.0
  9
$PLINEWID
 40
0.0
  9
$SPLFRAME
 70
     0
  9
$SPLINETYPE
 70
     6
  9
$SPLINESEGS
 70
     8
  9
$SURFTAB1
 70
     6
  9
$SURFTAB2
 70
     6
  9
$SURFTYPE
 70
     6
  9
$SURFU
 70
     6
  9
$SURFV
 70
     6
  9
$UCSNAME
  2

  9
$UCSORG
 10
0.0
 20
0.0
 30
0.0
  9
$UCSXDIR
 10
1.0
 20
0.0
 30
0.0
  9
$UCSYDIR
 10
0.0
 20
1.0
 30
0.0
  9
$PUCSNAME
  2

  9
$PUCSORG
 10
0.0
 20
0.0
 30
0.0
  9
$PUCSXDIR
 10
1.0
 20
0.0
 30
0.0
  9
$PUCSYDIR
 10
0.0
 20
1.0
 30
0.0
  9
$USERI1
 70
     0
  9
$USERI2
 70
     0
  9
$USERI3
 70
     0
  9
$USERI4
 70
     0
  9
$USERI5
 70
     0
  9
$USERR1
 40
20.0
  9
$USERR2
 40
0.0
  9
$USERR3
 40
0.0
  9
$USERR4
 40
0.0
  9
$USERR5
 40
0.0
  9
$WORLDVIEW
 70
     1
  9
$SHADEDGE
 70
     3
  9
$SHADEDIF
 70
    70
  9
$TILEMODE
 70
     1
  9
$MAXACTVP
 70
    48
  9
$PINSBASE
 10
0.0
 20
0.0
 30
0.0
  9
$PLIMCHECK
 70
     0
  9
$PEXTMIN
 10
-100000000000000000000.0
 20
-100000000000000000000.0
 30
-100000000000000000000.0
  9
$PEXTMAX
 10
100000000000000000000.0
 20
100000000000000000000.0
 30
100000000000000000000.0
  9
$PLIMMIN
 10
0.0
 20
0.0
  9
$PLIMMAX
 10
12.0
 20
9.0
  9
$UNITMODE
 70
     0
  9
$VISRETAIN
 70
     0
  9
$PLINEGEN
 70
     0
  9
$PSLTSCALE
 70
     0
  9
$TREEDEPTH
 70
  3020
  9
$ATTDIA
 70
     0
  9
$ATTREQ
 70
     1
  9
$BLIPMODE
 70
     1
  9
$COORDS
 70
     1
  9
$DRAGMODE
 70
     2
  9
$OSMODE
 70
     0
  9
$HANDLING
 70
     0
  9
$HANDSEED
  5
F8CA
  0
ENDSEC
  0
SECTION
  2
TABLES
  0
TABLE
  2
LTYPE
 70
     2
  0
LTYPE
  2
CONTINUOUS
 70
     0
  3
実線
 72
    65
 73
     0
 40
0.0
  0
LTYPE
  2
DASHDOT
 70
     0
  3
____ _ ____ _ ____ _ ____ _ ____ _ ____ _ ____
 72
    65
 73
     4
 40
5.5
 49
4.0
 49
-0.6
 49
0.3
 49
-0.6
  0
ENDTAB
  0
TABLE
  2
LAYER
 70
    12
  0
LAYER
  2
0
 70
     0
 62
     7
  6
CONTINUOUS
  0
LAYER
  2
BASIS
 70
     0
 62
     6
  6
DASHDOT
  0
LAYER
  2
OUTLINE
 70
     0
 62
     3
  6
CONTINUOUS
  0
LAYER
  2
DETAIL
 70
     0
 62
     5
  6
CONTINUOUS
  0
LAYER
  2
SIZE
 70
     0
 62
    30
  6
CONTINUOUS
  0
LAYER
  2
ARRANGE
 70
     0
 62
     1
  6
CONTINUOUS
  0
LAYER
  2
DEFPOINTS
 70
     0
 62
     7
  6
CONTINUOUS
  0
LAYER
  2
ETC
 70
     0
 62
    61
  6
CONTINUOUS
  0
LAYER
  2
FIX
 70
     0
 62
    11
  6
CONTINUOUS
  0
LAYER
  2
NOTE
 70
     0
 62
     4
  6
CONTINUOUS
  0
LAYER
  2
SERVICESPACE
 70
    64
 62
     2
  6
DASHDOT
  0
LAYER
  2
SYMBOLLINE
 70
    64
 62
    15
  6
CONTINUOUS
  0
ENDTAB
  0
TABLE
  2
STYLE
 70
     1
  0
STYLE
  2
STANDARD
 70
     0
 40
64.0
 41
0.9
 50
0.0
 71
     0
 42
64.0
  3
SIMPLEX.shx
  4
BIGFONT.shx
  0
ENDTAB
  0
TABLE
  2
APPID
 70
    20
  0
APPID
  2
ACAD
 70
     0
  0
APPID
  2
AUTOCAD_POSTSCRIPT_FIGURE
 70
     0
  0
APPID
  2
ACAD_EXEMPT_FROM_CAD_STANDARDS
 70
     0
  0
APPID
  2
ACAD_PSEXT
 70
     0
  0
APPID
  2
ACAUTHENVIRON
 70
     0
  0
APPID
  2
GENIUS_GENOENT_13
 70
     0
  0
APPID
  2
GENIUS_GENCFG_13
 70
     0
  0
APPID
  2
GENIUS_GENCFG0_13
 70
     0
  0
APPID
  2
GENIUS_GENCFG1_13
 70
     0
  0
APPID
  2
GENIUS_GENCFG2_13
 70
     0
  0
APPID
  2
GENIUS_GENCFG3_13
 70
     0
  0
APPID
  2
GENIUS_GENCFG4_13
 70
     0
  0
APPID
  2
GENIUS_GEVCFG0_13
 70
     0
  0
APPID
  2
CONTENTBLOCKICON
 70
     0
  0
APPID
  2
CONTENTBLOCKDESCRIPTION
 70
     0
  0
APPID
  2
ACAD_NAV_VCDISPLAY
 70
     0
  0
APPID
  2
ACAD_MLEADERVER
 70
     0
  0
APPID
  2
ACDBDYNAMICBLOCKTRUENAME
 70
     0
  0
APPID
  2
ACDBDYNAMICBLOCKGUID
 70
     0
  0
APPID
  2
ACAD_DSTYLE_DIMRADIAL_EXTENSION
 70
     0
  0
ENDTAB
  0
TABLE
  2
DIMSTYLE
 70
     1
  0
DIMSTYLE
  2
STANDARD
 70
     0
  3

  4

  5
_ORIGIN
  6

  7

 40
1.0
 41
12.0
 42
20.0
 43
200.0
 44
20.0
 45
0.0
 46
0.0
 47
0.0
 48
0.0
140
64.0
141
0.09
142
0.0
143
25.399999999999999
144
1.0
145
0.0
146
1.0
147
25.0
 71
     0
 72
     0
 73
     0
 74
     0
 75
     0
 76
     0
 77
     1
 78
     8
170
     0
171
     2
172
     1
173
     0
174
     1
175
     0
176
     7
177
     7
178
     7
  0
ENDTAB
  0
TABLE
  2
VIEW
 70
     1
  0
VIEW
  2
ALL
 70
     0
 40
4282.6198079999986
 10
0.0
 20
41.309904000000003
 41
5940.0
 11
0.0
 21
0.0
 31
1.0
 12
0.0
 22
0.0
 32
0.0
 42
50.0
 43
0.0
 44
0.0
 50
0.0
 71
     0
  0
ENDTAB
  0
TABLE
  2
UCS
 70
     0
  0
ENDTAB
  0
TABLE
  2
VPORT
 70
     1
  0
VPORT
  2
*ACTIVE
 70
     0
 10
0.0
 20
0.0
 11
1.0
 21
1.0
 12
396.7643880713303
 22
55.595407792827253
 13
0.0
 23
0.0
 14
1.0
 24
1.0
 15
0.0
 25
0.0
 16
0.0
 26
0.0
 36
1.0
 17
0.0
 27
0.0
 37
0.0
 40
636.3424508659416
 41
2.195615514333896
 42
50.0
 43
0.0
 44
0.0
 50
0.0
 51
0.0
 71
     0
 72
  1000
 73
     1
 74
     3
 75
     0
 76
     0
 77
     0
 78
     0
  0
ENDTAB
  0
ENDSEC
  0
SECTION
  2
BLOCKS
  0
BLOCK
  8
0
  2
_ORIGIN
 70
     0
 10
0.0
 20
0.0
 30
0.0
  3
_ORIGIN
  1
_ORIGIN
  0
CIRCLE
  8
SIZE
  6
CONTINUOUS
 62
    30
 10
0.0
 20
0.0
 30
0.0
 40
0.5
  0
LINE
  8
SIZE
  6
CONTINUOUS
 62
    30
 10
0.0
 20
0.0
 30
0.0
 11
-1.0
 21
0.0
 31
0.0
  0
ENDBLK
  8
0
  0
ENDSEC
  0
SECTION
  2
ENTITIES
  0
LINE
  8
DETAIL
  6
CONTINUOUS
 62
     5
 10
176.69999999999979
 20
-185.0
 30
0.0
 11
-176.69999999999979
 21
-185.0
 31
0.0
  0
LINE
  8
DETAIL
  6
CONTINUOUS
 62
     5
 10
185.0
 20
176.69999999999979
 30
0.0
 11
185.0
 21
-176.69999999999999
 31
0.0
  0
LINE
  8
BASIS
  6
DASHDOT
 62
     6
 10
0.0
 20
221.9999999999998
 30
0.0
 11
0.0
 21
-222.0000000000002
 31
0.0
  0
LINE
  8
DETAIL
  6
CONTINUOUS
 62
     5
 10
83.050130462343077
 20
-96.741541388319092
 30
0.0
 11
41.9064846087349
 21
-47.708453629706582
 31
0.0
  0
LINE
  8
DETAIL
  6
CONTINUOUS
 62
     5
 10
80.751026483274927
 20
-98.668747442629865
 30
0.0
 11
39.606401927552717
 21
-49.634493312142688
 31
0.0
  0
LINE
  8
DETAIL
  6
CONTINUOUS
 62
     5
 10
65.023993052028345
 20
79.726327280918213
 30
0.0
 11
39.706670333654529
 21
49.554316976571037
 31
0.0
  0
LINE
  8
DETAIL
  6
CONTINUOUS
 62
     5
 10
-184.99999999999949
 20
-176.69999999999999
 30
0.0
 11
-184.99999999999949
 21
176.69999999999979
 31
0.0
  0
LINE
  8
DETAIL
  6
CONTINUOUS
 62
     5
 10
-176.69999999999979
 20
185.0
 30
0.0
 11
176.69999999999979
 21
185.0
 31
0.0
  0
ARC
  8
DETAIL
  6
CONTINUOUS
 62
     5
 10
176.69999999999979
 20
-176.69999999999999
 30
0.0
 40
8.2999999999999989
 50
270.0
 51
0.0
  0
ARC
  8
DETAIL
  6
CONTINUOUS
 62
     5
 10
176.69999999999979
 20
176.69999999999979
 30
0.0
 40
8.2999999999999989
 50
0.0
 51
90.0
  0
ARC
  8
DETAIL
  6
CONTINUOUS
 62
     5
 10
-176.69999999999979
 20
-176.69999999999999
 30
0.0
 40
8.2999999999999989
 50
180.0
 51
270.0
  0
ARC
  8
DETAIL
  6
CONTINUOUS
 62
     5
 10
-176.69999999999979
 20
176.69999999999979
 30
0.0
 40
8.2999999999999989
 50
90.0
 51
180.0
  0
LINE
  8
BASIS
  6
DASHDOT
 62
     6
 10
222.0
 20
-0.0000000000002274
 30
0.0
 11
-222.0
 21
-0.0000000000002274
 31
0.0
  0
LINE
  8
DETAIL
  6
CONTINUOUS
 62
     5
 10
65.31379673390984
 20
75.404530379864127
 30
0.0
 11
42.00285431117527
 21
47.623631000945117
 31
0.0
  0
LINE
  8
SIZE
  6
CONTINUOUS
 62
    30
 10
-185.0
 20
186.0
 30
0.0
 11
-185.0
 21
390.41358109214212
 31
0.0
  0
LINE
  8
SIZE
  6
CONTINUOUS
 62
    30
 10
184.99999999999949
 20
196.69999999999979
 30
0.0
 11
184.99999999999949
 21
390.41358109214212
 31
0.0
  0
LINE
  8
SIZE
  6
CONTINUOUS
 62
    30
 10
-173.0
 20
370.41358109214212
 30
0.0
 11
172.99999999999949
 21
370.41358109214212
 31
0.0
  0
CIRCLE
  8
SIZE
  6
CONTINUOUS
 62
    30
 10
-185.0
 20
370.41358109214212
 30
0.0
 40
6.0
  0
LINE
  8
SIZE
  6
CONTINUOUS
 62
    30
 10
-185.0
 20
370.41358109214212
 30
0.0
 11
-173.0
 21
370.41358109214212
 31
0.0
  0
CIRCLE
  8
SIZE
  6
CONTINUOUS
 62
    30
 10
184.99999999999949
 20
370.41358109214212
 30
0.0
 40
6.0
  0
LINE
  8
SIZE
  6
CONTINUOUS
 62
    30
 10
184.99999999999949
 20
370.41358109214212
 30
0.0
 11
172.99999999999949
 21
370.41358109214212
 31
0.0
  0
TEXT
  8
SIZE
  6
CONTINUOUS
 62
    30
 10
-80.928000000000225
 20
395.41358109214212
 30
0.0
 40
64.0
  1
370
 50
0.0
 41
0.9
 51
0.0
  7
STANDARD
 71
     0
 72
     1
 11
-0.0000000000002274
 21
395.41358109214212
 31
0.0
210
0.0
220
0.0
230
1.0
  0
POINT
  8
DEFPOINTS
  6
CONTINUOUS
 62
    30
 10
-185.0
 20
166.0
 30
0.0
  0
POINT
  8
DEFPOINTS
  6
CONTINUOUS
 62
    30
 10
184.99999999999949
 20
176.69999999999979
 30
0.0
  0
POINT
  8
DEFPOINTS
  6
CONTINUOUS
 62
    30
 10
184.99999999999949
 20
370.41358109214212
 30
0.0
  0
ARC
  8
DETAIL
  6
CONTINUOUS
 62
     5
 10
69.511226454457756
 20
40.060679299397862
 30
0.0
 40
94.516055754553037
 50
254.85139150384001
 51
300.91928789977521
  0
ARC
  8
DETAIL
  6
CONTINUOUS
 62
     5
 10
-20.162757183272792
 20
72.809501598293309
 30
0.0
 40
85.467098307918491
 50
331.42136961964161
 51
19.353806047192791
  0
ARC
  8
DETAIL
  6
CONTINUOUS
 62
     5
 10
64.418636716662604
 20
102.26397870123741
 30
0.0
 40
4.1385251134890133
 50
56.66855083913395
 51
162.52565170858139
  0
ARC
  8
DETAIL
  6
CONTINUOUS
 62
     5
 10
64.543305649019658
 20
102.3260379156154
 30
0.0
 40
4.2399069808563929
 50
163.831579228838
 51
196.33789190331731
  0
ARC
  8
DETAIL
  6
CONTINUOUS
 62
     5
 10
-0.7004188357727799
 20
-80.240348561840392
 30
0.0
 40
93.989541661767902
 50
131.3228547222966
 51
180.83690020798511
  0
ARC
  8
DETAIL
  6
CONTINUOUS
 62
     5
 10
71.828222753018053
 20
-20.544978065709302
 30
0.0
 40
83.657183796342963
 50
210.89488679538599
 51
260.03159811720752
  0
ARC
  8
DETAIL
  6
CONTINUOUS
 62
     5
 10
56.353885089014511
 20
-106.920165224408
 30
0.0
 40
4.1385251134890133
 50
296.66855083911128
 51
42.525651708580689
  0
ARC
  8
DETAIL
  6
CONTINUOUS
 62
     5
 10
56.345295479025943
 20
-107.05916129408121
 30
0.0
 40
4.2399069808563929
 50
43.831579228842408
 51
76.337891903304566
  0
ARC
  8
DETAIL
  6
CONTINUOUS
 62
     5
 10
-69.139970845168591
 20
40.726754785993762
 30
0.0
 40
93.989541661751034
 50
11.32285472228922
 51
60.836900208015003
  0
ARC
  8
DETAIL
  6
CONTINUOUS
 62
     5
 10
-53.738164612087083
 20
-51.861506613321581
 30
0.0
 40
83.587334810478978
 50
91.090732956653511
 51
140.05502841136871
  0
ARC
  8
DETAIL
  6
CONTINUOUS
 62
     5
 10
-120.7725218056739
 20
4.6561865231715274
 30
0.0
 40
4.1385251134890133
 50
176.66855083913751
 51
282.52565170857741
  0
ARC
  8
DETAIL
  6
CONTINUOUS
 62
     5
 10
-120.88860112804289
 20
4.7331233784664164
 30
0.0
 40
4.2399069808563929
 50
283.83157922883748
 51
316.33789190330788
  0
ARC
  8
OUTLINE
  6
CONTINUOUS
 62
     3
 10
176.69999999999982
 20
176.69999999999982
 30
0.0
 40
8.3000000000001872
 50
0.0
 51
90.0
  0
LINE
  8
OUTLINE
  6
CONTINUOUS
 62
     3
 10
176.69999999999979
 20
185.0
 30
0.0
 11
-176.69999999999979
 21
185.0
 31
0.0
  0
ARC
  8
OUTLINE
  6
CONTINUOUS
 62
     3
 10
-176.69999999999953
 20
176.70000000000005
 30
0.0
 40
8.2999999999999456
 50
90.0
 51
180.0
  0
LINE
  8
OUTLINE
  6
CONTINUOUS
 62
     3
 10
-184.99999999999949
 20
176.69999999999979
 30
0.0
 11
-184.99999999999949
 21
-176.69999999999999
 31
0.0
  0
ARC
  8
OUTLINE
  6
CONTINUOUS
 62
     3
 10
-176.69999999999959
 20
-176.7000000000001
 30
0.0
 40
8.2999999999998959
 50
180.0
 51
270.0
  0
LINE
  8
OUTLINE
  6
CONTINUOUS
 62
     3
 10
-176.69999999999979
 20
-185.0
 30
0.0
 11
176.69999999999979
 21
-185.0
 31
0.0
  0
ARC
  8
OUTLINE
  6
CONTINUOUS
 62
     3
 10
176.6999999999999
 20
-176.6999999999999
 30
0.0
 40
8.3000000000000895
 50
270.0
 51
0.0
  0
LINE
  8
OUTLINE
  6
CONTINUOUS
 62
     3
 10
185.0
 20
-176.69999999999999
 30
0.0
 11
185.0
 21
176.69999999999979
 31
0.0
  0
LINE
  8
SIZE
  6
CONTINUOUS
 62
    30
 10
-205.00000000000051
 20
164.9999999999996
 30
0.0
 11
-260.55795138191672
 21
164.9999999999996
 31
0.0
  0
LINE
  8
SIZE
  6
CONTINUOUS
 62
    30
 10
-204.9999999999996
 20
-165.00000000000051
 30
0.0
 11
-260.55795138191661
 21
-165.00000000000051
 31
0.0
  0
LINE
  8
SIZE
  6
CONTINUOUS
 62
    30
 10
-240.55795138191669
 20
152.9999999999996
 30
0.0
 11
-240.55795138191661
 21
-153.00000000000051
 31
0.0
  0
CIRCLE
  8
SIZE
  6
CONTINUOUS
 62
    30
 10
-240.55795138191669
 20
164.9999999999996
 30
0.0
 40
6.0
  0
LINE
  8
SIZE
  6
CONTINUOUS
 62
    30
 10
-240.55795138191669
 20
164.9999999999996
 30
0.0
 11
-240.55795138191669
 21
152.9999999999996
 31
0.0
  0
CIRCLE
  8
SIZE
  6
CONTINUOUS
 62
    30
 10
-240.55795138191661
 20
-165.00000000000051
 30
0.0
 40
6.0
  0
LINE
  8
SIZE
  6
CONTINUOUS
 62
    30
 10
-240.55795138191661
 20
-165.00000000000051
 30
0.0
 11
-240.55795138191661
 21
-153.00000000000051
 31
0.0
  0
TEXT
  8
SIZE
  6
CONTINUOUS
 62
    30
 10
-265.55795138191661
 20
-80.928000000000395
 30
0.0
 40
64.0
  1
330
 50
90.0
 41
0.9
 51
0.0
  7
STANDARD
 71
     0
 72
     1
 11
-265.55795138191661
 21
-0.0000000000004066
 31
0.0
210
0.0
220
0.0
230
1.0
  0
POINT
  8
DEFPOINTS
  6
CONTINUOUS
 62
    30
 10
-185.00000000000051
 20
164.9999999999996
 30
0.0
  0
POINT
  8
DEFPOINTS
  6
CONTINUOUS
 62
    30
 10
-184.9999999999996
 20
-165.00000000000051
 30
0.0
  0
POINT
  8
DEFPOINTS
  6
CONTINUOUS
 62
    30
 10
-240.55795138191661
 20
-165.00000000000051
 30
0.0
  0
LINE
  8
SIZE
  6
CONTINUOUS
 62
    30
 10
-196.6999999999999
 20
185.0
 30
0.0
 11
-378.09530749875501
 21
185.0
 31
0.0
  0
LINE
  8
SIZE
  6
CONTINUOUS
 62
    30
 10
-196.6999999999999
 20
-185.00000000000011
 30
0.0
 11
-378.09530749875489
 21
-185.00000000000011
 31
0.0
  0
LINE
  8
SIZE
  6
CONTINUOUS
 62
    30
 10
-358.09530749875501
 20
173.0
 30
0.0
 11
-358.09530749875489
 21
-173.00000000000011
 31
0.0
  0
CIRCLE
  8
SIZE
  6
CONTINUOUS
 62
    30
 10
-358.09530749875501
 20
185.0
 30
0.0
 40
6.0
  0
LINE
  8
SIZE
  6
CONTINUOUS
 62
    30
 10
-358.09530749875501
 20
185.0
 30
0.0
 11
-358.09530749875501
 21
173.0
 31
0.0
  0
CIRCLE
  8
SIZE
  6
CONTINUOUS
 62
    30
 10
-358.09530749875489
 20
-185.00000000000011
 30
0.0
 40
6.0
  0
LINE
  8
SIZE
  6
CONTINUOUS
 62
    30
 10
-358.09530749875489
 20
-185.00000000000011
 30
0.0
 11
-358.09530749875489
 21
-173.00000000000011
 31
0.0
  0
TEXT
  8
SIZE
  6
CONTINUOUS
 62
    30
 10
-383.09530749875489
 20
-80.92799999999994
 30
0.0
 40
64.0
  1
370
 50
90.0
 41
0.9
 51
0.0
  7
STANDARD
 71
     0
 72
     1
 11
-383.09530749875489
 21
0.0000000000000553
 31
0.0
210
0.0
220
0.0
230
1.0
  0
POINT
  8
DEFPOINTS
  6
CONTINUOUS
 62
    30
 10
-176.6999999999999
 20
185.00000000000011
 30
0.0
  0
POINT
  8
DEFPOINTS
  6
CONTINUOUS
 62
    30
 10
-176.6999999999999
 20
-185.00000000000011
 30
0.0
  0
POINT
  8
DEFPOINTS
  6
CONTINUOUS
 62
    30
 10
-358.09530749875489
 20
-185.00000000000011
 30
0.0
  0
LINE
  8
SIZE
  6
CONTINUOUS
 62
    30
 10
-165.00000000000051
 20
204.99999999999949
 30
0.0
 11
-165.00000000000051
 21
276.5495254393486
 31
0.0
  0
LINE
  8
SIZE
  6
CONTINUOUS
 62
    30
 10
164.99999999999949
 20
205.00000000000071
 30
0.0
 11
164.99999999999949
 21
276.5495254393486
 31
0.0
  0
LINE
  8
SIZE
  6
CONTINUOUS
 62
    30
 10
-153.00000000000051
 20
256.5495254393486
 30
0.0
 11
152.99999999999949
 21
256.5495254393486
 31
0.0
  0
CIRCLE
  8
SIZE
  6
CONTINUOUS
 62
    30
 10
-165.00000000000051
 20
256.5495254393486
 30
0.0
 40
6.0
  0
LINE
  8
SIZE
  6
CONTINUOUS
 62
    30
 10
-165.00000000000051
 20
256.5495254393486
 30
0.0
 11
-153.00000000000051
 21
256.5495254393486
 31
0.0
  0
CIRCLE
  8
SIZE
  6
CONTINUOUS
 62
    30
 10
164.99999999999949
 20
256.5495254393486
 30
0.0
 40
6.0
  0
LINE
  8
SIZE
  6
CONTINUOUS
 62
    30
 10
164.99999999999949
 20
256.5495254393486
 30
0.0
 11
152.99999999999949
 21
256.5495254393486
 31
0.0
  0
TEXT
  8
SIZE
  6
CONTINUOUS
 62
    30
 10
-80.928000000000452
 20
281.5495254393486
 30
0.0
 40
64.0
  1
330
 50
0.0
 41
0.9
 51
0.0
  7
STANDARD
 71
     0
 72
     1
 11
-0.0000000000004547
 21
281.5495254393486
 31
0.0
210
0.0
220
0.0
230
1.0
  0
POINT
  8
DEFPOINTS
  6
CONTINUOUS
 62
    30
 10
-165.00000000000051
 20
184.99999999999949
 30
0.0
  0
POINT
  8
DEFPOINTS
  6
CONTINUOUS
 62
    30
 10
164.99999999999949
 20
185.00000000000071
 30
0.0
  0
POINT
  8
DEFPOINTS
  6
CONTINUOUS
 62
    30
 10
164.99999999999949
 20
256.5495254393486
 30
0.0
  0
POINT
  8
ARRANGE
  6
CONTINUOUS
 62
     1
 10
0.0
 20
0.0
 30
0.0
 50
180.0
  0
CIRCLE
  8
ARRANGE
  6
CONTINUOUS
 62
     1
 10
0.0
 20
0.0
 30
0.0
 40
40.0
  0
LINE
  8
SIZE
  6
CONTINUOUS
 62
    30
 10
471.03430862768522
 20
-98.871445754606228
 30
0.0
 11
136.52482973993861
 21
-28.656951416374849
 31
0.0
  0
LINE
  8
SIZE
  6
CONTINUOUS
 62
    30
 10
-136.52482973994131
 20
28.656951416374898
 30
0.0
 11
-148.26890111541999
 21
31.122065516708219
 31
0.0
  0
TEXT
  8
SIZE
  6
CONTINUOUS
 62
    30
 10
241.26281038507867
 20
-25.096948608615705
 30
0.0
 40
64.0
  1
φ255
 50
348.14555193877868
 41
0.9
 51
0.0
  7
STANDARD
 71
     0
 72
     1
 11
353.72403787666258
 21
-48.702881233407567
 31
0.0
210
0.0
220
0.0
230
1.0
  0
LINE
  8
SIZE
  6
CONTINUOUS
 62
    30
 10
-124.7807583644626
 20
26.191837316041589
 30
0.0
 11
124.7807583644599
 21
-26.191837316041529
 31
0.0
  0
CIRCLE
  8
SIZE
  6
CONTINUOUS
 62
    30
 10
-124.7807583644626
 20
26.191837316041589
 30
0.0
 40
6.0
  0
LINE
  8
SIZE
  6
CONTINUOUS
 62
    30
 10
-124.7807583644626
 20
26.191837316041589
 30
0.0
 11
-136.52482973994128
 21
28.656951416374909
 31
0.0
  0
CIRCLE
  8
SIZE
  6
CONTINUOUS
 62
    30
 10
124.7807583644599
 20
-26.191837316041529
 30
0.0
 40
6.0
  0
LINE
  8
SIZE
  6
CONTINUOUS
 62
    30
 10
124.7807583644599
 20
-26.191837316041529
 30
0.0
 11
136.52482973993858
 21
-28.656951416374842
 31
0.0
  0
POINT
  8
DEFPOINTS
  6
CONTINUOUS
 62
    30
 10
124.7807583644599
 20
-26.191837316041529
 30
0.0
  0
POINT
  8
DEFPOINTS
  6
CONTINUOUS
 62
    30
 10
-124.7807583644626
 20
26.191837316041589
 30
0.0
  0
LINE
  8
SIZE
  6
CONTINUOUS
 62
    30
 10
374.10633416528248
 20
-268.27742558329538
 30
0.0
 11
111.33228545544441
 21
-79.838100022907724
 31
0.0
  0
LINE
  8
SIZE
  6
CONTINUOUS
 62
    30
 10
-111.3322854554429
 20
79.838100022906758
 30
0.0
 11
-121.08401848803641
 21
86.831218273088396
 31
0.0
  0
TEXT
  8
SIZE
  6
CONTINUOUS
 62
    30
 10
193.151225743368
 20
-107.74796216005987
 30
0.0
 40
64.0
  1
φ250
 50
324.35510887534349
 41
0.9
 51
0.0
  7
STANDARD
 71
     0
 72
     1
 11
287.00190444904854
 21
-175.04973219980792
 31
0.0
210
0.0
220
0.0
230
1.0
  0
LINE
  8
SIZE
  6
CONTINUOUS
 62
    30
 10
-101.58055242284929
 20
72.84498177272512
 30
0.0
 11
101.5805524228508
 21
-72.844981772726101
 31
0.0
  0
CIRCLE
  8
SIZE
  6
CONTINUOUS
 62
    30
 10
-101.58055242284929
 20
72.84498177272512
 30
0.0
 40
6.0
  0
LINE
  8
SIZE
  6
CONTINUOUS
 62
    30
 10
-101.58055242284929
 20
72.84498177272512
 30
0.0
 11
-111.33228545544286
 21
79.838100022906758
 31
0.0
  0
CIRCLE
  8
SIZE
  6
CONTINUOUS
 62
    30
 10
101.5805524228508
 20
-72.844981772726101
 30
0.0
 40
6.0
  0
LINE
  8
SIZE
  6
CONTINUOUS
 62
    30
 10
101.5805524228508
 20
-72.844981772726101
 30
0.0
 11
111.33228545544438
 21
-79.838100022907724
 31
0.0
  0
ARC
  8
SIZE
  6
CONTINUOUS
 62
    30
 10
0.0000000000007524
 20
-0.0000000000004871
 30
0.0
 40
125.0000000000005
 50
319.23898450602155
 51
333.5224335974367
  0
POINT
  8
DEFPOINTS
  6
CONTINUOUS
 62
    30
 10
101.5805524228508
 20
-72.844981772726101
 30
0.0
  0
POINT
  8
DEFPOINTS
  6
CONTINUOUS
 62
    30
 10
-101.58055242284929
 20
72.84498177272512
 30
0.0
  0
TEXT
  8
ETC
  6
CONTINUOUS
 62
    61
 10
494.5341579943256
 20
402.99320052171112
 30
0.0
 40
64.0
  1
EF-25ASXC2-Q_3
 41
0.9
  0
TEXT
  8
ETC
  6
CONTINUOUS
 62
    61
 10
490.3481639943252
 20
285.03789050687988
 30
0.0
 40
64.0
  1
有圧換気扇
 41
0.9
  0
TEXT
  8
ETC
  6
CONTINUOUS
 62
    61
 10
541.04956224288117
 20
176.88911762065459
 30
0.0
 40
40.0
  1
EF-25ASXC2-Q
 50
0.0
 41
0.9
 51
0.0
  7
STANDARD
 71
     0
 11
0.0
 21
0.0
 31
0.0
210
0.0
220
0.0
230
1.0
  0
TEXT
  8
ETC
  6
CONTINUOUS
 62
    61
 10
541.04956224288117
 20
110.88911762065459
 30
0.0
 40
40.0
  1
EF-25ATXC2-Q
 50
0.0
 41
0.9
 51
0.0
  7
STANDARD
 71
     0
 11
0.0
 21
0.0
 31
0.0
210
0.0
220
0.0
230
1.0
  0
CIRCLE
  8
DETAIL
  6
CONTINUOUS
 62
     5
 10
0.0
 20
0.0
 30
0.0
 40
63.49999999999995
  0
CIRCLE
  8
DETAIL
  6
CONTINUOUS
 62
     5
 10
0.0
 20
0.0
 30
0.0
 40
127.5000000000002
  0
ARC
  8
DETAIL
  6
CONTINUOUS
 62
     5
 10
0.0
 20
0.0
 30
0.0
 40
125.0000000000001
 50
100.7610154939789
 51
177.82934655542741
  0
ARC
  8
DETAIL
  6
CONTINUOUS
 62
     5
 10
0.0
 20
0.0
 30
0.0
 40
125.0000000000001
 50
220.76101549398101
 51
297.82934655542891
  0
ARC
  8
DETAIL
  6
CONTINUOUS
 62
     5
 10
0.0
 20
0.0
 30
0.0
 40
125.0000000000001
 50
340.84098094059209
 51
57.829346555409693
  0
LINE
  8
DETAIL
  6
CONTINUOUS
 62
     5
 10
-153.39949493700311
 20
175.49999999999949
 30
0.0
 11
-167.50000000000051
 21
175.49999999999949
 31
0.0
  0
LINE
  8
DETAIL
  6
CONTINUOUS
 62
     5
 10
-175.50000000000051
 20
167.49999999999949
 30
0.0
 11
-175.50000000000051
 21
153.39949493699939
 31
0.0
  0
LINE
  8
DETAIL
  6
CONTINUOUS
 62
     5
 10
-163.55025253199759
 20
148.4497474689995
 30
0.0
 11
-148.44974746900019
 21
163.5502525319994
 31
0.0
  0
ARC
  8
DETAIL
  6
CONTINUOUS
 62
     5
 10
-167.50000000000051
 20
167.49999999999949
 30
0.0
 40
8.0
 50
90.0
 51
180.0
  0
ARC
  8
DETAIL
  6
CONTINUOUS
 62
     5
 10
-168.49999999999679
 20
153.39949493699939
 30
0.0
 40
7.0
 50
180.0
 51
315.00000000000921
  0
ARC
  8
DETAIL
  6
CONTINUOUS
 62
     5
 10
-153.39949493700311
 20
168.49999999999929
 30
0.0
 40
7.0
 50
315.00000000000921
 51
90.0
  0
CIRCLE
  8
DETAIL
  6
CONTINUOUS
 62
     5
 10
-165.00000000000051
 20
164.99999999999949
 30
0.0
 40
5.0
  0
CIRCLE
  8
FIX
  6
CONTINUOUS
 62
    11
 10
-165.00000000000051
 20
164.99999999999949
 30
0.0
 40
5.0
  0
LINE
  8
BASIS
  6
DASHDOT
 62
     6
 10
-165.00000000000051
 20
144.99999999999949
 30
0.0
 11
-165.00000000000051
 21
184.99999999999949
 31
0.0
  0
LINE
  8
BASIS
  6
DASHDOT
 62
     6
 10
-145.00000000000051
 20
164.99999999999949
 30
0.0
 11
-185.00000000000051
 21
164.99999999999949
 31
0.0
  0
LINE
  8
DETAIL
  6
CONTINUOUS
 62
     5
 10
-175.49999999999949
 20
-153.39949493700311
 30
0.0
 11
-175.49999999999949
 21
-167.50000000000051
 31
0.0
  0
LINE
  8
DETAIL
  6
CONTINUOUS
 62
     5
 10
-167.49999999999949
 20
-175.50000000000051
 30
0.0
 11
-153.39949493699939
 21
-175.50000000000051
 31
0.0
  0
LINE
  8
DETAIL
  6
CONTINUOUS
 62
     5
 10
-148.4497474689997
 20
-163.55025253199759
 30
0.0
 11
-163.5502525319994
 21
-148.44974746900019
 31
0.0
  0
ARC
  8
DETAIL
  6
CONTINUOUS
 62
     5
 10
-167.49999999999949
 20
-167.50000000000051
 30
0.0
 40
8.0
 50
180.0
 51
270.0
  0
ARC
  8
DETAIL
  6
CONTINUOUS
 62
     5
 10
-153.39949493699939
 20
-168.49999999999679
 30
0.0
 40
7.0
 50
270.0
 51
45.000000000018417
  0
ARC
  8
DETAIL
  6
CONTINUOUS
 62
     5
 10
-168.49999999999909
 20
-153.39949493700311
 30
0.0
 40
7.0
 50
45.000000000018417
 51
180.0
  0
CIRCLE
  8
DETAIL
  6
CONTINUOUS
 62
     5
 10
-164.99999999999949
 20
-165.00000000000051
 30
0.0
 40
5.0
  0
CIRCLE
  8
FIX
  6
CONTINUOUS
 62
    11
 10
-164.99999999999949
 20
-165.00000000000051
 30
0.0
 40
5.0
  0
LINE
  8
BASIS
  6
DASHDOT
 62
     6
 10
-144.99999999999949
 20
-165.00000000000051
 30
0.0
 11
-184.99999999999949
 21
-165.00000000000051
 31
0.0
  0
LINE
  8
BASIS
  6
DASHDOT
 62
     6
 10
-164.99999999999949
 20
-145.00000000000051
 30
0.0
 11
-164.99999999999949
 21
-185.00000000000051
 31
0.0
  0
LINE
  8
DETAIL
  6
CONTINUOUS
 62
     5
 10
153.39949493700311
 20
-175.49999999999949
 30
0.0
 11
167.50000000000051
 21
-175.49999999999949
 31
0.0
  0
LINE
  8
DETAIL
  6
CONTINUOUS
 62
     5
 10
175.50000000000051
 20
-167.49999999999949
 30
0.0
 11
175.50000000000051
 21
-153.39949493699939
 31
0.0
  0
LINE
  8
DETAIL
  6
CONTINUOUS
 62
     5
 10
163.55025253199759
 20
-148.4497474689995
 30
0.0
 11
148.44974746900019
 21
-163.5502525319994
 31
0.0
  0
ARC
  8
DETAIL
  6
CONTINUOUS
 62
     5
 10
167.50000000000051
 20
-167.49999999999949
 30
0.0
 40
8.0
 50
270.0
 51
0.0
  0
ARC
  8
DETAIL
  6
CONTINUOUS
 62
     5
 10
168.49999999999679
 20
-153.39949493699939
 30
0.0
 40
7.0
 50
0.0
 51
135.00000000000921
  0
ARC
  8
DETAIL
  6
CONTINUOUS
 62
     5
 10
153.39949493700311
 20
-168.49999999999929
 30
0.0
 40
7.0
 50
135.00000000000921
 51
270.0
  0
CIRCLE
  8
DETAIL
  6
CONTINUOUS
 62
     5
 10
165.00000000000051
 20
-164.99999999999949
 30
0.0
 40
5.0
  0
CIRCLE
  8
FIX
  6
CONTINUOUS
 62
    11
 10
165.00000000000051
 20
-164.99999999999949
 30
0.0
 40
5.0
  0
LINE
  8
BASIS
  6
DASHDOT
 62
     6
 10
165.00000000000051
 20
-144.99999999999949
 30
0.0
 11
165.00000000000051
 21
-184.99999999999949
 31
0.0
  0
LINE
  8
BASIS
  6
DASHDOT
 62
     6
 10
145.00000000000051
 20
-164.99999999999949
 30
0.0
 11
185.00000000000051
 21
-164.99999999999949
 31
0.0
  0
LINE
  8
DETAIL
  6
CONTINUOUS
 62
     5
 10
175.49999999999949
 20
153.39949493700331
 30
0.0
 11
175.49999999999949
 21
167.50000000000071
 31
0.0
  0
LINE
  8
DETAIL
  6
CONTINUOUS
 62
     5
 10
167.49999999999949
 20
175.50000000000071
 30
0.0
 11
153.39949493699939
 21
175.50000000000071
 31
0.0
  0
LINE
  8
DETAIL
  6
CONTINUOUS
 62
     5
 10
148.44974746899919
 20
163.55025253199781
 30
0.0
 11
163.5502525319994
 21
148.44974746900041
 31
0.0
  0
ARC
  8
DETAIL
  6
CONTINUOUS
 62
     5
 10
167.49999999999949
 20
167.50000000000071
 30
0.0
 40
7.9999999999999991
 50
0.0
 51
90.0
  0
ARC
  8
DETAIL
  6
CONTINUOUS
 62
     5
 10
153.39949493699939
 20
168.49999999999699
 30
0.0
 40
6.9999999999999991
 50
90.0
 51
225.00000000001839
  0
ARC
  8
DETAIL
  6
CONTINUOUS
 62
     5
 10
168.49999999999949
 20
153.39949493700331
 30
0.0
 40
6.9999999999999991
 50
225.00000000001839
 51
0.0
  0
CIRCLE
  8
DETAIL
  6
CONTINUOUS
 62
     5
 10
164.99999999999949
 20
165.00000000000071
 30
0.0
 40
4.9999999999999991
  0
CIRCLE
  8
FIX
  6
CONTINUOUS
 62
    11
 10
164.99999999999949
 20
165.00000000000071
 30
0.0
 40
4.9999999999999991
  0
LINE
  8
BASIS
  6
DASHDOT
 62
     6
 10
144.99999999999949
 20
165.00000000000071
 30
0.0
 11
184.99999999999949
 21
165.00000000000071
 31
0.0
  0
LINE
  8
BASIS
  6
DASHDOT
 62
     6
 10
164.99999999999949
 20
145.00000000000071
 30
0.0
 11
164.99999999999949
 21
185.00000000000071
 31
0.0
  0
LINE
  8
DETAIL
  6
CONTINUOUS
 62
     5
 10
-95.892274109584051
 20
-185.0
 30
0.0
 11
-95.892274109584037
 21
-225.294777465484
 31
0.0
  0
LINE
  8
DETAIL
  6
CONTINUOUS
 62
     5
 10
-104.1922741095842
 20
-185.0
 30
0.0
 11
-104.1922741095842
 21
-225.294777465484
 31
0.0
  0
LINE
  8
DETAIL
  6
CONTINUOUS
 62
     5
 10
-95.892274109584037
 20
-225.294777465484
 30
0.0
 11
-104.1922741095842
 21
-225.294777465484
 31
0.0
  0
TEXT
  8
NOTE
  6
CONTINUOUS
 62
     4
 10
236.3863555900443
 20
-313.19421081441283
 30
0.0
 40
64.0
  1
4-φ10
 50
0.0
 41
0.9
 51
0.0
  7
STANDARD
 71
     0
 11
0.0
 21
0.0
 31
0.0
210
0.0
220
0.0
230
1.0
  0
LINE
  8
NOTE
  6
CONTINUOUS
 62
     4
 10
236.29635559004419
 20
-325.99421081441278
 30
0.0
 11
505.18635559004412
 21
-325.99421081441278
 31
0.0
  0
LINE
  8
NOTE
  6
CONTINUOUS
 62
     4
 10
166.44842549911286
 20
-196.02449912284624
 30
0.0
 11
164.99999999999949
 21
-164.99999999999949
 31
0.0
  0
LINE
  8
NOTE
  6
CONTINUOUS
 62
     4
 10
164.99999999999949
 20
-164.99999999999949
 30
0.0
 11
181.7666622363482
 21
-191.14376636412916
 31
0.0
  0
LINE
  8
NOTE
  6
CONTINUOUS
 62
     4
 10
164.99999999999949
 20
-164.99999999999949
 30
0.0
 11
183.21508773546157
 21
-222.16826548697591
 31
0.0
  0
LINE
  8
NOTE
  6
CONTINUOUS
 62
     4
 10
183.21508773546171
 20
-222.16826548697591
 30
0.0
 11
216.29635559004419
 21
-325.99421081441278
 31
0.0
  0
LINE
  8
NOTE
  6
CONTINUOUS
 62
     4
 10
216.29635559004419
 20
-325.99421081441278
 30
0.0
 11
236.29635559004419
 21
-325.99421081441278
 31
0.0
  0
TEXT
  8
NOTE
  6
CONTINUOUS
 62
     4
 10
-313.04168091434951
 20
-342.96367645520428
 30
0.0
 40
64.0
  1
EL
 50
0.0
 41
0.9
 51
0.0
  7
STANDARD
 71
     0
 72
     2
 11
-211.66568091434951
 21
-342.96367645520428
 31
0.0
210
0.0
220
0.0
230
1.0
  0
LINE
  8
NOTE
  6
CONTINUOUS
 62
     4
 10
-211.57568091434959
 20
-355.76367645520429
 30
0.0
 11
-296.69425234292112
 21
-355.76367645520429
 31
0.0
  0
LINE
  8
NOTE
  6
CONTINUOUS
 62
     4
 10
-122.28431324431753
 20
-232.8682506953248
 30
0.0
 11
-99.319317859695843
 21
-211.95828969023671
 31
0.0
  0
LINE
  8
NOTE
  6
CONTINUOUS
 62
     4
 10
-99.319317859695843
 20
-211.95828969023671
 30
0.0
 11
-108.7525621659607
 21
-241.54935902049786
 31
0.0
  0
LINE
  8
NOTE
  6
CONTINUOUS
 62
     4
 10
-99.319317859695843
 20
-211.95828969023671
 30
0.0
 11
-131.7175575505824
 21
-262.45932002558595
 31
0.0
  0
LINE
  8
NOTE
  6
CONTINUOUS
 62
     4
 10
-131.7175575505824
 20
-262.45932002558601
 30
0.0
 11
-191.57568091434959
 21
-355.76367645520429
 31
0.0
  0
LINE
  8
NOTE
  6
CONTINUOUS
 62
     4
 10
-191.57568091434959
 20
-355.76367645520429
 30
0.0
 11
-211.57568091434959
 21
-355.76367645520429
 31
0.0
  0
ENDSEC
  0
EOF
