  0
SECTION
  2
HEADER
  9
$ACADVER
  1
AC1009
  9
$DWGCODEPAGE
  3
dos932
  9
$INSBASE
 10
0.0
 20
0.0
 30
0.0
  9
$EXTMIN
 10
-506.20878457116117
 20
-498.59617976308442
 30
-0.0000000349181948
  9
$EXTMAX
 10
1082.2082635855861
 20
389.64844528777581
 30
0.0000000814935746
  9
$LIMMIN
 10
-2970.0
 20
-2100.0
  9
$LIMMAX
 10
2970.0
 20
2100.0
  9
$ORTHOMODE
 70
     1
  9
$REGENMODE
 70
     1
  9
$FILLMODE
 70
     1
  9
$QTEXTMODE
 70
     0
  9
$MIRRTEXT
 70
     0
  9
$LTSCALE
 40
20.0
  9
$ATTMODE
 70
     1
  9
$TEXTSIZE
 40
64.0
  9
$TRACEWID
 40
0.05
  9
$TEXTSTYLE
  7
STANDARD
  9
$CLAYER
  8
SIZE
  9
$CELTYPE
  6
CONTINUOUS
  9
$CECOLOR
 62
     7
  9
$DIMSCALE
 40
1.0
  9
$DIMASZ
 40
12.0
  9
$DIMEXO
 40
20.0
  9
$DIMDLI
 40
200.0
  9
$DIMRND
 40
0.0
  9
$DIMDLE
 40
0.0
  9
$DIMEXE
 40
20.0
  9
$DIMTP
 40
0.0
  9
$DIMTM
 40
0.0
  9
$DIMTXT
 40
64.0
  9
$DIMCEN
 40
0.09
  9
$DIMTSZ
 40
0.0
  9
$DIMTOL
 70
     0
  9
$DIMLIM
 70
     0
  9
$DIMTIH
 70
     0
  9
$DIMTOH
 70
     0
  9
$DIMSE1
 70
     0
  9
$DIMSE2
 70
     0
  9
$DIMTAD
 70
     1
  9
$DIMZIN
 70
     8
  9
$DIMBLK
  1

  9
$DIMASO
 70
     1
  9
$DIMSHO
 70
     0
  9
$DIMPOST
  1

  9
$DIMAPOST
  1

  9
$DIMALT
 70
     0
  9
$DIMALTD
 70
     2
  9
$DIMALTF
 40
25.399999999999999
  9
$DIMLFAC
 40
1.0
  9
$DIMTOFL
 70
     1
  9
$DIMTVP
 40
0.0
  9
$DIMTIX
 70
     1
  9
$DIMSOXD
 70
     0
  9
$DIMSAH
 70
     0
  9
$DIMBLK1
  1

  9
$DIMBLK2
  1

  9
$DIMSTYLE
  2
STANDARD
  9
$DIMCLRD
 70
     7
  9
$DIMCLRE
 70
     7
  9
$DIMCLRT
 70
     7
  9
$DIMTFAC
 40
1.0
  9
$DIMGAP
 40
25.0
  9
$LUNITS
 70
     2
  9
$LUPREC
 70
     4
  9
$SKETCHINC
 40
0.1
  9
$FILLETRAD
 40
3.0
  9
$AUNITS
 70
     1
  9
$AUPREC
 70
     3
  9
$MENU
  1
ACAD
  9
$ELEVATION
 40
0.0
  9
$PELEVATION
 40
0.0
  9
$THICKNESS
 40
0.0
  9
$LIMCHECK
 70
     0
  9
$CHAMFERA
 40
0.0
  9
$CHAMFERB
 40
0.0
  9
$SKPOLY
 70
     0
  9
$TDCREATE
 40
2453019.62301037
  9
$TDUPDATE
 40
2459362.65459029
  9
$TDINDWG
 40
1.7157451505
  9
$TDUSRTIMER
 40
1.7157451505
  9
$USRTIMER
 70
     1
  9
$ANGBASE
 50
0.0
  9
$ANGDIR
 70
     0
  9
$PDMODE
 70
     3
  9
$PDSIZE
 40
-2.0
  9
$PLINEWID
 40
0.0
  9
$SPLFRAME
 70
     0
  9
$SPLINETYPE
 70
     6
  9
$SPLINESEGS
 70
     8
  9
$SURFTAB1
 70
     6
  9
$SURFTAB2
 70
     6
  9
$SURFTYPE
 70
     6
  9
$SURFU
 70
     6
  9
$SURFV
 70
     6
  9
$UCSNAME
  2

  9
$UCSORG
 10
0.0
 20
0.0
 30
0.0
  9
$UCSXDIR
 10
1.0
 20
0.0
 30
0.0
  9
$UCSYDIR
 10
0.0
 20
1.0
 30
0.0
  9
$PUCSNAME
  2

  9
$PUCSORG
 10
0.0
 20
0.0
 30
0.0
  9
$PUCSXDIR
 10
1.0
 20
0.0
 30
0.0
  9
$PUCSYDIR
 10
0.0
 20
1.0
 30
0.0
  9
$USERI1
 70
     0
  9
$USERI2
 70
     0
  9
$USERI3
 70
     0
  9
$USERI4
 70
     0
  9
$USERI5
 70
     0
  9
$USERR1
 40
20.0
  9
$USERR2
 40
0.0
  9
$USERR3
 40
0.0
  9
$USERR4
 40
0.0
  9
$USERR5
 40
0.0
  9
$WORLDVIEW
 70
     1
  9
$SHADEDGE
 70
     3
  9
$SHADEDIF
 70
    70
  9
$TILEMODE
 70
     1
  9
$MAXACTVP
 70
    48
  9
$PINSBASE
 10
0.0
 20
0.0
 30
0.0
  9
$PLIMCHECK
 70
     0
  9
$PEXTMIN
 10
-100000000000000000000.0
 20
-100000000000000000000.0
 30
-100000000000000000000.0
  9
$PEXTMAX
 10
100000000000000000000.0
 20
100000000000000000000.0
 30
100000000000000000000.0
  9
$PLIMMIN
 10
0.0
 20
0.0
  9
$PLIMMAX
 10
12.0
 20
9.0
  9
$UNITMODE
 70
     0
  9
$VISRETAIN
 70
     0
  9
$PLINEGEN
 70
     0
  9
$PSLTSCALE
 70
     0
  9
$TREEDEPTH
 70
  3020
  9
$ATTDIA
 70
     0
  9
$ATTREQ
 70
     1
  9
$BLIPMODE
 70
     1
  9
$COORDS
 70
     1
  9
$DRAGMODE
 70
     2
  9
$OSMODE
 70
     0
  9
$HANDLING
 70
     0
  9
$HANDSEED
  5
F7F2
  0
ENDSEC
  0
SECTION
  2
TABLES
  0
TABLE
  2
LTYPE
 70
     2
  0
LTYPE
  2
CONTINUOUS
 70
     0
  3
実線
 72
    65
 73
     0
 40
0.0
  0
LTYPE
  2
DASHDOT
 70
     0
  3
____ _ ____ _ ____ _ ____ _ ____ _ ____ _ ____
 72
    65
 73
     4
 40
5.5
 49
4.0
 49
-0.6
 49
0.3
 49
-0.6
  0
ENDTAB
  0
TABLE
  2
LAYER
 70
    12
  0
LAYER
  2
0
 70
     0
 62
     7
  6
CONTINUOUS
  0
LAYER
  2
BASIS
 70
     0
 62
     6
  6
DASHDOT
  0
LAYER
  2
OUTLINE
 70
     0
 62
     3
  6
CONTINUOUS
  0
LAYER
  2
DETAIL
 70
     0
 62
     5
  6
CONTINUOUS
  0
LAYER
  2
SIZE
 70
     0
 62
    30
  6
CONTINUOUS
  0
LAYER
  2
ARRANGE
 70
     0
 62
     1
  6
CONTINUOUS
  0
LAYER
  2
DEFPOINTS
 70
     0
 62
     7
  6
CONTINUOUS
  0
LAYER
  2
ETC
 70
     0
 62
    61
  6
CONTINUOUS
  0
LAYER
  2
FIX
 70
     0
 62
    11
  6
CONTINUOUS
  0
LAYER
  2
NOTE
 70
     0
 62
     4
  6
CONTINUOUS
  0
LAYER
  2
SERVICESPACE
 70
    64
 62
     2
  6
DASHDOT
  0
LAYER
  2
SYMBOLLINE
 70
    64
 62
    15
  6
CONTINUOUS
  0
ENDTAB
  0
TABLE
  2
STYLE
 70
     1
  0
STYLE
  2
STANDARD
 70
     0
 40
64.0
 41
0.9
 50
0.0
 71
     0
 42
64.0
  3
SIMPLEX.shx
  4
BIGFONT.shx
  0
ENDTAB
  0
TABLE
  2
APPID
 70
    19
  0
APPID
  2
ACAD
 70
     0
  0
APPID
  2
AUTOCAD_POSTSCRIPT_FIGURE
 70
     0
  0
APPID
  2
ACAD_EXEMPT_FROM_CAD_STANDARDS
 70
     0
  0
APPID
  2
ACAD_PSEXT
 70
     0
  0
APPID
  2
ACAUTHENVIRON
 70
     0
  0
APPID
  2
GENIUS_GENOENT_13
 70
     0
  0
APPID
  2
GENIUS_GENCFG_13
 70
     0
  0
APPID
  2
GENIUS_GENCFG0_13
 70
     0
  0
APPID
  2
GENIUS_GENCFG1_13
 70
     0
  0
APPID
  2
GENIUS_GENCFG2_13
 70
     0
  0
APPID
  2
GENIUS_GENCFG3_13
 70
     0
  0
APPID
  2
GENIUS_GENCFG4_13
 70
     0
  0
APPID
  2
GENIUS_GEVCFG0_13
 70
     0
  0
APPID
  2
CONTENTBLOCKICON
 70
     0
  0
APPID
  2
CONTENTBLOCKDESCRIPTION
 70
     0
  0
APPID
  2
ACAD_NAV_VCDISPLAY
 70
     0
  0
APPID
  2
ACAD_MLEADERVER
 70
     0
  0
APPID
  2
ACDBDYNAMICBLOCKTRUENAME
 70
     0
  0
APPID
  2
ACDBDYNAMICBLOCKGUID
 70
     0
  0
ENDTAB
  0
TABLE
  2
DIMSTYLE
 70
     1
  0
DIMSTYLE
  2
STANDARD
 70
     0
  3

  4

  5
_ORIGIN
  6

  7

 40
1.0
 41
12.0
 42
20.0
 43
200.0
 44
20.0
 45
0.0
 46
0.0
 47
0.0
 48
0.0
140
64.0
141
0.09
142
0.0
143
25.399999999999999
144
1.0
145
0.0
146
1.0
147
25.0
 71
     0
 72
     0
 73
     0
 74
     0
 75
     0
 76
     0
 77
     1
 78
     8
170
     0
171
     2
172
     1
173
     0
174
     1
175
     0
176
     7
177
     7
178
     7
  0
ENDTAB
  0
TABLE
  2
VIEW
 70
     1
  0
VIEW
  2
ALL
 70
     0
 40
4282.6198079999986
 10
0.0
 20
41.309904000000003
 41
5940.0
 11
0.0
 21
0.0
 31
1.0
 12
0.0
 22
0.0
 32
0.0
 42
50.0
 43
0.0
 44
0.0
 50
0.0
 71
     0
  0
ENDTAB
  0
TABLE
  2
UCS
 70
     0
  0
ENDTAB
  0
TABLE
  2
VPORT
 70
     1
  0
VPORT
  2
*ACTIVE
 70
     0
 10
0.0
 20
0.0
 11
1.0
 21
1.0
 12
287.99973950721238
 22
-54.473867237654297
 13
0.0
 23
0.0
 14
1.0
 24
1.0
 15
0.0
 25
0.0
 16
0.0
 26
0.0
 36
1.0
 17
0.0
 27
0.0
 37
0.0
 40
902.17176656585411
 41
1.767337807606264
 42
50.0
 43
0.0
 44
0.0
 50
0.0
 51
0.0
 71
     0
 72
  1000
 73
     1
 74
     3
 75
     0
 76
     0
 77
     0
 78
     0
  0
ENDTAB
  0
ENDSEC
  0
SECTION
  2
BLOCKS
  0
BLOCK
  8
0
  2
_ORIGIN
 70
     0
 10
0.0
 20
0.0
 30
0.0
  3
_ORIGIN
  1
_ORIGIN
  0
CIRCLE
  8
SIZE
  6
CONTINUOUS
 62
    30
 10
0.0
 20
0.0
 30
0.0
 40
0.5
  0
LINE
  8
SIZE
  6
CONTINUOUS
 62
    30
 10
0.0
 20
0.0
 30
0.0
 11
-1.0
 21
0.0
 31
0.0
  0
ENDBLK
  8
0
  0
ENDSEC
  0
SECTION
  2
ENTITIES
  0
LINE
  8
DETAIL
  6
CONTINUOUS
 62
     5
 10
-185.0
 20
-66.0
 30
0.0
 11
-185.0
 21
-61.0
 31
0.0
  0
LINE
  8
DETAIL
  6
CONTINUOUS
 62
     5
 10
-180.0052038200001
 20
-0.0000000000009095
 30
0.0
 11
-180.0052038200001
 21
-1.5000000000009091
 31
0.0
  0
LINE
  8
DETAIL
  6
CONTINUOUS
 62
     5
 10
-180.0
 20
-61.0
 30
0.0
 11
-180.0
 21
-3.0000000000009091
 31
0.0
  0
LINE
  8
DETAIL
  6
CONTINUOUS
 62
     5
 10
-164.25632091099939
 20
-71.0
 30
0.0
 11
-164.25632091099939
 21
-74.0
 31
0.0
  0
LINE
  8
DETAIL
  6
CONTINUOUS
 62
     5
 10
-154.47938543300009
 20
-77.80000000000291
 30
0.0
 11
-154.47938543300009
 21
-74.200000000000728
 31
0.0
  0
LINE
  8
DETAIL
  6
CONTINUOUS
 62
     5
 10
-150.30000000000021
 20
-76.5
 30
0.0
 11
-150.30000000000021
 21
-71.0
 31
0.0
  0
LINE
  8
DETAIL
  6
CONTINUOUS
 62
     5
 10
-149.47938543300009
 20
-78.000000000003638
 30
0.0
 11
-149.47938543300009
 21
-76.5
 31
0.0
  0
LINE
  8
DETAIL
  6
CONTINUOUS
 62
     5
 10
-149.0
 20
-111.0
 30
0.0
 11
-149.0
 21
-110.2000000000007
 31
0.0
  0
LINE
  8
DETAIL
  6
CONTINUOUS
 62
     5
 10
-148.1275516080004
 20
-78.000000000003638
 30
0.0
 11
-148.1275516080004
 21
-110.2000000000007
 31
0.0
  0
LINE
  8
DETAIL
  6
CONTINUOUS
 62
     5
 10
-148.04505212500041
 20
-76.5
 30
0.0
 11
-148.04505212500041
 21
-142.89946229900119
 31
0.0
  0
LINE
  8
DETAIL
  6
CONTINUOUS
 62
     5
 10
-146.116689296
 20
-76.5
 30
0.0
 11
-146.116689296
 21
-142.89946229900119
 31
0.0
  0
LINE
  8
DETAIL
  6
CONTINUOUS
 62
     5
 10
-143.80000000000021
 20
-71.0
 30
0.0
 11
-143.80000000000021
 21
-76.5
 31
0.0
  0
LINE
  8
DETAIL
  6
CONTINUOUS
 62
     5
 10
-137.30000000000021
 20
-71.0
 30
0.0
 11
-137.30000000000021
 21
-76.5
 31
0.0
  0
LINE
  8
DETAIL
  6
CONTINUOUS
 62
     5
 10
-130.61374439199969
 20
-77.80000000000291
 30
0.0
 11
-130.61374439199969
 21
-74.200000000000728
 31
0.0
  0
LINE
  8
DETAIL
  6
CONTINUOUS
 62
     5
 10
-126.96557821799981
 20
-78.000000000003638
 30
0.0
 11
-126.96557821799981
 21
-142.89946229900119
 31
0.0
  0
LINE
  8
DETAIL
  6
CONTINUOUS
 62
     5
 10
-125.6137443919997
 20
-78.000000000003638
 30
0.0
 11
-125.6137443919997
 21
-74.0
 31
0.0
  0
LINE
  8
DETAIL
  6
CONTINUOUS
 62
     5
 10
-122.25735931300009
 20
-3.0000000000009091
 30
0.0
 11
-122.25735931300009
 21
-0.0000000000009095
 31
0.0
  0
LINE
  8
DETAIL
  6
CONTINUOUS
 62
     5
 10
-120.6137443919997
 20
-77.80000000000291
 30
0.0
 11
-120.6137443919997
 21
-74.200000000000728
 31
0.0
  0
LINE
  8
DETAIL
  6
CONTINUOUS
 62
     5
 10
-110.8368089140004
 20
-71.0
 30
0.0
 11
-110.8368089140004
 21
-74.0
 31
0.0
  0
LINE
  8
DETAIL
  6
CONTINUOUS
 62
     5
 10
42.0
 20
-223.99995660799871
 30
0.0
 11
-42.0
 21
-223.99995660799871
 31
0.0
  0
LINE
  8
DETAIL
  6
CONTINUOUS
 62
     5
 10
-50.700000000000728
 20
-215.49995660799871
 30
0.0
 11
-49.5
 21
-215.49995660799871
 31
0.0
  0
LINE
  8
DETAIL
  6
CONTINUOUS
 62
     5
 10
-61.700000000000728
 20
-213.49995660800229
 30
0.0
 11
-52.700000000000728
 21
-213.49995660800229
 31
0.0
  0
LINE
  8
DETAIL
  6
CONTINUOUS
 62
     5
 10
-61.700000000000728
 20
-210.69574564899989
 30
0.0
 11
-64.706321593999746
 21
-210.69574564899989
 31
0.0
  0
LINE
  8
DETAIL
  6
CONTINUOUS
 62
     5
 10
-43.942087732999433
 20
-207.89995660800381
 30
0.0
 11
-98.334284141999888
 21
-207.89995660800381
 31
0.0
  0
LINE
  8
DETAIL
  6
CONTINUOUS
 62
     5
 10
43.94208773399987
 20
-207.89995660800381
 30
0.0
 11
98.334284143000332
 21
-207.89995660800381
 31
0.0
  0
LINE
  8
DETAIL
  6
CONTINUOUS
 62
     5
 10
67.867859318999763
 20
-198.28670795400279
 30
0.0
 11
64.037637104000169
 21
-201.17345930000189
 31
0.0
  0
LINE
  8
DETAIL
  6
CONTINUOUS
 62
     5
 10
56.292143648999627
 20
-198.28670795400279
 30
0.0
 11
52.461921432999588
 21
-201.17345930000189
 31
0.0
  0
LINE
  8
DETAIL
  6
CONTINUOUS
 62
     5
 10
-63.955137619999732
 20
-201.17345930000189
 30
0.0
 11
-67.78535983599977
 21
-198.28670795400279
 31
0.0
  0
LINE
  8
DETAIL
  6
CONTINUOUS
 62
     5
 10
-52.464470974000513
 20
-201.17345930000189
 30
0.0
 11
-56.2946931890001
 21
-198.28670795400279
 31
0.0
  0
LINE
  8
DETAIL
  6
CONTINUOUS
 62
     5
 10
64.037637104000169
 20
-201.17345930000189
 30
0.0
 11
61.110756423000574
 21
-201.17345930000189
 31
0.0
  0
LINE
  8
DETAIL
  6
CONTINUOUS
 62
     5
 10
52.461921432999588
 20
-201.17345930000189
 30
0.0
 11
49.53504075300043
 21
-201.17345930000189
 31
0.0
  0
LINE
  8
DETAIL
  6
CONTINUOUS
 62
     5
 10
-63.955137619999732
 20
-201.17345930000189
 30
0.0
 11
-61.028256940000567
 21
-201.17345930000189
 31
0.0
  0
LINE
  8
DETAIL
  6
CONTINUOUS
 62
     5
 10
-52.464470974000513
 20
-201.17345930000189
 30
0.0
 11
-49.537590293000903
 21
-201.17345930000189
 31
0.0
  0
LINE
  8
DETAIL
  6
CONTINUOUS
 62
     5
 10
64.037637104000169
 20
-189.62645391600199
 30
0.0
 11
61.110756423000574
 21
-189.62645391600199
 31
0.0
  0
LINE
  8
DETAIL
  6
CONTINUOUS
 62
     5
 10
52.461921432999588
 20
-189.62645391700241
 30
0.0
 11
49.53504075300043
 21
-189.62645391700241
 31
0.0
  0
LINE
  8
DETAIL
  6
CONTINUOUS
 62
     5
 10
-63.955137619999732
 20
-189.62645391600199
 30
0.0
 11
-61.028256940000567
 21
-189.62645391600199
 31
0.0
  0
LINE
  8
DETAIL
  6
CONTINUOUS
 62
     5
 10
-52.464470974000513
 20
-189.62645391600199
 30
0.0
 11
-49.537590293000903
 21
-189.62645391600199
 31
0.0
  0
LINE
  8
DETAIL
  6
CONTINUOUS
 62
     5
 10
-42.081681360999937
 20
-183.39995660800011
 30
0.0
 11
-32.481681360999573
 21
-183.39995660800011
 31
0.0
  0
LINE
  8
DETAIL
  6
CONTINUOUS
 62
     5
 10
32.481681362000018
 20
-183.39995660800011
 30
0.0
 11
42.081681362000381
 21
-183.39995660800011
 31
0.0
  0
LINE
  8
DETAIL
  6
CONTINUOUS
 62
     5
 10
-44.801477001999963
 20
-182.89995660800381
 30
0.0
 11
-96.32342183000037
 21
-182.89995660800381
 31
0.0
  0
LINE
  8
DETAIL
  6
CONTINUOUS
 62
     5
 10
44.801477001999963
 20
-182.89995660800381
 30
0.0
 11
96.405921313999897
 21
-182.89995660800381
 31
0.0
  0
LINE
  8
DETAIL
  6
CONTINUOUS
 62
     5
 10
-68.82528041400019
 20
-179.39995660800381
 30
0.0
 11
68.82528041399928
 21
-179.39995660800381
 31
0.0
  0
LINE
  8
DETAIL
  6
CONTINUOUS
 62
     5
 10
-68.82528041400019
 20
-176.39995660800011
 30
0.0
 11
68.82528041399928
 21
-176.39995660800011
 31
0.0
  0
LINE
  8
DETAIL
  6
CONTINUOUS
 62
     5
 10
-72.682006072000149
 20
-182.89995660800381
 30
0.0
 11
-72.682006072000149
 21
-182.39995660800011
 31
0.0
  0
LINE
  8
DETAIL
  6
CONTINUOUS
 62
     5
 10
-70.753643243000624
 20
-182.89995660800381
 30
0.0
 11
-70.753643243000624
 21
-182.39995660800011
 31
0.0
  0
LINE
  8
DETAIL
  6
CONTINUOUS
 62
     5
 10
-67.78535983599977
 20
-198.28670795400279
 30
0.0
 11
-67.78535983599977
 21
-192.51320526200109
 31
0.0
  0
LINE
  8
DETAIL
  6
CONTINUOUS
 62
     5
 10
-63.5
 20
-176.39995660800011
 30
0.0
 11
-63.5
 21
-172.39995660800011
 31
0.0
  0
LINE
  8
DETAIL
  6
CONTINUOUS
 62
     5
 10
-62.050000000000182
 20
-172.39995660800011
 30
0.0
 11
-62.050000000000182
 21
-169.19995660800299
 31
0.0
  0
LINE
  8
DETAIL
  6
CONTINUOUS
 62
     5
 10
-61.700000000000728
 20
-207.89995660800381
 30
0.0
 11
-61.700000000000728
 21
-213.49982251499929
 31
0.0
  0
LINE
  8
DETAIL
  6
CONTINUOUS
 62
     5
 10
-63.499877848000317
 20
-172.39995660800011
 30
0.0
 11
63.499877848000317
 21
-172.39995660800011
 31
0.0
  0
LINE
  8
DETAIL
  6
CONTINUOUS
 62
     5
 10
62.049999999999272
 20
-169.19995660800299
 30
0.0
 11
53.949999999999818
 21
-169.19995660800299
 31
0.0
  0
LINE
  8
DETAIL
  6
CONTINUOUS
 62
     5
 10
-53.950000000000728
 20
-169.19995660800299
 30
0.0
 11
-62.050000000000182
 21
-169.19995660800299
 31
0.0
  0
LINE
  8
DETAIL
  6
CONTINUOUS
 62
     5
 10
42.28168136199929
 20
-167.39995660800011
 30
0.0
 11
32.28168136199929
 21
-167.39995660800011
 31
0.0
  0
LINE
  8
DETAIL
  6
CONTINUOUS
 62
     5
 10
-32.281681361000658
 20
-167.39995660800011
 30
0.0
 11
-42.281681361000658
 21
-167.39995660800011
 31
0.0
  0
LINE
  8
DETAIL
  6
CONTINUOUS
 62
     5
 10
59.494698136999432
 20
-166.39995660800011
 30
0.0
 11
56.505301863999193
 21
-166.39995660800011
 31
0.0
  0
LINE
  8
DETAIL
  6
CONTINUOUS
 62
     5
 10
-56.505301863000568
 20
-166.39995660800011
 30
0.0
 11
-59.494698136000807
 21
-166.39995660800011
 31
0.0
  0
LINE
  8
DETAIL
  6
CONTINUOUS
 62
     5
 10
40.28168136199929
 20
-165.39995660800381
 30
0.0
 11
34.28168136199929
 21
-165.39995660800381
 31
0.0
  0
LINE
  8
DETAIL
  6
CONTINUOUS
 62
     5
 10
-34.281681361000658
 20
-165.39995660800381
 30
0.0
 11
-40.281681361000658
 21
-165.39995660800381
 31
0.0
  0
LINE
  8
DETAIL
  6
CONTINUOUS
 62
     5
 10
151.30555350000029
 20
-75.919443416001741
 30
0.0
 11
150.2999999999993
 21
-76.5
 31
0.0
  0
LINE
  8
DETAIL
  6
CONTINUOUS
 62
     5
 10
-60.022437298000114
 20
-172.39995660800011
 30
0.0
 11
-60.022437298000114
 21
-169.19995660800299
 31
0.0
  0
LINE
  8
DETAIL
  6
CONTINUOUS
 62
     5
 10
-59.5
 20
-169.19995660800299
 30
0.0
 11
-59.5
 21
-166.39995660800011
 31
0.0
  0
LINE
  8
DETAIL
  6
CONTINUOUS
 62
     5
 10
-56.5
 20
-169.19995660800299
 30
0.0
 11
-56.5
 21
-166.39995660800011
 31
0.0
  0
LINE
  8
DETAIL
  6
CONTINUOUS
 62
     5
 10
-56.2946931890001
 20
-198.28670795400279
 30
0.0
 11
-56.2946931890001
 21
-192.51320526200109
 31
0.0
  0
LINE
  8
DETAIL
  6
CONTINUOUS
 62
     5
 10
-55.977562701000352
 20
-172.39995660800011
 30
0.0
 11
-55.977562701000352
 21
-169.19995660800299
 31
0.0
  0
LINE
  8
DETAIL
  6
CONTINUOUS
 62
     5
 10
-53.950000000000728
 20
-172.39995660800011
 30
0.0
 11
-53.950000000000728
 21
-169.19995660800299
 31
0.0
  0
LINE
  8
DETAIL
  6
CONTINUOUS
 62
     5
 10
-51.700000000000728
 20
-207.89995660800381
 30
0.0
 11
-51.700000000000728
 21
-214.49995660800229
 31
0.0
  0
LINE
  8
DETAIL
  6
CONTINUOUS
 62
     5
 10
-49.5
 20
-216.49995660799871
 30
0.0
 11
-49.5
 21
-207.89995660800381
 31
0.0
  0
LINE
  8
DETAIL
  6
CONTINUOUS
 62
     5
 10
-49.200000000000728
 20
-167.89995660800381
 30
0.0
 11
-49.200000000000728
 21
-135.39995660799829
 31
0.0
  0
LINE
  8
DETAIL
  6
CONTINUOUS
 62
     5
 10
-42.420844189000491
 20
-204.89995660800011
 30
0.0
 11
-42.420844189000491
 21
-185.89995660800011
 31
0.0
  0
LINE
  8
DETAIL
  6
CONTINUOUS
 62
     5
 10
-42.281681361000658
 20
-183.19995660799941
 30
0.0
 11
-42.281681361000658
 21
-179.59995660800089
 31
0.0
  0
LINE
  8
DETAIL
  6
CONTINUOUS
 62
     5
 10
-42.281681361000658
 20
-172.39995660800011
 30
0.0
 11
-42.281681361000658
 21
-167.39995660800011
 31
0.0
  0
LINE
  8
DETAIL
  6
CONTINUOUS
 62
     5
 10
-41.643954404000397
 20
-183.39995660800011
 30
0.0
 11
-41.643954404000397
 21
-204.89995660800011
 31
0.0
  0
LINE
  8
DETAIL
  6
CONTINUOUS
 62
     5
 10
-40.281681361000658
 20
-167.39995660800011
 30
0.0
 11
-40.281681361000658
 21
-165.39995660800381
 31
0.0
  0
LINE
  8
DETAIL
  6
CONTINUOUS
 62
     5
 10
-37.281681361000658
 20
-183.39995660800011
 30
0.0
 11
-37.281681361000658
 21
-179.39995660800381
 31
0.0
  0
LINE
  8
DETAIL
  6
CONTINUOUS
 62
     5
 10
-37.281681361000658
 20
-172.39995660800011
 30
0.0
 11
-37.281681361000658
 21
-167.39995660800381
 31
0.0
  0
LINE
  8
DETAIL
  6
CONTINUOUS
 62
     5
 10
-34.281681361000658
 20
-167.39995660800011
 30
0.0
 11
-34.281681361000658
 21
-165.39995660800381
 31
0.0
  0
LINE
  8
DETAIL
  6
CONTINUOUS
 62
     5
 10
-32.281681361000658
 20
-183.19995660799941
 30
0.0
 11
-32.281681361000658
 21
-179.59995660800089
 31
0.0
  0
LINE
  8
DETAIL
  6
CONTINUOUS
 62
     5
 10
-32.281681361000658
 20
-172.39995660800011
 30
0.0
 11
-32.281681361000658
 21
-167.39995660800011
 31
0.0
  0
LINE
  8
DETAIL
  6
CONTINUOUS
 62
     5
 10
-56.2946931890001
 20
-192.51320526200109
 30
0.0
 11
-52.464470974000513
 21
-189.62645391600199
 31
0.0
  0
LINE
  8
DETAIL
  6
CONTINUOUS
 62
     5
 10
-67.78535983599977
 20
-192.51320526200109
 30
0.0
 11
-63.955137619999732
 21
-189.62645391600199
 31
0.0
  0
LINE
  8
DETAIL
  6
CONTINUOUS
 62
     5
 10
52.461921432999588
 20
-189.62645391700241
 30
0.0
 11
56.292143648999627
 21
-192.51320526200109
 31
0.0
  0
LINE
  8
DETAIL
  6
CONTINUOUS
 62
     5
 10
64.037637104000169
 20
-189.62645391600199
 30
0.0
 11
67.867859318999763
 21
-192.51320526200109
 31
0.0
  0
LINE
  8
DETAIL
  6
CONTINUOUS
 62
     5
 10
7.9820955779996439
 20
-123.092179852003
 30
0.0
 11
11.5
 21
-123.39995660799831
 31
0.0
  0
LINE
  8
DETAIL
  6
CONTINUOUS
 62
     5
 10
38.699999999999818
 20
-124.899956608002
 30
0.0
 11
-38.700000000000728
 21
-124.899956608002
 31
0.0
  0
LINE
  8
DETAIL
  6
CONTINUOUS
 62
     5
 10
-11.5
 20
-124.39995660799831
 30
0.0
 11
11.5
 21
-124.39995660799831
 31
0.0
  0
LINE
  8
DETAIL
  6
CONTINUOUS
 62
     5
 10
-11.5
 20
-123.39995660799831
 30
0.0
 11
11.5
 21
-123.39995660799831
 31
0.0
  0
LINE
  8
DETAIL
  6
CONTINUOUS
 62
     5
 10
-6.4994829440001922
 20
-120.89995660799831
 30
0.0
 11
6.4994829449997269
 21
-120.89995660799831
 31
0.0
  0
LINE
  8
DETAIL
  6
CONTINUOUS
 62
     5
 10
-7.9820955770001092
 20
-123.092179852003
 30
0.0
 11
-11.5
 21
-123.39995660799831
 31
0.0
  0
LINE
  8
DETAIL
  6
CONTINUOUS
 62
     5
 10
-6.5
 20
-120.89995660799831
 30
0.0
 11
-6.6274270880003314
 21
-121.80664745600011
 31
0.0
  0
LINE
  8
DETAIL
  6
CONTINUOUS
 62
     5
 10
-11.5
 20
-123.39995660799831
 30
0.0
 11
-11.5
 21
-124.39995660799831
 31
0.0
  0
LINE
  8
DETAIL
  6
CONTINUOUS
 62
     5
 10
-5.0
 20
-124.899956608002
 30
0.0
 11
-5.0
 21
-124.39995660799831
 31
0.0
  0
LINE
  8
DETAIL
  6
CONTINUOUS
 62
     5
 10
-5.0
 20
-120.89995660799831
 30
0.0
 11
-5.0
 21
-111.0
 31
0.0
  0
LINE
  8
DETAIL
  6
CONTINUOUS
 62
     5
 10
-0.5
 20
-61.0
 30
0.0
 11
-0.5
 21
-0.0000000000009095
 31
0.0
  0
LINE
  8
BASIS
  6
DASHDOT
 62
     6
 10
0.0
 20
-239.8253001030007
 30
0.0
 11
0.0
 21
15.97904075300085
 31
0.0
  0
LINE
  8
DETAIL
  6
CONTINUOUS
 62
     5
 10
0.5
 20
-61.0
 30
0.0
 11
0.5
 21
-0.0000000000009095
 31
0.0
  0
LINE
  8
DETAIL
  6
CONTINUOUS
 62
     5
 10
149.0
 20
-111.0
 30
0.0
 11
148.1275516080004
 21
-111.0
 31
0.0
  0
LINE
  8
DETAIL
  6
CONTINUOUS
 62
     5
 10
127.0480777009998
 20
-111.0
 30
0.0
 11
-126.96557821799981
 21
-111.0
 31
0.0
  0
LINE
  8
DETAIL
  6
CONTINUOUS
 62
     5
 10
-148.04505212500041
 20
-111.0
 30
0.0
 11
-149.0
 21
-111.0
 31
0.0
  0
LINE
  8
DETAIL
  6
CONTINUOUS
 62
     5
 10
149.0
 20
-110.2000000000007
 30
0.0
 11
148.1275516080004
 21
-110.2000000000007
 31
0.0
  0
LINE
  8
DETAIL
  6
CONTINUOUS
 62
     5
 10
127.0480777009998
 20
-110.2000000000007
 30
0.0
 11
-126.96557821799981
 21
-110.2000000000007
 31
0.0
  0
LINE
  8
DETAIL
  6
CONTINUOUS
 62
     5
 10
-148.04505212500041
 20
-110.2000000000007
 30
0.0
 11
-149.0
 21
-110.2000000000007
 31
0.0
  0
LINE
  8
DETAIL
  6
CONTINUOUS
 62
     5
 10
5.0
 20
-124.899956608002
 30
0.0
 11
5.0
 21
-124.39995660799831
 31
0.0
  0
LINE
  8
DETAIL
  6
CONTINUOUS
 62
     5
 10
5.0
 20
-120.89995660799831
 30
0.0
 11
5.0
 21
-111.0
 31
0.0
  0
LINE
  8
DETAIL
  6
CONTINUOUS
 62
     5
 10
11.5
 20
-123.39995660799831
 30
0.0
 11
11.5
 21
-124.39995660799831
 31
0.0
  0
LINE
  8
DETAIL
  6
CONTINUOUS
 62
     5
 10
6.5
 20
-120.89995660799831
 30
0.0
 11
6.6274270889998661
 21
-121.80664745600011
 31
0.0
  0
LINE
  8
DETAIL
  6
CONTINUOUS
 62
     5
 10
32.28168136199929
 20
-183.19995660799941
 30
0.0
 11
32.28168136199929
 21
-179.59995660800089
 31
0.0
  0
LINE
  8
DETAIL
  6
CONTINUOUS
 62
     5
 10
32.28168136199929
 20
-172.39995660800011
 30
0.0
 11
32.28168136199929
 21
-167.39995660800011
 31
0.0
  0
LINE
  8
DETAIL
  6
CONTINUOUS
 62
     5
 10
-154.27938543300019
 20
-78.000000000003638
 30
0.0
 11
-148.04505212500041
 21
-78.000000000003638
 31
0.0
  0
LINE
  8
DETAIL
  6
CONTINUOUS
 62
     5
 10
-130.41374439200081
 20
-78.000000000003638
 30
0.0
 11
-120.8137443920004
 21
-78.000000000003638
 31
0.0
  0
LINE
  8
DETAIL
  6
CONTINUOUS
 62
     5
 10
148.1275516080004
 20
-78.000000000003638
 30
0.0
 11
154.27938543399981
 21
-78.000000000003638
 31
0.0
  0
LINE
  8
DETAIL
  6
CONTINUOUS
 62
     5
 10
-150.30000000000021
 20
-76.5
 30
0.0
 11
-137.30000000000021
 21
-76.5
 31
0.0
  0
LINE
  8
DETAIL
  6
CONTINUOUS
 62
     5
 10
137.3003318829997
 20
-76.5
 30
0.0
 11
150.29966811799929
 21
-76.5
 31
0.0
  0
LINE
  8
DETAIL
  6
CONTINUOUS
 62
     5
 10
-164.25632091099939
 20
-74.0
 30
0.0
 11
-150.30000000000021
 21
-74.0
 31
0.0
  0
LINE
  8
DETAIL
  6
CONTINUOUS
 62
     5
 10
-137.30000000000021
 20
-74.0
 30
0.0
 11
-110.8368089140004
 21
-74.0
 31
0.0
  0
LINE
  8
DETAIL
  6
CONTINUOUS
 62
     5
 10
151.30555350000029
 20
-74.0
 30
0.0
 11
164.25632091199989
 21
-74.0
 31
0.0
  0
LINE
  8
DETAIL
  6
CONTINUOUS
 62
     5
 10
-180.0
 20
-71.0
 30
0.0
 11
180.0
 21
-71.0
 31
0.0
  0
LINE
  8
DETAIL
  6
CONTINUOUS
 62
     5
 10
34.28168136199929
 20
-167.39995660800011
 30
0.0
 11
34.28168136199929
 21
-165.39995660800381
 31
0.0
  0
LINE
  8
DETAIL
  6
CONTINUOUS
 62
     5
 10
37.28168136199929
 20
-183.39995660800011
 30
0.0
 11
37.28168136199929
 21
-179.39995660800381
 31
0.0
  0
LINE
  8
DETAIL
  6
CONTINUOUS
 62
     5
 10
37.28168136199929
 20
-172.39995660800011
 30
0.0
 11
37.28168136199929
 21
-167.39995660800011
 31
0.0
  0
LINE
  8
DETAIL
  6
CONTINUOUS
 62
     5
 10
40.28168136199929
 20
-167.39995660800011
 30
0.0
 11
40.28168136199929
 21
-165.39995660800381
 31
0.0
  0
LINE
  8
DETAIL
  6
CONTINUOUS
 62
     5
 10
41.643954404999931
 20
-183.39995660800011
 30
0.0
 11
41.643954404999931
 21
-204.89995660800011
 31
0.0
  0
LINE
  8
DETAIL
  6
CONTINUOUS
 62
     5
 10
42.28168136199929
 20
-183.19995660799941
 30
0.0
 11
42.28168136199929
 21
-179.59995660800089
 31
0.0
  0
LINE
  8
DETAIL
  6
CONTINUOUS
 62
     5
 10
42.28168136199929
 20
-172.39995660800011
 30
0.0
 11
42.28168136199929
 21
-167.39995660800011
 31
0.0
  0
LINE
  8
DETAIL
  6
CONTINUOUS
 62
     5
 10
42.503343672999108
 20
-204.89995660800011
 30
0.0
 11
42.503343672999108
 21
-185.89995660800011
 31
0.0
  0
LINE
  8
DETAIL
  6
CONTINUOUS
 62
     5
 10
49.5
 20
-216.49995660799871
 30
0.0
 11
49.5
 21
-207.89995660800381
 31
0.0
  0
LINE
  8
DETAIL
  6
CONTINUOUS
 62
     5
 10
49.199999999999818
 20
-167.89995660800381
 30
0.0
 11
49.199999999999818
 21
-135.39995660799829
 31
0.0
  0
LINE
  8
DETAIL
  6
CONTINUOUS
 62
     5
 10
-185.0
 20
-61.0
 30
0.0
 11
185.0
 21
-61.0
 31
0.0
  0
LINE
  8
DETAIL
  6
CONTINUOUS
 62
     5
 10
53.949999999999818
 20
-172.39995660800011
 30
0.0
 11
53.949999999999818
 21
-169.19995660800299
 31
0.0
  0
LINE
  8
DETAIL
  6
CONTINUOUS
 62
     5
 10
55.977562701999886
 20
-172.39995660800011
 30
0.0
 11
55.977562701999886
 21
-169.19995660800299
 31
0.0
  0
LINE
  8
DETAIL
  6
CONTINUOUS
 62
     5
 10
56.292143648999627
 20
-192.51320526200109
 30
0.0
 11
56.292143648999627
 21
-198.28670795400279
 31
0.0
  0
LINE
  8
DETAIL
  6
CONTINUOUS
 62
     5
 10
56.5
 20
-169.19995660800299
 30
0.0
 11
56.5
 21
-166.39995660800011
 31
0.0
  0
LINE
  8
DETAIL
  6
CONTINUOUS
 62
     5
 10
59.5
 20
-169.19995660800299
 30
0.0
 11
59.5
 21
-166.39995660800011
 31
0.0
  0
LINE
  8
DETAIL
  6
CONTINUOUS
 62
     5
 10
60.022437298999648
 20
-172.39995660800011
 30
0.0
 11
60.022437298999648
 21
-169.19995660800299
 31
0.0
  0
LINE
  8
DETAIL
  6
CONTINUOUS
 62
     5
 10
62.049999999999272
 20
-172.39995660800011
 30
0.0
 11
62.049999999999272
 21
-169.19995660800299
 31
0.0
  0
LINE
  8
DETAIL
  6
CONTINUOUS
 62
     5
 10
63.5
 20
-176.39995660800011
 30
0.0
 11
63.5
 21
-172.39995660800011
 31
0.0
  0
LINE
  8
DETAIL
  6
CONTINUOUS
 62
     5
 10
67.867859318999763
 20
-192.51320526200109
 30
0.0
 11
67.867859318999763
 21
-198.28670795400279
 31
0.0
  0
LINE
  8
DETAIL
  6
CONTINUOUS
 62
     5
 10
70.753643242999715
 20
-182.89995660800381
 30
0.0
 11
70.753643242999715
 21
-182.39995660800011
 31
0.0
  0
LINE
  8
DETAIL
  6
CONTINUOUS
 62
     5
 10
72.682006072000149
 20
-182.89995660800381
 30
0.0
 11
72.682006072000149
 21
-182.39995660800011
 31
0.0
  0
LINE
  8
DETAIL
  6
CONTINUOUS
 62
     5
 10
-180.0
 20
-3.0000000000009091
 30
0.0
 11
-178.94454364800001
 21
-3.0000000000009091
 31
0.0
  0
LINE
  8
DETAIL
  6
CONTINUOUS
 62
     5
 10
-125.05545635099951
 20
-3.0000000000009091
 30
0.0
 11
-122.25735931300009
 21
-3.0000000000009091
 31
0.0
  0
LINE
  8
DETAIL
  6
CONTINUOUS
 62
     5
 10
122.25735931300009
 20
-3.0000000000009091
 30
0.0
 11
125.05545635199999
 21
-3.0000000000009091
 31
0.0
  0
LINE
  8
DETAIL
  6
CONTINUOUS
 62
     5
 10
178.94454364900051
 20
-3.0000000000009091
 30
0.0
 11
180.0
 21
-3.0000000000009091
 31
0.0
  0
LINE
  8
DETAIL
  6
CONTINUOUS
 62
     5
 10
0.5
 20
-2.0000000000009091
 30
0.0
 11
-0.5
 21
-2.0000000000009091
 31
0.0
  0
LINE
  8
DETAIL
  6
CONTINUOUS
 62
     5
 10
-126.1161165230005
 20
-1.5000000000009091
 30
0.0
 11
-180.0052038200001
 21
-1.5000000000009091
 31
0.0
  0
LINE
  8
DETAIL
  6
CONTINUOUS
 62
     5
 10
126.1161165239992
 20
-1.5000000000009091
 30
0.0
 11
180.0052038199992
 21
-1.5000000000009091
 31
0.0
  0
LINE
  8
DETAIL
  6
CONTINUOUS
 62
     5
 10
180.0052038199992
 20
-0.0000000000009095
 30
0.0
 11
126.1161165239992
 21
-0.0000000000009095
 31
0.0
  0
LINE
  8
DETAIL
  6
CONTINUOUS
 62
     5
 10
122.25735931300009
 20
-0.0000000000009095
 30
0.0
 11
0.5
 21
-0.0000000000009095
 31
0.0
  0
LINE
  8
DETAIL
  6
CONTINUOUS
 62
     5
 10
-180.0052038200001
 20
-0.0000000000009095
 30
0.0
 11
-126.1161165230005
 21
-0.0000000000009095
 31
0.0
  0
LINE
  8
DETAIL
  6
CONTINUOUS
 62
     5
 10
-122.25735931300009
 20
-0.0000000000009095
 30
0.0
 11
-0.5
 21
-0.0000000000009095
 31
0.0
  0
LINE
  8
DETAIL
  6
CONTINUOUS
 62
     5
 10
136.29444650100049
 20
-75.919443416001741
 30
0.0
 11
137.2999999999993
 21
-76.5
 31
0.0
  0
LINE
  8
DETAIL
  6
CONTINUOUS
 62
     5
 10
122.25735931300009
 20
-3.0000000000009091
 30
0.0
 11
122.25735931300009
 21
-0.0000000000009095
 31
0.0
  0
LINE
  8
DETAIL
  6
CONTINUOUS
 62
     5
 10
126.96557821799981
 20
-111.0
 30
0.0
 11
126.96557821799981
 21
-142.89946229900119
 31
0.0
  0
LINE
  8
DETAIL
  6
CONTINUOUS
 62
     5
 10
127.0480777009998
 20
-142.89946229900119
 30
0.0
 11
127.0480777009998
 21
-77.000000000003638
 31
0.0
  0
LINE
  8
DETAIL
  6
CONTINUOUS
 62
     5
 10
136.29444650100049
 20
-71.0
 30
0.0
 11
136.29444650100049
 21
-75.919443416001741
 31
0.0
  0
LINE
  8
DETAIL
  6
CONTINUOUS
 62
     5
 10
140.0472232510001
 20
-71.0
 30
0.0
 11
140.0472232510001
 21
-76.499999999996362
 31
0.0
  0
LINE
  8
DETAIL
  6
CONTINUOUS
 62
     5
 10
146.199188779
 20
-76.500000000003638
 30
0.0
 11
146.199188779
 21
-142.89946229900119
 31
0.0
  0
LINE
  8
DETAIL
  6
CONTINUOUS
 62
     5
 10
147.55277674999979
 20
-71.0
 30
0.0
 11
147.55277674999979
 21
-76.499999999996362
 31
0.0
  0
LINE
  8
DETAIL
  6
CONTINUOUS
 62
     5
 10
148.1275516080004
 20
-76.500000000003638
 30
0.0
 11
148.1275516080004
 21
-142.89946229900119
 31
0.0
  0
LINE
  8
DETAIL
  6
CONTINUOUS
 62
     5
 10
149.0
 20
-111.0
 30
0.0
 11
149.0
 21
-110.2000000000007
 31
0.0
  0
LINE
  8
DETAIL
  6
CONTINUOUS
 62
     5
 10
149.47938543400051
 20
-78.000000000003638
 30
0.0
 11
149.47938543400051
 21
-76.5
 31
0.0
  0
LINE
  8
DETAIL
  6
CONTINUOUS
 62
     5
 10
151.30555350000029
 20
-71.0
 30
0.0
 11
151.30555350000029
 21
-75.919443416001741
 31
0.0
  0
LINE
  8
DETAIL
  6
CONTINUOUS
 62
     5
 10
154.47938543400051
 20
-77.80000000000291
 30
0.0
 11
154.47938543400051
 21
-74.200000000000728
 31
0.0
  0
LINE
  8
DETAIL
  6
CONTINUOUS
 62
     5
 10
164.25632091199989
 20
-71.0
 30
0.0
 11
164.25632091199989
 21
-74.0
 31
0.0
  0
LINE
  8
DETAIL
  6
CONTINUOUS
 62
     5
 10
180.0
 20
-61.0
 30
0.0
 11
180.0
 21
-3.0000000000009091
 31
0.0
  0
LINE
  8
DETAIL
  6
CONTINUOUS
 62
     5
 10
180.0052038199992
 20
-0.0000000000009095
 30
0.0
 11
180.0052038199992
 21
-1.5000000000009091
 31
0.0
  0
LINE
  8
DETAIL
  6
CONTINUOUS
 62
     5
 10
185.0
 20
-66.0
 30
0.0
 11
185.0
 21
-61.0
 31
0.0
  0
ARC
  8
DETAIL
  6
CONTINUOUS
 62
     5
 10
-96.322653784000067
 20
-169.73997533499821
 30
0.0
 40
38.159981281
 50
267.1046397137286
 51
269.99884680709181
  0
ARC
  8
DETAIL
  6
CONTINUOUS
 62
     5
 10
-38.700000000000728
 20
-135.39995660799829
 30
0.0
 40
10.5
 50
90.0
 51
180.0
  0
ARC
  8
DETAIL
  6
CONTINUOUS
 62
     5
 10
-42.0
 20
-216.49995660799871
 30
0.0
 40
7.5
 50
180.0
 51
270.0
  0
ARC
  8
DETAIL
  6
CONTINUOUS
 62
     5
 10
-53.700000000000728
 20
-167.89995660800381
 30
0.0
 40
4.5
 50
270.0
 51
0.0
  0
ARC
  8
DETAIL
  6
CONTINUOUS
 62
     5
 10
-8.1128291910008556
 20
-121.59788780400049
 30
0.0
 40
1.5
 50
275.00000000002598
 51
352.00000000006497
  0
ARC
  8
DETAIL
  6
CONTINUOUS
 62
     5
 10
-50.700000000000728
 20
-214.49995660800229
 30
0.0
 40
1.0
 50
180.0
 51
270.0
  0
ARC
  8
DETAIL
  6
CONTINUOUS
 62
     5
 10
-52.700000000000728
 20
-214.49995660800229
 30
0.0
 40
1.0
 50
0.0
 51
90.0
  0
ARC
  8
DETAIL
  6
CONTINUOUS
 62
     5
 10
-32.481681360999573
 20
-183.19995660799941
 30
0.0
 40
0.2
 50
270.0
 51
0.0
  0
ARC
  8
DETAIL
  6
CONTINUOUS
 62
     5
 10
-42.081681360999937
 20
-183.19995660799941
 30
0.0
 40
0.2
 50
180.00000000010431
 51
269.99999999989569
  0
ARC
  8
DETAIL
  6
CONTINUOUS
 62
     5
 10
-42.081681360999937
 20
-179.59995660800089
 30
0.0
 40
0.2
 50
90.000000000104222
 51
180.00000000010431
  0
ARC
  8
DETAIL
  6
CONTINUOUS
 62
     5
 10
-32.481681360999573
 20
-179.59995660800089
 30
0.0
 40
0.2
 50
0.0
 51
90.0
  0
ARC
  8
DETAIL
  6
CONTINUOUS
 62
     5
 10
96.40515326700006
 20
-169.73997533499821
 30
0.0
 40
38.159981281
 50
270.0011531929083
 51
272.8953602862714
  0
ARC
  8
DETAIL
  6
CONTINUOUS
 62
     5
 10
38.699999999999818
 20
-135.39995660799829
 30
0.0
 40
10.5
 50
0.0
 51
90.0
  0
ARC
  8
DETAIL
  6
CONTINUOUS
 62
     5
 10
42.0
 20
-216.49995660799871
 30
0.0
 40
7.5
 50
270.0
 51
0.0
  0
ARC
  8
DETAIL
  6
CONTINUOUS
 62
     5
 10
53.699999999999818
 20
-167.89995660800381
 30
0.0
 40
4.5
 50
180.0
 51
270.0
  0
ARC
  8
DETAIL
  6
CONTINUOUS
 62
     5
 10
8.1128291919994808
 20
-121.59788780400049
 30
0.0
 40
1.5
 50
187.999999999935
 51
264.99999999997402
  0
ARC
  8
DETAIL
  6
CONTINUOUS
 62
     5
 10
42.081681362000381
 20
-183.19995660799941
 30
0.0
 40
0.2
 50
270.0
 51
0.0
  0
ARC
  8
DETAIL
  6
CONTINUOUS
 62
     5
 10
32.481681362000018
 20
-183.19995660799941
 30
0.0
 40
0.2
 50
180.00000000010431
 51
269.99999999989569
  0
ARC
  8
DETAIL
  6
CONTINUOUS
 62
     5
 10
32.481681362000018
 20
-179.59995660800089
 30
0.0
 40
0.2
 50
90.000000000104222
 51
180.00000000010431
  0
ARC
  8
DETAIL
  6
CONTINUOUS
 62
     5
 10
42.081681362000381
 20
-179.59995660800089
 30
0.0
 40
0.2
 50
0.0
 51
90.0
  0
ARC
  8
DETAIL
  6
CONTINUOUS
 62
     5
 10
-148.30000000000021
 20
-90.200000000000728
 30
0.0
 40
20.0
 50
270.0
 51
270.73063174770459
  0
ARC
  8
DETAIL
  6
CONTINUOUS
 62
     5
 10
-180.0
 20
-66.0
 30
0.0
 40
5.0
 50
180.0
 51
270.0
  0
ARC
  8
DETAIL
  6
CONTINUOUS
 62
     5
 10
-177.0
 20
-3.0000000000009091
 30
0.0
 40
3.0
 50
151.92223471974509
 51
180.0
  0
ARC
  8
DETAIL
  6
CONTINUOUS
 62
     5
 10
-154.27938543300019
 20
-77.80000000000291
 30
0.0
 40
0.2
 50
180.00000000010431
 51
269.99999999989569
  0
ARC
  8
DETAIL
  6
CONTINUOUS
 62
     5
 10
-154.27938543300019
 20
-74.200000000000728
 30
0.0
 40
0.2
 50
90.000000000104222
 51
180.00000000010431
  0
ARC
  8
DETAIL
  6
CONTINUOUS
 62
     5
 10
-120.8137443920004
 20
-77.80000000000291
 30
0.0
 40
0.2
 50
270.0
 51
0.0
  0
ARC
  8
DETAIL
  6
CONTINUOUS
 62
     5
 10
-130.41374439200081
 20
-77.80000000000291
 30
0.0
 40
0.2
 50
180.00000000010431
 51
269.99999999989569
  0
ARC
  8
DETAIL
  6
CONTINUOUS
 62
     5
 10
-120.8137443920004
 20
-74.200000000000728
 30
0.0
 40
0.2
 50
0.0
 51
90.0
  0
ARC
  8
DETAIL
  6
CONTINUOUS
 62
     5
 10
-130.41374439200081
 20
-74.200000000000728
 30
0.0
 40
0.2
 50
90.000000000104222
 51
180.00000000010431
  0
ARC
  8
DETAIL
  6
CONTINUOUS
 62
     5
 10
148.2999999999993
 20
-90.200000000000728
 30
0.0
 40
20.0
 50
269.50579595927388
 51
270.0
  0
ARC
  8
DETAIL
  6
CONTINUOUS
 62
     5
 10
180.0
 20
-66.0
 30
0.0
 40
5.0
 50
270.0
 51
0.0
  0
ARC
  8
DETAIL
  6
CONTINUOUS
 62
     5
 10
177.0
 20
-3.0000000000009091
 30
0.0
 40
3.0
 50
0.0
 51
28.077765280254891
  0
ARC
  8
DETAIL
  6
CONTINUOUS
 62
     5
 10
138.1711062109998
 20
-73.695290469000611
 30
0.0
 40
2.8047095440000001
 50
267.05256286473912
 51
269.99445703498827
  0
ARC
  8
DETAIL
  6
CONTINUOUS
 62
     5
 10
149.4288936920002
 20
-73.695314004002284
 30
0.0
 40
2.8046860090000001
 50
270.00554498277108
 51
272.94744233904362
  0
ARC
  8
DETAIL
  6
CONTINUOUS
 62
     5
 10
154.27938543399981
 20
-77.80000000000291
 30
0.0
 40
0.2
 50
269.99999999989569
 51
0.0
  0
ARC
  8
DETAIL
  6
CONTINUOUS
 62
     5
 10
154.27938543399981
 20
-74.200000000000728
 30
0.0
 40
0.2
 50
0.0
 51
90.0
  0
LINE
  8
DETAIL
  6
CONTINUOUS
 62
     5
 10
-61.028256940000567
 20
-201.17345930000189
 30
0.0
 11
-57.198034724000543
 21
-198.28670795400279
 31
0.0
  0
LINE
  8
DETAIL
  6
CONTINUOUS
 62
     5
 10
-57.198034724000543
 20
-198.28670795400279
 30
0.0
 11
-57.198034724000543
 21
-192.51320526200109
 31
0.0
  0
LINE
  8
DETAIL
  6
CONTINUOUS
 62
     5
 10
-57.198034724000543
 20
-192.51320526200109
 30
0.0
 11
-61.028256940000567
 21
-189.62645391600199
 31
0.0
  0
LINE
  8
DETAIL
  6
CONTINUOUS
 62
     5
 10
-45.7073680780004
 20
-198.28670795400279
 30
0.0
 11
-49.537590293000903
 21
-201.17345930000189
 31
0.0
  0
LINE
  8
DETAIL
  6
CONTINUOUS
 62
     5
 10
-49.537590293000903
 20
-189.62645391600199
 30
0.0
 11
-45.7073680780004
 21
-192.51320526200109
 31
0.0
  0
LINE
  8
DETAIL
  6
CONTINUOUS
 62
     5
 10
-45.7073680780004
 20
-192.51320526200109
 30
0.0
 11
-45.7073680780004
 21
-198.28670795400279
 31
0.0
  0
LINE
  8
DETAIL
  6
CONTINUOUS
 62
     5
 10
49.53504075300043
 20
-201.17345930000189
 30
0.0
 11
45.704818537999927
 21
-198.28670795400279
 31
0.0
  0
LINE
  8
DETAIL
  6
CONTINUOUS
 62
     5
 10
45.704818537999927
 20
-198.28670795400279
 30
0.0
 11
45.704818537999927
 21
-192.51320526200109
 31
0.0
  0
LINE
  8
DETAIL
  6
CONTINUOUS
 62
     5
 10
45.704818537999927
 20
-192.51320526200109
 30
0.0
 11
49.53504075300043
 21
-189.62645391600199
 31
0.0
  0
LINE
  8
DETAIL
  6
CONTINUOUS
 62
     5
 10
61.110756423000574
 20
-201.17345930000189
 30
0.0
 11
57.280534207999153
 21
-198.28670795400279
 31
0.0
  0
LINE
  8
DETAIL
  6
CONTINUOUS
 62
     5
 10
57.280534207999153
 20
-198.28670795400279
 30
0.0
 11
57.280534207999153
 21
-192.51320526200109
 31
0.0
  0
LINE
  8
DETAIL
  6
CONTINUOUS
 62
     5
 10
57.280534207999153
 20
-192.51320526200109
 30
0.0
 11
61.110756423000574
 21
-189.62645391600199
 31
0.0
  0
ARC
  8
DETAIL
  6
CONTINUOUS
 62
     5
 10
-96.313960961215344
 20
-161.9161792627128
 30
0.0
 40
46.028137966857138
 50
211.23312697693081
 51
267.48429551095973
  0
ARC
  8
DETAIL
  6
CONTINUOUS
 62
     5
 10
-70.468322788944533
 20
-143.74147085056569
 30
0.0
 40
77.581298731593932
 50
179.37814287361809
 51
212.8130568605238
  0
ARC
  8
DETAIL
  6
CONTINUOUS
 62
     5
 10
-93.725461826756145
 20
-161.03583153390349
 30
0.0
 40
47.090205585602753
 50
210.56076995284451
 51
264.38334422904131
  0
ARC
  8
DETAIL
  6
CONTINUOUS
 62
     5
 10
-68.241169879527661
 20
-143.68929107547589
 30
0.0
 40
77.879524612582131
 50
179.41891490161299
 51
212.01716722425709
  0
ARC
  8
DETAIL
  6
CONTINUOUS
 62
     5
 10
96.221859466184469
 20
-161.6133966748348
 30
0.0
 40
46.334738247475073
 50
272.61304995181757
 51
328.5586796367968
  0
ARC
  8
DETAIL
  6
CONTINUOUS
 62
     5
 10
68.705496386268351
 20
-143.20899842175459
 30
0.0
 40
79.422658405864723
 50
327.58549927716558
 51
0.2233009911015068
  0
ARC
  8
DETAIL
  6
CONTINUOUS
 62
     5
 10
94.083631168143256
 20
-161.17598304058811
 30
0.0
 40
46.78157267749738
 50
272.84349636992738
 51
329.41536973396671
  0
ARC
  8
DETAIL
  6
CONTINUOUS
 62
     5
 10
66.373384113123393
 20
-143.14042794051781
 30
0.0
 40
79.826168359721649
 50
328.39096287292648
 51
0.1729550036012611
  0
ARC
  8
DETAIL
  6
CONTINUOUS
 62
     5
 10
86.335706958756418
 20
-143.4488508932009
 30
0.0
 40
40.716077405382038
 50
284.31943623874292
 51
0.773124647692769
  0
ARC
  8
DETAIL
  6
CONTINUOUS
 62
     5
 10
-86.335706958760056
 20
-143.4488508932009
 30
0.0
 40
40.716077405382038
 50
179.226875352203
 51
255.68056376125719
  0
ARC
  8
DETAIL
  6
CONTINUOUS
 62
     5
 10
-44.732100642671867
 20
-204.91453547567471
 30
0.0
 40
3.0881806512569732
 50
284.82207455151791
 51
0.2704863426876804
  0
ARC
  8
DETAIL
  6
CONTINUOUS
 62
     5
 10
-45.665739284264419
 20
-204.79445888513601
 30
0.0
 40
3.2466096083136091
 50
286.95469994276982
 51
358.13786095156848
  0
ARC
  8
DETAIL
  6
CONTINUOUS
 62
     5
 10
44.732100642670048
 20
-204.91453547567471
 30
0.0
 40
3.0881806512569732
 50
179.72951365731231
 51
255.17792544848211
  0
ARC
  8
DETAIL
  6
CONTINUOUS
 62
     5
 10
45.540405948720952
 20
-204.97512284137059
 30
0.0
 40
3.0379923023658701
 50
178.58223884974939
 51
254.31280484943201
  0
ARC
  8
DETAIL
  6
CONTINUOUS
 62
     5
 10
45.242182801628587
 20
-185.6177929697842
 30
0.0
 40
2.7533354483688122
 50
99.210524898590236
 51
185.88203599582411
  0
ARC
  8
DETAIL
  6
CONTINUOUS
 62
     5
 10
-45.329182211764419
 20
-185.7632828190435
 30
0.0
 40
2.9115476604787638
 50
357.30943436853391
 51
79.557678971338319
  0
ARC
  8
DETAIL
  6
CONTINUOUS
 62
     5
 10
67.258059528696322
 20
-181.6468745081047
 30
0.0
 40
5.4759774245160129
 50
352.09536404322608
 51
73.36945037436
  0
ARC
  8
DETAIL
  6
CONTINUOUS
 62
     5
 10
68.041669971131341
 20
-182.02341555819291
 30
0.0
 40
2.7379887124529589
 50
352.09536404681012
 51
73.369450370824637
  0
ARC
  8
DETAIL
  6
CONTINUOUS
 62
     5
 10
-67.258059528695412
 20
-181.6468745081047
 30
0.0
 40
5.4759774245160129
 50
106.63054962564
 51
187.90463595677059
  0
ARC
  8
DETAIL
  6
CONTINUOUS
 62
     5
 10
-68.041669971131341
 20
-182.02341555819291
 30
0.0
 40
2.7379887124529589
 50
106.63054962917541
 51
187.90463595318991
  0
ARC
  8
DETAIL
  6
CONTINUOUS
 62
     5
 10
-63.19233564483784
 20
-187.8089635401584
 30
0.0
 40
22.936803368208238
 50
241.155019771545
 51
266.21533491454971
  0
ARC
  8
DETAIL
  6
CONTINUOUS
 62
     5
 10
134.12623083615841
 20
-77.310221401716262
 30
0.0
 40
7.0849480677583792
 50
117.0447398112528
 51
177.49044575760291
  0
ARC
  8
DETAIL
  6
CONTINUOUS
 62
     5
 10
126.4123354178482
 20
-2.8344583887555932
 30
0.0
 40
1.3669399490802361
 50
102.51541080324419
 51
186.9558098199991
  0
ARC
  8
DETAIL
  6
CONTINUOUS
 62
     5
 10
126.7072506352615
 20
-2.6679949390618281
 30
0.0
 40
2.73269766574293
 50
102.4929148728653
 51
186.97830575040589
  0
ARC
  8
DETAIL
  6
CONTINUOUS
 62
     5
 10
-126.4123354178482
 20
-2.8344583887555932
 30
0.0
 40
1.3669399490802361
 50
353.04419018000078
 51
77.484589196755849
  0
ARC
  8
DETAIL
  6
CONTINUOUS
 62
     5
 10
-126.7072506352615
 20
-2.6679949390618281
 30
0.0
 40
2.73269766574293
 50
353.02169424959408
 51
77.507085127134658
  0
ARC
  8
DETAIL
  6
CONTINUOUS
 62
     5
 10
180.30142271512889
 20
-2.8344583887555932
 30
0.0
 40
1.366939949357723
 50
102.515410855659
 51
186.9558098185295
  0
ARC
  8
DETAIL
  6
CONTINUOUS
 62
     5
 10
-180.30142271512889
 20
-2.8344583887555932
 30
0.0
 40
1.366939949357723
 50
353.04419018147053
 51
77.48458914434103
  0
ARC
  8
OUTLINE
  6
CONTINUOUS
 62
     3
 10
96.221859466184128
 20
-161.61339667483583
 30
0.0
 40
46.334738247474469
 50
272.6130499518049
 51
328.55867963680316
  0
ARC
  8
OUTLINE
  6
CONTINUOUS
 62
     3
 10
68.70549638626953
 20
-143.20899842175311
 30
0.0
 40
79.422658405864453
 50
327.58549927721253
 51
0.2233009907205314
  0
LINE
  8
OUTLINE
  6
CONTINUOUS
 62
     3
 10
148.1275516080004
 20
-142.89946229952599
 30
0.0
 11
148.1275516080004
 21
-111.0
 31
0.0
  0
LINE
  8
OUTLINE
  6
CONTINUOUS
 62
     3
 10
148.1275516080004
 20
-111.0
 30
0.0
 11
149.0
 21
-111.0
 31
0.0
  0
LINE
  8
OUTLINE
  6
CONTINUOUS
 62
     3
 10
149.0
 20
-111.0
 30
0.0
 11
149.0
 21
-110.2000000000007
 31
0.0
  0
LINE
  8
OUTLINE
  6
CONTINUOUS
 62
     3
 10
149.0
 20
-110.2000000000007
 30
0.0
 11
148.30000000002289
 21
-110.2000000000007
 31
0.0
  0
ARC
  8
OUTLINE
  6
CONTINUOUS
 62
     3
 10
148.30000000003855
 20
-90.200000000361214
 30
0.0
 40
19.999999999639485
 50
269.50596562589226
 51
270.0
  0
LINE
  8
OUTLINE
  6
CONTINUOUS
 62
     3
 10
148.1275516080004
 20
-110.19925652498389
 30
0.0
 11
148.1275516080004
 21
-105.7999999999993
 31
0.0
  0
LINE
  8
OUTLINE
  6
CONTINUOUS
 62
     3
 10
148.1275516080004
 20
-105.7999999999993
 30
0.0
 11
172.0590000000002
 21
-105.80000000000111
 31
0.0
  0
LINE
  8
OUTLINE
  6
CONTINUOUS
 62
     3
 10
172.0590000000002
 20
-105.80000000000111
 30
0.0
 11
172.0590000000002
 21
-71.0
 31
0.0
  0
LINE
  8
OUTLINE
  6
CONTINUOUS
 62
     3
 10
172.0590000000002
 20
-71.0
 30
0.0
 11
180.0
 21
-71.0
 31
0.0
  0
ARC
  8
OUTLINE
  6
CONTINUOUS
 62
     3
 10
179.99999999999952
 20
-65.999999999999517
 30
0.0
 40
5.0000000000004841
 50
270.0
 51
0.0
  0
LINE
  8
OUTLINE
  6
CONTINUOUS
 62
     3
 10
185.0
 20
-66.0
 30
0.0
 11
185.0
 21
-61.0
 31
0.0
  0
LINE
  8
OUTLINE
  6
CONTINUOUS
 62
     3
 10
185.0
 20
-61.0
 30
0.0
 11
180.0
 21
-61.0
 31
0.0
  0
LINE
  8
OUTLINE
  6
CONTINUOUS
 62
     3
 10
180.0
 20
-61.0
 30
0.0
 11
180.0
 21
-3.0000000000009091
 31
0.0
  0
ARC
  8
OUTLINE
  6
CONTINUOUS
 62
     3
 10
177.00000000000165
 20
-3.0000000000029443
 30
0.0
 40
2.9999999999983462
 50
0.0
 51
27.296430888992973
  0
ARC
  8
OUTLINE
  6
CONTINUOUS
 62
     3
 10
180.30142271512995
 20
-2.8344583887530765
 30
0.0
 40
1.3669399493553154
 50
102.51541085578737
 51
117.70351030543645
  0
LINE
  8
OUTLINE
  6
CONTINUOUS
 62
     3
 10
180.0052038199992
 20
-1.5000000000009091
 30
0.0
 11
180.0052038199992
 21
-0.0000000000009095
 31
0.0
  0
LINE
  8
OUTLINE
  6
CONTINUOUS
 62
     3
 10
180.0052038199992
 20
-0.0000000000009095
 30
0.0
 11
126.1161165239955
 21
-0.0000000000009095
 31
0.0
  0
ARC
  8
OUTLINE
  6
CONTINUOUS
 62
     3
 10
126.70725063526135
 20
-2.6679949390618529
 30
0.0
 40
2.7326976657429332
 50
102.49291487298154
 51
186.97830575040734
  0
LINE
  8
OUTLINE
  6
CONTINUOUS
 62
     3
 10
123.9947961799999
 20
-3.0000000000009091
 30
0.0
 11
122.25735931300009
 21
-3.0000000000009091
 31
0.0
  0
LINE
  8
OUTLINE
  6
CONTINUOUS
 62
     3
 10
122.25735931300009
 20
-3.0000000000009091
 30
0.0
 11
122.25735931300009
 21
-0.0000000000009095
 31
0.0
  0
LINE
  8
OUTLINE
  6
CONTINUOUS
 62
     3
 10
122.25735931300009
 20
-0.0000000000009095
 30
0.0
 11
0.5
 21
-0.0000000000009095
 31
0.0
  0
LINE
  8
OUTLINE
  6
CONTINUOUS
 62
     3
 10
0.5
 20
-0.0000000000009095
 30
0.0
 11
0.5
 21
-2.0000000000009091
 31
0.0
  0
LINE
  8
OUTLINE
  6
CONTINUOUS
 62
     3
 10
0.5
 20
-2.0000000000009091
 30
0.0
 11
-0.5
 21
-2.0000000000009091
 31
0.0
  0
LINE
  8
OUTLINE
  6
CONTINUOUS
 62
     3
 10
-0.5
 20
-2.0000000000009091
 30
0.0
 11
-0.5
 21
-0.0000000000009095
 31
0.0
  0
LINE
  8
OUTLINE
  6
CONTINUOUS
 62
     3
 10
-0.5
 20
-0.0000000000009095
 30
0.0
 11
-122.25735931300009
 21
-0.0000000000009095
 31
0.0
  0
LINE
  8
OUTLINE
  6
CONTINUOUS
 62
     3
 10
-122.25735931300009
 20
-0.0000000000009095
 30
0.0
 11
-122.25735931300009
 21
-3.0000000000009091
 31
0.0
  0
LINE
  8
OUTLINE
  6
CONTINUOUS
 62
     3
 10
-122.25735931300009
 20
-3.0000000000009091
 30
0.0
 11
-123.9947961800008
 21
-3.0000000000009091
 31
0.0
  0
ARC
  8
OUTLINE
  6
CONTINUOUS
 62
     3
 10
-126.7072506352617
 20
-2.6679949390612752
 30
0.0
 40
2.7326976657424438
 50
353.02169424957924
 51
77.507085127008565
  0
LINE
  8
OUTLINE
  6
CONTINUOUS
 62
     3
 10
-126.1161165239955
 20
-0.0000000000009095
 30
0.0
 11
-180.0052038200001
 21
-0.0000000000009095
 31
0.0
  0
LINE
  8
OUTLINE
  6
CONTINUOUS
 62
     3
 10
-180.0052038200001
 20
-0.0000000000009095
 30
0.0
 11
-180.0052038200001
 21
-1.5000000000009091
 31
0.0
  0
ARC
  8
OUTLINE
  6
CONTINUOUS
 62
     3
 10
-180.30142271515948
 20
-2.8344583887458459
 30
0.0
 40
1.3669399493544614
 50
62.296489693406272
 51
77.484589142975778
  0
ARC
  8
OUTLINE
  6
CONTINUOUS
 62
     3
 10
-177.00000000000045
 20
-2.9999999999989715
 30
0.0
 40
2.999999999999543
 50
152.70356911124099
 51
180.0
  0
LINE
  8
OUTLINE
  6
CONTINUOUS
 62
     3
 10
-180.0
 20
-3.0000000000009091
 30
0.0
 11
-180.0
 21
-61.0
 31
0.0
  0
LINE
  8
OUTLINE
  6
CONTINUOUS
 62
     3
 10
-180.0
 20
-61.0
 30
0.0
 11
-185.0
 21
-61.0
 31
0.0
  0
LINE
  8
OUTLINE
  6
CONTINUOUS
 62
     3
 10
-185.0
 20
-61.0
 30
0.0
 11
-185.0
 21
-66.0
 31
0.0
  0
ARC
  8
OUTLINE
  6
CONTINUOUS
 62
     3
 10
-180.0
 20
-66.0
 30
0.0
 40
4.9999999999999991
 50
180.0
 51
270.0
  0
LINE
  8
OUTLINE
  6
CONTINUOUS
 62
     3
 10
-180.0
 20
-71.0
 30
0.0
 11
-164.25632091099939
 21
-71.0
 31
0.0
  0
LINE
  8
OUTLINE
  6
CONTINUOUS
 62
     3
 10
-164.25632091099939
 20
-71.0
 30
0.0
 11
-164.25632091099939
 21
-74.0
 31
0.0
  0
LINE
  8
OUTLINE
  6
CONTINUOUS
 62
     3
 10
-164.25632091099939
 20
-74.0
 30
0.0
 11
-154.47938543300009
 21
-74.0
 31
0.0
  0
LINE
  8
OUTLINE
  6
CONTINUOUS
 62
     3
 10
-154.47938543300009
 20
-74.0
 30
0.0
 11
-154.47938543300009
 21
-78.000000000003638
 31
0.0
  0
LINE
  8
OUTLINE
  6
CONTINUOUS
 62
     3
 10
-154.47938543300009
 20
-78.000000000003638
 30
0.0
 11
-148.1275516080004
 21
-78.000000000003638
 31
0.0
  0
LINE
  8
OUTLINE
  6
CONTINUOUS
 62
     3
 10
-148.1275516080004
 20
-78.000000000003638
 30
0.0
 11
-148.1275516080004
 21
-110.19925652498389
 31
0.0
  0
ARC
  8
OUTLINE
  6
CONTINUOUS
 62
     3
 10
-148.30000000004492
 20
-90.199999998885872
 30
0.0
 40
20.000000001114831
 50
270.0
 51
270.49403437408955
  0
LINE
  8
OUTLINE
  6
CONTINUOUS
 62
     3
 10
-148.30000000000291
 20
-110.2000000000007
 30
0.0
 11
-149.0
 21
-110.2000000000007
 31
0.0
  0
LINE
  8
OUTLINE
  6
CONTINUOUS
 62
     3
 10
-149.0
 20
-110.2000000000007
 30
0.0
 11
-149.0
 21
-111.0
 31
0.0
  0
LINE
  8
OUTLINE
  6
CONTINUOUS
 62
     3
 10
-149.0
 20
-111.0
 30
0.0
 11
-148.04505212500041
 21
-111.0
 31
0.0
  0
LINE
  8
OUTLINE
  6
CONTINUOUS
 62
     3
 10
-148.04505212500041
 20
-111.0
 30
0.0
 11
-148.04505212500041
 21
-142.89946229882659
 31
0.0
  0
ARC
  8
OUTLINE
  6
CONTINUOUS
 62
     3
 10
-70.468322788945073
 20
-143.7414708505658
 30
0.0
 40
77.581298731593762
 50
179.37814287345714
 51
212.81305686050746
  0
ARC
  8
OUTLINE
  6
CONTINUOUS
 62
     3
 10
-96.313960961215045
 20
-161.9161792627128
 30
0.0
 40
46.028137966857678
 50
211.23312697691642
 51
267.48429551093341
  0
LINE
  8
OUTLINE
  6
CONTINUOUS
 62
     3
 10
-98.334284141992612
 20
-207.89995660800381
 30
0.0
 11
-74.258000843985428
 21
-207.89995660800381
 31
0.0
  0
ARC
  8
OUTLINE
  6
CONTINUOUS
 62
     3
 10
-63.192335644837634
 20
-187.8089635401592
 30
0.0
 40
22.936803368207404
 50
241.15501977163262
 51
266.21533491453465
  0
LINE
  8
OUTLINE
  6
CONTINUOUS
 62
     3
 10
-64.706321593999746
 20
-210.69574564899989
 30
0.0
 11
-61.700000000000728
 21
-210.69574564899989
 31
0.0
  0
LINE
  8
OUTLINE
  6
CONTINUOUS
 62
     3
 10
-61.700000000000728
 20
-210.69574564899989
 30
0.0
 11
-61.700000000000728
 21
-213.49995660800229
 31
0.0
  0
LINE
  8
OUTLINE
  6
CONTINUOUS
 62
     3
 10
-61.700000000000728
 20
-213.49995660800229
 30
0.0
 11
-52.700000000000728
 21
-213.49995660800229
 31
0.0
  0
ARC
  8
OUTLINE
  6
CONTINUOUS
 62
     3
 10
-52.700000000000706
 20
-214.49995660800226
 30
0.0
 40
0.9999999999999804
 50
0.0
 51
90.0
  0
ARC
  8
OUTLINE
  6
CONTINUOUS
 62
     3
 10
-50.700000000000749
 20
-214.49995660800232
 30
0.0
 40
0.9999999999999804
 50
180.0
 51
270.0
  0
LINE
  8
OUTLINE
  6
CONTINUOUS
 62
     3
 10
-50.700000000000728
 20
-215.49995660800229
 30
0.0
 11
-49.5
 21
-215.49995660799871
 31
0.0
  0
LINE
  8
OUTLINE
  6
CONTINUOUS
 62
     3
 10
-49.5
 20
-215.49995660799871
 30
0.0
 11
-49.5
 21
-216.49995660799871
 31
0.0
  0
ARC
  8
OUTLINE
  6
CONTINUOUS
 62
     3
 10
-41.999999999999851
 20
-216.49995660799857
 30
0.0
 40
7.5000000000001465
 50
180.0
 51
270.0
  0
LINE
  8
OUTLINE
  6
CONTINUOUS
 62
     3
 10
-42.0
 20
-223.99995660799871
 30
0.0
 11
42.0
 21
-223.99995660799871
 31
0.0
  0
ARC
  8
OUTLINE
  6
CONTINUOUS
 62
     3
 10
42.00000000000005
 20
-216.49995660799877
 30
0.0
 40
7.4999999999999503
 50
270.0
 51
0.0
  0
LINE
  8
OUTLINE
  6
CONTINUOUS
 62
     3
 10
49.5
 20
-216.49995660799871
 30
0.0
 11
49.5
 21
-207.89995660800381
 31
0.0
  0
LINE
  8
OUTLINE
  6
CONTINUOUS
 62
     3
 10
49.5
 20
-207.89995660800381
 30
0.0
 11
98.334284143000332
 21
-207.89995660800381
 31
0.0
  0
LINE
  8
SIZE
  6
CONTINUOUS
 62
    30
 10
-200.00520381999931
 20
-0.0000000000009127
 30
0.0
 11
-437.14751231400828
 21
-0.0000000000009508
 31
0.0
  0
LINE
  8
SIZE
  6
CONTINUOUS
 62
    30
 10
-62.000000000000021
 20
-223.9999566079988
 30
0.0
 11
-437.14751231400828
 21
-223.99995660799891
 31
0.0
  0
LINE
  8
SIZE
  6
CONTINUOUS
 62
    30
 10
-417.14751231400828
 20
-12.00000000000095
 30
0.0
 11
-417.14751231400828
 21
-211.99995660799891
 31
0.0
  0
CIRCLE
  8
SIZE
  6
CONTINUOUS
 62
    30
 10
-417.14751231400828
 20
-0.0000000000009476
 30
0.0
 40
6.0
  0
LINE
  8
SIZE
  6
CONTINUOUS
 62
    30
 10
-417.14751231400828
 20
-0.0000000000009476
 30
0.0
 11
-417.14751231400828
 21
-12.000000000000947
 31
0.0
  0
CIRCLE
  8
SIZE
  6
CONTINUOUS
 62
    30
 10
-417.14751231400828
 20
-223.99995660799891
 30
0.0
 40
6.0
  0
LINE
  8
SIZE
  6
CONTINUOUS
 62
    30
 10
-417.14751231400828
 20
-223.99995660799891
 30
0.0
 11
-417.14751231400828
 21
-211.99995660799891
 31
0.0
  0
TEXT
  8
SIZE
  6
CONTINUOUS
 62
    30
 10
-442.14751231400822
 20
-192.92797830399974
 30
0.0
 40
64.0
  1
224
 50
90.0
 41
0.9
 51
0.0
  7
STANDARD
 71
     0
 72
     1
 11
-442.14751231400822
 21
-111.99997830399974
 31
0.0
210
0.0
220
0.0
230
1.0
  0
POINT
  8
DEFPOINTS
  6
CONTINUOUS
 62
    30
 10
-180.00520381999931
 20
-0.0000000000009095
 30
0.0
  0
POINT
  8
DEFPOINTS
  6
CONTINUOUS
 62
    30
 10
-42.000000000000007
 20
-223.9999566079988
 30
0.0
  0
POINT
  8
DEFPOINTS
  6
CONTINUOUS
 62
    30
 10
-417.14751231400828
 20
-223.99995660799891
 30
0.0
  0
LINE
  8
SIZE
  6
CONTINUOUS
 62
    30
 10
-205.00000000000011
 20
-61.000000000000028
 30
0.0
 11
-312.08658858262072
 21
-61.00000000000005
 31
0.0
  0
LINE
  8
SIZE
  6
CONTINUOUS
 62
    30
 10
-169.00000000000011
 20
-111.0000000000001
 30
0.0
 11
-312.08658858262072
 21
-111.0000000000001
 31
0.0
  0
LINE
  8
SIZE
  6
CONTINUOUS
 62
    30
 10
-292.08658858262072
 20
-49.000000000000043
 30
0.0
 11
-292.08658858262072
 21
-37.000000000000043
 31
0.0
  0
LINE
  8
SIZE
  6
CONTINUOUS
 62
    30
 10
-292.08658858262072
 20
-123.0000000000001
 30
0.0
 11
-292.08658858262061
 21
-376.78106947279969
 31
0.0
  0
LINE
  8
SIZE
  6
CONTINUOUS
 62
    30
 10
-292.08658858262072
 20
-61.000000000000043
 30
0.0
 11
-292.08658858262072
 21
-111.0000000000001
 31
0.0
  0
CIRCLE
  8
SIZE
  6
CONTINUOUS
 62
    30
 10
-292.08658858262072
 20
-61.000000000000043
 30
0.0
 40
6.0
  0
LINE
  8
SIZE
  6
CONTINUOUS
 62
    30
 10
-292.08658858262072
 20
-61.000000000000043
 30
0.0
 11
-292.08658858262072
 21
-49.000000000000043
 31
0.0
  0
CIRCLE
  8
SIZE
  6
CONTINUOUS
 62
    30
 10
-292.08658858262072
 20
-111.0000000000001
 30
0.0
 40
6.0
  0
LINE
  8
SIZE
  6
CONTINUOUS
 62
    30
 10
-292.08658858262072
 20
-111.0000000000001
 30
0.0
 11
-292.08658858262072
 21
-123.0000000000001
 31
0.0
  0
TEXT
  8
SIZE
  6
CONTINUOUS
 62
    30
 10
-317.08658858262061
 20
-359.2964980442282
 30
0.0
 40
64.0
  1
50
 50
90.0
 41
0.9
 51
0.0
  7
STANDARD
 71
     0
 72
     1
 11
-317.08658858262061
 21
-305.1524980442282
 31
0.0
210
0.0
220
0.0
230
1.0
  0
POINT
  8
DEFPOINTS
  6
CONTINUOUS
 62
    30
 10
-185.00000000000011
 20
-61.000000000000028
 30
0.0
  0
POINT
  8
DEFPOINTS
  6
CONTINUOUS
 62
    30
 10
-149.00000000000011
 20
-111.0000000000001
 30
0.0
  0
POINT
  8
DEFPOINTS
  6
CONTINUOUS
 62
    30
 10
-292.08658858262072
 20
-111.0000000000001
 30
0.0
  0
CIRCLE
  8
FIX
  6
CONTINUOUS
 62
    11
 10
165.0
 20
-0.0000000000009095
 30
0.0
 40
5.0
  0
CIRCLE
  8
FIX
  6
CONTINUOUS
 62
    11
 10
-165.0
 20
-0.0000000000009095
 30
0.0
 40
5.0
  0
LINE
  8
BASIS
  6
DASHDOT
 62
     6
 10
-185.0
 20
-0.0000000000009095
 30
0.0
 11
-145.0
 21
-0.0000000000009095
 31
0.0
  0
LINE
  8
BASIS
  6
DASHDOT
 62
     6
 10
-165.0
 20
-20.000000000000909
 30
0.0
 11
-165.0
 21
19.999999999999091
 31
0.0
  0
LINE
  8
BASIS
  6
DASHDOT
 62
     6
 10
145.0
 20
-0.0000000000009095
 30
0.0
 11
185.0
 21
-0.0000000000009095
 31
0.0
  0
LINE
  8
BASIS
  6
DASHDOT
 62
     6
 10
165.0
 20
-20.000000000000909
 30
0.0
 11
165.0
 21
19.999999999999091
 31
0.0
  0
LINE
  8
SIZE
  6
CONTINUOUS
 62
    30
 10
185.0
 20
-41.0
 30
0.0
 11
185.0
 21
227.5038599709651
 31
0.0
  0
LINE
  8
SIZE
  6
CONTINUOUS
 62
    30
 10
-185.0
 20
-41.0
 30
0.0
 11
-185.0
 21
227.5038599709651
 31
0.0
  0
LINE
  8
SIZE
  6
CONTINUOUS
 62
    30
 10
173.0
 20
207.5038599709651
 30
0.0
 11
-173.0
 21
207.5038599709651
 31
0.0
  0
CIRCLE
  8
SIZE
  6
CONTINUOUS
 62
    30
 10
185.0
 20
207.5038599709651
 30
0.0
 40
6.0
  0
LINE
  8
SIZE
  6
CONTINUOUS
 62
    30
 10
185.0
 20
207.5038599709651
 30
0.0
 11
173.0
 21
207.5038599709651
 31
0.0
  0
CIRCLE
  8
SIZE
  6
CONTINUOUS
 62
    30
 10
-185.0
 20
207.5038599709651
 30
0.0
 40
6.0
  0
LINE
  8
SIZE
  6
CONTINUOUS
 62
    30
 10
-185.0
 20
207.5038599709651
 30
0.0
 11
-173.0
 21
207.5038599709651
 31
0.0
  0
TEXT
  8
SIZE
  6
CONTINUOUS
 62
    30
 10
-80.927999999999969
 20
232.5038599709651
 30
0.0
 40
64.0
  1
370
 50
0.0
 41
0.9
 51
0.0
  7
STANDARD
 71
     0
 72
     1
 11
0.0000000000000284
 21
232.5038599709651
 31
0.0
210
0.0
220
0.0
230
1.0
  0
POINT
  8
DEFPOINTS
  6
CONTINUOUS
 62
    30
 10
185.0
 20
-61.0
 30
0.0
  0
POINT
  8
DEFPOINTS
  6
CONTINUOUS
 62
    30
 10
-185.0
 20
-61.0
 30
0.0
  0
POINT
  8
DEFPOINTS
  6
CONTINUOUS
 62
    30
 10
-185.0
 20
207.5038599709651
 30
0.0
  0
LINE
  8
SIZE
  6
CONTINUOUS
 62
    30
 10
165.0
 20
39.999999999999091
 30
0.0
 11
165.0
 21
109.41125858777011
 31
0.0
  0
LINE
  8
SIZE
  6
CONTINUOUS
 62
    30
 10
-165.0
 20
39.999999999999091
 30
0.0
 11
-165.0
 21
109.41125858777011
 31
0.0
  0
LINE
  8
SIZE
  6
CONTINUOUS
 62
    30
 10
153.0
 20
89.411258587770135
 30
0.0
 11
-153.0
 21
89.411258587770135
 31
0.0
  0
CIRCLE
  8
SIZE
  6
CONTINUOUS
 62
    30
 10
165.0
 20
89.411258587770135
 30
0.0
 40
6.0
  0
LINE
  8
SIZE
  6
CONTINUOUS
 62
    30
 10
165.0
 20
89.411258587770135
 30
0.0
 11
153.0
 21
89.411258587770135
 31
0.0
  0
CIRCLE
  8
SIZE
  6
CONTINUOUS
 62
    30
 10
-165.0
 20
89.411258587770135
 30
0.0
 40
6.0
  0
LINE
  8
SIZE
  6
CONTINUOUS
 62
    30
 10
-165.0
 20
89.411258587770135
 30
0.0
 11
-153.0
 21
89.411258587770135
 31
0.0
  0
TEXT
  8
SIZE
  6
CONTINUOUS
 62
    30
 10
-80.927999999999997
 20
114.41125858777011
 30
0.0
 40
64.0
  1
330
 50
0.0
 41
0.9
 51
0.0
  7
STANDARD
 71
     0
 72
     1
 11
0.0
 21
114.41125858777011
 31
0.0
210
0.0
220
0.0
230
1.0
  0
POINT
  8
DEFPOINTS
  6
CONTINUOUS
 62
    30
 10
165.0
 20
19.999999999999091
 30
0.0
  0
POINT
  8
DEFPOINTS
  6
CONTINUOUS
 62
    30
 10
-165.0
 20
19.999999999999091
 30
0.0
  0
POINT
  8
DEFPOINTS
  6
CONTINUOUS
 62
    30
 10
-165.0
 20
89.411258587770135
 30
0.0
  0
LINE
  8
SIZE
  6
CONTINUOUS
 62
    30
 10
-149.0
 20
-131.0
 30
0.0
 11
-149.0
 21
-498.46192203702458
 31
0.0
  0
LINE
  8
SIZE
  6
CONTINUOUS
 62
    30
 10
149.0
 20
-131.0
 30
0.0
 11
149.0
 21
-498.46192203702458
 31
0.0
  0
LINE
  8
SIZE
  6
CONTINUOUS
 62
    30
 10
-137.0
 20
-478.46192203702458
 30
0.0
 11
137.0
 21
-478.46192203702458
 31
0.0
  0
CIRCLE
  8
SIZE
  6
CONTINUOUS
 62
    30
 10
-149.0
 20
-478.46192203702458
 30
0.0
 40
6.0
  0
LINE
  8
SIZE
  6
CONTINUOUS
 62
    30
 10
-149.0
 20
-478.46192203702458
 30
0.0
 11
-137.0
 21
-478.46192203702458
 31
0.0
  0
CIRCLE
  8
SIZE
  6
CONTINUOUS
 62
    30
 10
149.0
 20
-478.46192203702458
 30
0.0
 40
6.0
  0
LINE
  8
SIZE
  6
CONTINUOUS
 62
    30
 10
149.0
 20
-478.46192203702458
 30
0.0
 11
137.0
 21
-478.46192203702458
 31
0.0
  0
TEXT
  8
SIZE
  6
CONTINUOUS
 62
    30
 10
-114.91200000000003
 20
-453.46192203702458
 30
0.0
 40
64.0
  1
φ298
 50
0.0
 41
0.9
 51
0.0
  7
STANDARD
 71
     0
 72
     1
 11
-0.0000000000000284
 21
-453.46192203702458
 31
0.0
210
0.0
220
0.0
230
1.0
  0
POINT
  8
DEFPOINTS
  6
CONTINUOUS
 62
    30
 10
-149.0
 20
-111.0
 30
0.0
  0
POINT
  8
DEFPOINTS
  6
CONTINUOUS
 62
    30
 10
149.0
 20
-111.0
 30
0.0
  0
POINT
  8
DEFPOINTS
  6
CONTINUOUS
 62
    30
 10
149.0
 20
-478.46192203702458
 30
0.0
  0
POINT
  8
ARRANGE
  6
CONTINUOUS
 62
     1
 10
0.0
 20
0.0
 30
0.0
 50
89.999999999999986
  0
CIRCLE
  8
ARRANGE
  6
CONTINUOUS
 62
     1
 10
0.0
 20
0.0
 30
0.0
 40
40.0
  0
LINE
  8
SIZE
  6
CONTINUOUS
 62
    30
 10
-205.00000000000011
 20
-61.000000000000028
 30
0.0
 11
-312.08658858262072
 21
-61.00000000000005
 31
0.0
  0
LINE
  8
SIZE
  6
CONTINUOUS
 62
    30
 10
-200.00520381999931
 20
-0.0000000000009127
 30
0.0
 11
-312.08658858262072
 21
-0.0000000000009307
 31
0.0
  0
LINE
  8
SIZE
  6
CONTINUOUS
 62
    30
 10
-292.08658858262072
 20
-73.000000000000057
 30
0.0
 11
-292.08658858262072
 21
-85.000000000000057
 31
0.0
  0
LINE
  8
SIZE
  6
CONTINUOUS
 62
    30
 10
-292.08658858262072
 20
11.999999999999069
 30
0.0
 11
-292.08658858262072
 21
142.57142857142799
 31
0.0
  0
LINE
  8
SIZE
  6
CONTINUOUS
 62
    30
 10
-292.08658858262072
 20
-61.000000000000043
 30
0.0
 11
-292.08658858262072
 21
-0.0000000000009275
 31
0.0
  0
CIRCLE
  8
SIZE
  6
CONTINUOUS
 62
    30
 10
-292.08658858262072
 20
-61.000000000000043
 30
0.0
 40
6.0
  0
LINE
  8
SIZE
  6
CONTINUOUS
 62
    30
 10
-292.08658858262072
 20
-61.000000000000043
 30
0.0
 11
-292.08658858262072
 21
-73.000000000000043
 31
0.0
  0
CIRCLE
  8
SIZE
  6
CONTINUOUS
 62
    30
 10
-292.08658858262072
 20
-0.0000000000009275
 30
0.0
 40
6.0
  0
LINE
  8
SIZE
  6
CONTINUOUS
 62
    30
 10
-292.08658858262072
 20
-0.0000000000009275
 30
0.0
 11
-292.08658858262072
 21
11.999999999999073
 31
0.0
  0
TEXT
  8
SIZE
  6
CONTINUOUS
 62
    30
 10
-317.08658858262061
 20
35.477714285713787
 30
0.0
 40
64.0
  1
61
 50
90.0
 41
0.9
 51
0.0
  7
STANDARD
 71
     0
 72
     1
 11
-317.08658858262061
 21
83.28571428571378
 31
0.0
210
0.0
220
0.0
230
1.0
  0
POINT
  8
DEFPOINTS
  6
CONTINUOUS
 62
    30
 10
-185.00000000000011
 20
-61.000000000000028
 30
0.0
  0
POINT
  8
DEFPOINTS
  6
CONTINUOUS
 62
    30
 10
-180.00520381999931
 20
-0.0000000000009095
 30
0.0
  0
POINT
  8
DEFPOINTS
  6
CONTINUOUS
 62
    30
 10
-292.08658858262072
 20
-0.0000000000009275
 30
0.0
  0
LINE
  8
SIZE
  6
CONTINUOUS
 62
    30
 10
49.5
 20
-236.49995660799871
 30
0.0
 11
49.499999999999993
 21
-362.48947759868412
 31
0.0
  0
LINE
  8
SIZE
  6
CONTINUOUS
 62
    30
 10
-49.5
 20
-236.49995660799871
 30
0.0
 11
-49.500000000000007
 21
-362.48947759868412
 31
0.0
  0
LINE
  8
SIZE
  6
CONTINUOUS
 62
    30
 10
-37.500000000000007
 20
-342.48947759868412
 30
0.0
 11
37.499999999999993
 21
-342.48947759868412
 31
0.0
  0
LINE
  8
SIZE
  6
CONTINUOUS
 62
    30
 10
49.499999999999993
 20
-342.48947759868412
 30
0.0
 11
365.63458268424893
 21
-342.48947759868412
 31
0.0
  0
CIRCLE
  8
SIZE
  6
CONTINUOUS
 62
    30
 10
-49.500000000000007
 20
-342.48947759868412
 30
0.0
 40
6.0
  0
LINE
  8
SIZE
  6
CONTINUOUS
 62
    30
 10
-49.500000000000007
 20
-342.48947759868412
 30
0.0
 11
-37.500000000000007
 21
-342.48947759868412
 31
0.0
  0
CIRCLE
  8
SIZE
  6
CONTINUOUS
 62
    30
 10
49.499999999999993
 20
-342.48947759868412
 30
0.0
 40
6.0
  0
LINE
  8
SIZE
  6
CONTINUOUS
 62
    30
 10
49.499999999999993
 20
-342.48947759868412
 30
0.0
 11
37.499999999999993
 21
-342.48947759868412
 31
0.0
  0
TEXT
  8
SIZE
  6
CONTINUOUS
 62
    30
 10
181.19229696996319
 20
-317.48947759868412
 30
0.0
 40
64.0
  1
φ99
 50
0.0
 41
0.9
 51
0.0
  7
STANDARD
 71
     0
 72
     1
 11
269.32029696996318
 21
-317.48947759868412
 31
0.0
210
0.0
220
0.0
230
1.0
  0
POINT
  8
DEFPOINTS
  6
CONTINUOUS
 62
    30
 10
49.5
 20
-216.49995660799871
 30
0.0
  0
POINT
  8
DEFPOINTS
  6
CONTINUOUS
 62
    30
 10
-49.5
 20
-216.49995660799871
 30
0.0
  0
POINT
  8
DEFPOINTS
  6
CONTINUOUS
 62
    30
 10
-49.500000000000007
 20
-342.48947759868412
 30
0.0
  0
CIRCLE
  8
DETAIL
  6
CONTINUOUS
 62
     5
 10
137.29590158187969
 20
-97.188673263272904
 30
0.0
 40
5.0
  0
LINE
  8
DETAIL
  6
CONTINUOUS
 62
     5
 10
172.0590000000002
 20
-71.0
 30
0.0
 11
172.0590000000002
 21
-105.80000000000111
 31
0.0
  0
LINE
  8
DETAIL
  6
CONTINUOUS
 62
     5
 10
172.0590000000002
 20
-105.80000000000111
 30
0.0
 11
148.1275516080004
 21
-105.7999999999993
 31
0.0
  0
TEXT
  8
ETC
  6
CONTINUOUS
 62
    61
 10
338.78372727543871
 20
325.33574588800229
 30
0.0
 40
64.0
  1
EF-25ASXC2-Q_6
 41
0.9
  0
TEXT
  8
ETC
  6
CONTINUOUS
 62
    61
 10
334.59773327543923
 20
207.38043587317091
 30
0.0
 40
64.0
  1
有圧換気扇
 41
0.9
  0
TEXT
  8
ETC
  6
CONTINUOUS
 62
    61
 10
385.29913152399422
 20
99.231662986945992
 30
0.0
 40
40.0
  1
EF-25ASXC2-Q
 50
0.0
 41
0.9
 51
0.0
  7
STANDARD
 71
     0
 11
0.0
 21
0.0
 31
0.0
210
0.0
220
0.0
230
1.0
  0
TEXT
  8
ETC
  6
CONTINUOUS
 62
    61
 10
385.29913152399422
 20
33.231662986945992
 30
0.0
 40
40.0
  1
EF-25ATXC2-Q
 50
0.0
 41
0.9
 51
0.0
  7
STANDARD
 71
     0
 11
0.0
 21
0.0
 31
0.0
210
0.0
220
0.0
230
1.0
  0
TEXT
  8
NOTE
  6
CONTINUOUS
 62
     4
 10
295.2178951056776
 20
-105.07577730340972
 30
0.0
 40
64.0
  1
4-φ10
 50
0.0
 41
0.9
 51
0.0
  7
STANDARD
 71
     0
 11
0.0
 21
0.0
 31
0.0
210
0.0
220
0.0
230
1.0
  0
LINE
  8
NOTE
  6
CONTINUOUS
 62
     4
 10
295.12789510567751
 20
-117.8757773034099
 30
0.0
 11
564.01789510567733
 21
-117.8757773034099
 31
0.0
  0
LINE
  8
NOTE
  6
CONTINUOUS
 62
     4
 10
179.60668751870216
 20
-27.409162008004554
 30
0.0
 11
165.0
 21
-0.0000000000009095
 31
0.0
  0
LINE
  8
NOTE
  6
CONTINUOUS
 62
     4
 10
165.0
 20
-0.0000000000009095
 30
0.0
 11
191.35436822495049
 21
-16.433647121492822
 31
0.0
  0
LINE
  8
NOTE
  6
CONTINUOUS
 62
     4
 10
165.0
 20
-0.0000000000009095
 30
0.0
 11
205.96105574365265
 21
-43.842809129496466
 31
0.0
  0
LINE
  8
NOTE
  6
CONTINUOUS
 62
     4
 10
205.96105574365271
 20
-43.842809129496473
 30
0.0
 11
275.12789510567751
 21
-117.8757773034099
 31
0.0
  0
LINE
  8
NOTE
  6
CONTINUOUS
 62
     4
 10
275.12789510567751
 20
-117.8757773034099
 30
0.0
 11
295.12789510567751
 21
-117.8757773034099
 31
0.0
  0
TEXT
  8
NOTE
  6
CONTINUOUS
 62
     4
 10
294.32200149673918
 20
-224.85813921232781
 30
0.0
 40
64.0
  1
EL
 50
0.0
 41
0.9
 51
0.0
  7
STANDARD
 71
     0
 11
0.0
 21
0.0
 31
0.0
210
0.0
220
0.0
230
1.0
  0
LINE
  8
NOTE
  6
CONTINUOUS
 62
     4
 10
294.23200149673897
 20
-237.658139212328
 30
0.0
 11
379.35057292531047
 21
-237.658139212328
 31
0.0
  0
LINE
  8
NOTE
  6
CONTINUOUS
 62
     4
 10
152.48119975675417
 20
-124.28155427637584
 30
0.0
 11
137.29590158187969
 21
-97.188673263272904
 31
0.0
  0
LINE
  8
NOTE
  6
CONTINUOUS
 62
     4
 10
137.29590158187969
 20
-97.188673263272904
 30
0.0
 11
163.99321998779519
 21
-113.05910716355318
 31
0.0
  0
LINE
  8
NOTE
  6
CONTINUOUS
 62
     4
 10
137.29590158187969
 20
-97.188673263272904
 30
0.0
 11
179.17851816266966
 21
-140.15198817665612
 31
0.0
  0
LINE
  8
NOTE
  6
CONTINUOUS
 62
     4
 10
179.17851816266969
 20
-140.15198817665609
 30
0.0
 11
274.23200149673897
 21
-237.658139212328
 31
0.0
  0
LINE
  8
NOTE
  6
CONTINUOUS
 62
     4
 10
274.23200149673897
 20
-237.658139212328
 30
0.0
 11
294.23200149673897
 21
-237.658139212328
 31
0.0
  0
ENDSEC
  0
EOF
