  0
SECTION
  2
HEADER
  9
$ACADVER
  1
AC1009
  9
$DWGCODEPAGE
  3
dos932
  9
$INSBASE
 10
0.0
 20
0.0
 30
0.0
  9
$EXTMIN
 10
-524.7894120341989
 20
-345.74888954608468
 30
-0.0000000349181948
  9
$EXTMAX
 10
1072.6913568362249
 20
494.43054990194469
 30
0.0000000814935746
  9
$LIMMIN
 10
-2970.0
 20
-2100.0
  9
$LIMMAX
 10
2970.0
 20
2100.0
  9
$ORTHOMODE
 70
     1
  9
$REGENMODE
 70
     1
  9
$FILLMODE
 70
     1
  9
$QTEXTMODE
 70
     0
  9
$MIRRTEXT
 70
     0
  9
$LTSCALE
 40
20.0
  9
$ATTMODE
 70
     1
  9
$TEXTSIZE
 40
64.0
  9
$TRACEWID
 40
0.05
  9
$TEXTSTYLE
  7
STANDARD
  9
$CLAYER
  8
SIZE
  9
$CELTYPE
  6
CONTINUOUS
  9
$CECOLOR
 62
     7
  9
$DIMSCALE
 40
1.0
  9
$DIMASZ
 40
12.0
  9
$DIMEXO
 40
20.0
  9
$DIMDLI
 40
200.0
  9
$DIMRND
 40
0.0
  9
$DIMDLE
 40
0.0
  9
$DIMEXE
 40
20.0
  9
$DIMTP
 40
0.0
  9
$DIMTM
 40
0.0
  9
$DIMTXT
 40
64.0
  9
$DIMCEN
 40
0.09
  9
$DIMTSZ
 40
0.0
  9
$DIMTOL
 70
     0
  9
$DIMLIM
 70
     0
  9
$DIMTIH
 70
     0
  9
$DIMTOH
 70
     0
  9
$DIMSE1
 70
     0
  9
$DIMSE2
 70
     0
  9
$DIMTAD
 70
     1
  9
$DIMZIN
 70
     8
  9
$DIMBLK
  1

  9
$DIMASO
 70
     1
  9
$DIMSHO
 70
     0
  9
$DIMPOST
  1

  9
$DIMAPOST
  1

  9
$DIMALT
 70
     0
  9
$DIMALTD
 70
     2
  9
$DIMALTF
 40
25.399999999999999
  9
$DIMLFAC
 40
1.0
  9
$DIMTOFL
 70
     1
  9
$DIMTVP
 40
0.0
  9
$DIMTIX
 70
     1
  9
$DIMSOXD
 70
     0
  9
$DIMSAH
 70
     0
  9
$DIMBLK1
  1

  9
$DIMBLK2
  1

  9
$DIMSTYLE
  2
STANDARD
  9
$DIMCLRD
 70
     7
  9
$DIMCLRE
 70
     7
  9
$DIMCLRT
 70
     7
  9
$DIMTFAC
 40
1.0
  9
$DIMGAP
 40
25.0
  9
$LUNITS
 70
     2
  9
$LUPREC
 70
     4
  9
$SKETCHINC
 40
0.1
  9
$FILLETRAD
 40
3.0
  9
$AUNITS
 70
     1
  9
$AUPREC
 70
     3
  9
$MENU
  1
ACAD
  9
$ELEVATION
 40
0.0
  9
$PELEVATION
 40
0.0
  9
$THICKNESS
 40
0.0
  9
$LIMCHECK
 70
     0
  9
$CHAMFERA
 40
0.0
  9
$CHAMFERB
 40
0.0
  9
$SKPOLY
 70
     0
  9
$TDCREATE
 40
2453019.62301037
  9
$TDUPDATE
 40
2459362.653822384
  9
$TDINDWG
 40
1.7187312616
  9
$TDUSRTIMER
 40
1.7187312616
  9
$USRTIMER
 70
     1
  9
$ANGBASE
 50
0.0
  9
$ANGDIR
 70
     0
  9
$PDMODE
 70
     3
  9
$PDSIZE
 40
-2.0
  9
$PLINEWID
 40
0.0
  9
$SPLFRAME
 70
     0
  9
$SPLINETYPE
 70
     6
  9
$SPLINESEGS
 70
     8
  9
$SURFTAB1
 70
     6
  9
$SURFTAB2
 70
     6
  9
$SURFTYPE
 70
     6
  9
$SURFU
 70
     6
  9
$SURFV
 70
     6
  9
$UCSNAME
  2

  9
$UCSORG
 10
0.0
 20
0.0
 30
0.0
  9
$UCSXDIR
 10
1.0
 20
0.0
 30
0.0
  9
$UCSYDIR
 10
0.0
 20
1.0
 30
0.0
  9
$PUCSNAME
  2

  9
$PUCSORG
 10
0.0
 20
0.0
 30
0.0
  9
$PUCSXDIR
 10
1.0
 20
0.0
 30
0.0
  9
$PUCSYDIR
 10
0.0
 20
1.0
 30
0.0
  9
$USERI1
 70
     0
  9
$USERI2
 70
     0
  9
$USERI3
 70
     0
  9
$USERI4
 70
     0
  9
$USERI5
 70
     0
  9
$USERR1
 40
20.0
  9
$USERR2
 40
0.0
  9
$USERR3
 40
0.0
  9
$USERR4
 40
0.0
  9
$USERR5
 40
0.0
  9
$WORLDVIEW
 70
     1
  9
$SHADEDGE
 70
     3
  9
$SHADEDIF
 70
    70
  9
$TILEMODE
 70
     1
  9
$MAXACTVP
 70
    48
  9
$PINSBASE
 10
0.0
 20
0.0
 30
0.0
  9
$PLIMCHECK
 70
     0
  9
$PEXTMIN
 10
-100000000000000000000.0
 20
-100000000000000000000.0
 30
-100000000000000000000.0
  9
$PEXTMAX
 10
100000000000000000000.0
 20
100000000000000000000.0
 30
100000000000000000000.0
  9
$PLIMMIN
 10
0.0
 20
0.0
  9
$PLIMMAX
 10
12.0
 20
9.0
  9
$UNITMODE
 70
     0
  9
$VISRETAIN
 70
     0
  9
$PLINEGEN
 70
     0
  9
$PSLTSCALE
 70
     0
  9
$TREEDEPTH
 70
  3020
  9
$ATTDIA
 70
     0
  9
$ATTREQ
 70
     1
  9
$BLIPMODE
 70
     1
  9
$COORDS
 70
     1
  9
$DRAGMODE
 70
     2
  9
$OSMODE
 70
     0
  9
$HANDLING
 70
     0
  9
$HANDSEED
  5
F739
  0
ENDSEC
  0
SECTION
  2
TABLES
  0
TABLE
  2
LTYPE
 70
     2
  0
LTYPE
  2
CONTINUOUS
 70
     0
  3
実線
 72
    65
 73
     0
 40
0.0
  0
LTYPE
  2
DASHDOT
 70
     0
  3
____ _ ____ _ ____ _ ____ _ ____ _ ____ _ ____
 72
    65
 73
     4
 40
5.5
 49
4.0
 49
-0.6
 49
0.3
 49
-0.6
  0
ENDTAB
  0
TABLE
  2
LAYER
 70
    12
  0
LAYER
  2
0
 70
     0
 62
     7
  6
CONTINUOUS
  0
LAYER
  2
BASIS
 70
     0
 62
     6
  6
DASHDOT
  0
LAYER
  2
OUTLINE
 70
     0
 62
     3
  6
CONTINUOUS
  0
LAYER
  2
DETAIL
 70
     0
 62
     5
  6
CONTINUOUS
  0
LAYER
  2
SIZE
 70
     0
 62
    30
  6
CONTINUOUS
  0
LAYER
  2
ARRANGE
 70
     0
 62
     1
  6
CONTINUOUS
  0
LAYER
  2
DEFPOINTS
 70
     0
 62
     7
  6
CONTINUOUS
  0
LAYER
  2
ETC
 70
     0
 62
    61
  6
CONTINUOUS
  0
LAYER
  2
FIX
 70
     0
 62
    11
  6
CONTINUOUS
  0
LAYER
  2
NOTE
 70
     0
 62
     4
  6
CONTINUOUS
  0
LAYER
  2
SERVICESPACE
 70
    64
 62
     2
  6
DASHDOT
  0
LAYER
  2
SYMBOLLINE
 70
    64
 62
    15
  6
CONTINUOUS
  0
ENDTAB
  0
TABLE
  2
STYLE
 70
     1
  0
STYLE
  2
STANDARD
 70
     0
 40
64.0
 41
0.9
 50
0.0
 71
     0
 42
64.0
  3
SIMPLEX.shx
  4
BIGFONT.shx
  0
ENDTAB
  0
TABLE
  2
APPID
 70
    20
  0
APPID
  2
ACAD
 70
     0
  0
APPID
  2
AUTOCAD_POSTSCRIPT_FIGURE
 70
     0
  0
APPID
  2
ACAD_EXEMPT_FROM_CAD_STANDARDS
 70
     0
  0
APPID
  2
ACAD_PSEXT
 70
     0
  0
APPID
  2
ACAUTHENVIRON
 70
     0
  0
APPID
  2
GENIUS_GENOENT_13
 70
     0
  0
APPID
  2
GENIUS_GENCFG_13
 70
     0
  0
APPID
  2
GENIUS_GENCFG0_13
 70
     0
  0
APPID
  2
GENIUS_GENCFG1_13
 70
     0
  0
APPID
  2
GENIUS_GENCFG2_13
 70
     0
  0
APPID
  2
GENIUS_GENCFG3_13
 70
     0
  0
APPID
  2
GENIUS_GENCFG4_13
 70
     0
  0
APPID
  2
GENIUS_GEVCFG0_13
 70
     0
  0
APPID
  2
CONTENTBLOCKICON
 70
     0
  0
APPID
  2
CONTENTBLOCKDESCRIPTION
 70
     0
  0
APPID
  2
ACAD_NAV_VCDISPLAY
 70
     0
  0
APPID
  2
ACAD_MLEADERVER
 70
     0
  0
APPID
  2
ACDBDYNAMICBLOCKTRUENAME
 70
     0
  0
APPID
  2
ACDBDYNAMICBLOCKGUID
 70
     0
  0
APPID
  2
ACAD_DSTYLE_DIMRADIAL_EXTENSION
 70
     0
  0
ENDTAB
  0
TABLE
  2
DIMSTYLE
 70
     1
  0
DIMSTYLE
  2
STANDARD
 70
     0
  3

  4

  5
_ORIGIN
  6

  7

 40
1.0
 41
12.0
 42
20.0
 43
200.0
 44
20.0
 45
0.0
 46
0.0
 47
0.0
 48
0.0
140
64.0
141
0.09
142
0.0
143
25.399999999999999
144
1.0
145
0.0
146
1.0
147
25.0
 71
     0
 72
     0
 73
     0
 74
     0
 75
     0
 76
     0
 77
     1
 78
     8
170
     0
171
     2
172
     1
173
     0
174
     1
175
     0
176
     7
177
     7
178
     7
  0
ENDTAB
  0
TABLE
  2
VIEW
 70
     1
  0
VIEW
  2
ALL
 70
     0
 40
4282.6198079999986
 10
0.0
 20
41.309904000000003
 41
5940.0
 11
0.0
 21
0.0
 31
1.0
 12
0.0
 22
0.0
 32
0.0
 42
50.0
 43
0.0
 44
0.0
 50
0.0
 71
     0
  0
ENDTAB
  0
TABLE
  2
UCS
 70
     0
  0
ENDTAB
  0
TABLE
  2
VPORT
 70
     1
  0
VPORT
  2
*ACTIVE
 70
     0
 10
0.0
 20
0.0
 11
1.0
 21
1.0
 12
273.95097240101319
 22
74.340830177930002
 13
0.0
 23
0.0
 14
1.0
 24
1.0
 15
0.0
 25
0.0
 16
0.0
 26
0.0
 36
1.0
 17
0.0
 27
0.0
 37
0.0
 40
654.89219336659664
 41
2.0992248062015499
 42
50.0
 43
0.0
 44
0.0
 50
0.0
 51
0.0
 71
     0
 72
  1000
 73
     1
 74
     3
 75
     0
 76
     0
 77
     0
 78
     0
  0
ENDTAB
  0
ENDSEC
  0
SECTION
  2
BLOCKS
  0
BLOCK
  8
0
  2
_ORIGIN
 70
     0
 10
0.0
 20
0.0
 30
0.0
  3
_ORIGIN
  1
_ORIGIN
  0
CIRCLE
  8
SIZE
  6
CONTINUOUS
 62
    30
 10
0.0
 20
0.0
 30
0.0
 40
0.5
  0
LINE
  8
SIZE
  6
CONTINUOUS
 62
    30
 10
0.0
 20
0.0
 30
0.0
 11
-1.0
 21
0.0
 31
0.0
  0
ENDBLK
  8
0
  0
ENDSEC
  0
SECTION
  2
ENTITIES
  0
LINE
  8
DETAIL
  6
CONTINUOUS
 62
     5
 10
175.00000000000051
 20
-184.99999999999949
 30
0.0
 11
-174.99999999999949
 21
-184.99999999999949
 31
0.0
  0
LINE
  8
DETAIL
  6
CONTINUOUS
 62
     5
 10
172.0710678120054
 20
165.00000000000051
 30
0.0
 11
165.00000000000051
 21
172.07106781200039
 31
0.0
  0
LINE
  8
DETAIL
  6
CONTINUOUS
 62
     5
 10
163.9393398280049
 20
158.98959236000039
 30
0.0
 11
158.9895923599984
 21
163.93933982900029
 31
0.0
  0
LINE
  8
DETAIL
  6
CONTINUOUS
 62
     5
 10
165.00000000000051
 20
-172.07106781099949
 30
0.0
 11
172.0710678120054
 21
-164.99999999999949
 31
0.0
  0
LINE
  8
DETAIL
  6
CONTINUOUS
 62
     5
 10
158.9895923599984
 20
-163.93933982799939
 30
0.0
 11
163.9393398280049
 21
-158.98959235999951
 31
0.0
  0
LINE
  8
DETAIL
  6
CONTINUOUS
 62
     5
 10
185.00000000000051
 20
175.00000000000051
 30
0.0
 11
185.00000000000051
 21
-174.99999999999949
 31
0.0
  0
LINE
  8
BASIS
  6
DASHDOT
 62
     6
 10
165.00000000000051
 20
186.2074606700005
 30
0.0
 11
165.00000000000051
 21
143.7925393310004
 31
0.0
  0
LINE
  8
BASIS
  6
DASHDOT
 62
     6
 10
165.00000000000051
 20
-146.98908922499959
 30
0.0
 11
165.00000000000051
 21
-183.01091077399951
 31
0.0
  0
LINE
  8
BASIS
  6
DASHDOT
 62
     6
 10
-185.73928719599601
 20
-164.99999999999949
 30
0.0
 11
-144.2607128049963
 21
-164.99999999999949
 31
0.0
  0
LINE
  8
BASIS
  6
DASHDOT
 62
     6
 10
146.98908922500459
 20
-164.99999999999949
 30
0.0
 11
183.01091077400321
 21
-164.99999999999949
 31
0.0
  0
LINE
  8
BASIS
  6
DASHDOT
 62
     6
 10
0.0000000000004547
 20
206.10204625300051
 30
0.0
 11
0.0000000000004547
 21
-202.29463412699971
 31
0.0
  0
LINE
  8
DETAIL
  6
CONTINUOUS
 62
     5
 10
172.0710678120054
 20
-164.99999999999949
 30
0.0
 11
162.87867965600211
 21
-155.80761184399941
 31
0.0
  0
LINE
  8
DETAIL
  6
CONTINUOUS
 62
     5
 10
-155.8076118449967
 20
162.87867965700019
 30
0.0
 11
-164.99999999999949
 21
172.07106781200039
 31
0.0
  0
LINE
  8
DETAIL
  6
CONTINUOUS
 62
     5
 10
-158.98959235999749
 20
163.93933982900029
 30
0.0
 11
-156.8682720169995
 21
161.81801948500041
 31
0.0
  0
LINE
  8
DETAIL
  6
CONTINUOUS
 62
     5
 10
163.9393398280049
 20
-158.98959235999951
 30
0.0
 11
161.81801948400289
 21
-156.86827201599951
 31
0.0
  0
LINE
  8
BASIS
  6
DASHDOT
 62
     6
 10
-218.9240220469965
 20
0.0000000000009095
 30
0.0
 11
218.92402204700011
 21
0.0000000000009095
 31
0.0
  0
LINE
  8
DETAIL
  6
CONTINUOUS
 62
     5
 10
-164.99999999999949
 20
-172.07106781099949
 30
0.0
 11
-155.8076118449967
 21
-162.8786796559996
 31
0.0
  0
LINE
  8
DETAIL
  6
CONTINUOUS
 62
     5
 10
162.87867965600211
 20
155.80761184500031
 30
0.0
 11
172.0710678120054
 21
165.00000000000051
 31
0.0
  0
LINE
  8
DETAIL
  6
CONTINUOUS
 62
     5
 10
163.9393398280049
 20
158.98959236000039
 30
0.0
 11
161.81801948400289
 21
156.86827201700041
 31
0.0
  0
LINE
  8
DETAIL
  6
CONTINUOUS
 62
     5
 10
-158.98959235999749
 20
-163.93933982799939
 30
0.0
 11
-156.8682720169995
 21
-161.81801948399951
 31
0.0
  0
LINE
  8
DETAIL
  6
CONTINUOUS
 62
     5
 10
-163.93933982899719
 20
158.98959236000039
 30
0.0
 11
-161.81801948499881
 21
156.86827201700041
 31
0.0
  0
LINE
  8
DETAIL
  6
CONTINUOUS
 62
     5
 10
158.9895923599984
 20
-163.93933982799939
 30
0.0
 11
156.86827201599999
 21
-161.81801948399951
 31
0.0
  0
LINE
  8
DETAIL
  6
CONTINUOUS
 62
     5
 10
-172.07106781199721
 20
165.00000000000051
 30
0.0
 11
-162.878679656998
 21
155.80761184500031
 31
0.0
  0
LINE
  8
DETAIL
  6
CONTINUOUS
 62
     5
 10
155.80761184400441
 20
-162.8786796559996
 30
0.0
 11
165.00000000000051
 21
-172.07106781099949
 31
0.0
  0
LINE
  8
DETAIL
  6
CONTINUOUS
 62
     5
 10
158.9895923599984
 20
163.93933982900029
 30
0.0
 11
156.86827201599999
 21
161.81801948500041
 31
0.0
  0
LINE
  8
DETAIL
  6
CONTINUOUS
 62
     5
 10
-163.93933982899719
 20
-158.98959235999951
 30
0.0
 11
-161.81801948499881
 21
-156.86827201599951
 31
0.0
  0
LINE
  8
DETAIL
  6
CONTINUOUS
 62
     5
 10
165.00000000000051
 20
172.07106781200039
 30
0.0
 11
155.80761184400441
 21
162.87867965700019
 31
0.0
  0
LINE
  8
DETAIL
  6
CONTINUOUS
 62
     5
 10
-162.878679656998
 20
-155.80761184399941
 30
0.0
 11
-172.07106781199721
 21
-164.99999999999949
 31
0.0
  0
LINE
  8
BASIS
  6
DASHDOT
 62
     6
 10
-164.99999999999949
 20
184.7690606700005
 30
0.0
 11
-164.99999999999949
 21
145.2309393310004
 31
0.0
  0
LINE
  8
BASIS
  6
DASHDOT
 62
     6
 10
-164.99999999999949
 20
-144.2607128039995
 30
0.0
 11
-164.99999999999949
 21
-185.7392871949996
 31
0.0
  0
LINE
  8
BASIS
  6
DASHDOT
 62
     6
 10
-184.76906066999749
 20
165.00000000000051
 30
0.0
 11
-145.23093933099841
 21
165.00000000000051
 31
0.0
  0
LINE
  8
BASIS
  6
DASHDOT
 62
     6
 10
143.79253933000339
 20
165.00000000000051
 30
0.0
 11
186.2074606690044
 21
165.00000000000051
 31
0.0
  0
LINE
  8
DETAIL
  6
CONTINUOUS
 62
     5
 10
-184.99999999999949
 20
-174.99999999999949
 30
0.0
 11
-184.99999999999949
 21
175.00000000000051
 31
0.0
  0
LINE
  8
DETAIL
  6
CONTINUOUS
 62
     5
 10
-174.99999999999949
 20
185.00000000000051
 30
0.0
 11
175.00000000000051
 21
185.00000000000051
 31
0.0
  0
LINE
  8
DETAIL
  6
CONTINUOUS
 62
     5
 10
-163.93933982899719
 20
-158.98959235999951
 30
0.0
 11
-158.98959235999749
 21
-163.93933982799939
 31
0.0
  0
LINE
  8
DETAIL
  6
CONTINUOUS
 62
     5
 10
-172.07106781199721
 20
-164.99999999999949
 30
0.0
 11
-164.99999999999949
 21
-172.07106781099949
 31
0.0
  0
LINE
  8
DETAIL
  6
CONTINUOUS
 62
     5
 10
-158.98959235999749
 20
163.93933982900029
 30
0.0
 11
-163.93933982899719
 21
158.98959236000039
 31
0.0
  0
LINE
  8
DETAIL
  6
CONTINUOUS
 62
     5
 10
-164.99999999999949
 20
172.07106781200039
 30
0.0
 11
-172.07106781199721
 21
165.00000000000051
 31
0.0
  0
ARC
  8
DETAIL
  6
CONTINUOUS
 62
     5
 10
175.00000000000051
 20
-174.99999999999949
 30
0.0
 40
10.0
 50
270.0
 51
0.0
  0
ARC
  8
DETAIL
  6
CONTINUOUS
 62
     5
 10
156.33794193000401
 20
-162.3483495699995
 30
0.0
 40
0.75
 50
44.999999999990777
 51
224.99999999999079
  0
ARC
  8
DETAIL
  6
CONTINUOUS
 62
     5
 10
162.34834957000251
 20
-156.33794192999949
 30
0.0
 40
0.75
 50
44.999999999990777
 51
224.99999999999079
  0
ARC
  8
DETAIL
  6
CONTINUOUS
 62
     5
 10
-174.99999999999949
 20
-174.99999999999949
 30
0.0
 40
10.0
 50
180.0
 51
270.0
  0
ARC
  8
DETAIL
  6
CONTINUOUS
 62
     5
 10
-162.34834957099471
 20
-156.33794192999949
 30
0.0
 40
0.75
 50
315.00000000000921
 51
135.00000000000921
  0
ARC
  8
DETAIL
  6
CONTINUOUS
 62
     5
 10
-156.33794193099629
 20
-162.3483495699995
 30
0.0
 40
0.75
 50
315.00000000000921
 51
135.00000000000921
  0
ARC
  8
DETAIL
  6
CONTINUOUS
 62
     5
 10
175.00000000000051
 20
175.00000000000051
 30
0.0
 40
10.0
 50
0.0
 51
90.0
  0
ARC
  8
DETAIL
  6
CONTINUOUS
 62
     5
 10
162.34834957000251
 20
156.33794193100039
 30
0.0
 40
0.75
 50
135.00000000000921
 51
315.00000000000921
  0
ARC
  8
DETAIL
  6
CONTINUOUS
 62
     5
 10
156.33794193000401
 20
162.3483495710004
 30
0.0
 40
0.75
 50
135.00000000000921
 51
315.00000000000921
  0
ARC
  8
DETAIL
  6
CONTINUOUS
 62
     5
 10
-174.99999999999949
 20
175.00000000000051
 30
0.0
 40
10.0
 50
90.0
 51
180.0
  0
ARC
  8
DETAIL
  6
CONTINUOUS
 62
     5
 10
-156.33794193099629
 20
162.3483495710004
 30
0.0
 40
0.75
 50
224.99999999999079
 51
44.999999999990777
  0
ARC
  8
DETAIL
  6
CONTINUOUS
 62
     5
 10
-162.34834957099471
 20
156.33794193100039
 30
0.0
 40
0.75
 50
224.99999999999079
 51
44.999999999990777
  0
LINE
  8
SIZE
  6
CONTINUOUS
 62
    30
 10
-184.99999999999949
 20
195.00000000000051
 30
0.0
 11
-184.99999999999949
 21
413.23498854888891
 31
0.0
  0
LINE
  8
SIZE
  6
CONTINUOUS
 62
    30
 10
185.00000000000051
 20
195.00000000000051
 30
0.0
 11
185.00000000000051
 21
413.23498854888891
 31
0.0
  0
LINE
  8
SIZE
  6
CONTINUOUS
 62
    30
 10
-172.99999999999949
 20
393.23498854888891
 30
0.0
 11
173.00000000000051
 21
393.23498854888891
 31
0.0
  0
CIRCLE
  8
SIZE
  6
CONTINUOUS
 62
    30
 10
-184.99999999999949
 20
393.23498854888891
 30
0.0
 40
6.0
  0
LINE
  8
SIZE
  6
CONTINUOUS
 62
    30
 10
-184.99999999999949
 20
393.23498854888891
 30
0.0
 11
-172.99999999999949
 21
393.23498854888891
 31
0.0
  0
CIRCLE
  8
SIZE
  6
CONTINUOUS
 62
    30
 10
185.00000000000051
 20
393.23498854888891
 30
0.0
 40
6.0
  0
LINE
  8
SIZE
  6
CONTINUOUS
 62
    30
 10
185.00000000000051
 20
393.23498854888891
 30
0.0
 11
173.00000000000051
 21
393.23498854888891
 31
0.0
  0
TEXT
  8
SIZE
  6
CONTINUOUS
 62
    30
 10
-80.927999999999543
 20
418.23498854888891
 30
0.0
 40
64.0
  1
370
 50
0.0
 41
0.9
 51
0.0
  7
STANDARD
 71
     0
 72
     1
 11
0.0000000000004547
 21
418.23498854888891
 31
0.0
210
0.0
220
0.0
230
1.0
  0
POINT
  8
DEFPOINTS
  6
CONTINUOUS
 62
    30
 10
-184.99999999999949
 20
175.00000000000051
 30
0.0
  0
POINT
  8
DEFPOINTS
  6
CONTINUOUS
 62
    30
 10
185.00000000000051
 20
175.00000000000051
 30
0.0
  0
POINT
  8
DEFPOINTS
  6
CONTINUOUS
 62
    30
 10
185.00000000000051
 20
393.23498854888891
 30
0.0
  0
LINE
  8
SIZE
  6
CONTINUOUS
 62
    30
 10
-164.99999999999949
 20
206.2074606700005
 30
0.0
 11
-164.99999999999949
 21
280.00111143581529
 31
0.0
  0
LINE
  8
SIZE
  6
CONTINUOUS
 62
    30
 10
165.00000000000051
 20
204.7690606700005
 30
0.0
 11
165.00000000000051
 21
280.00111143581529
 31
0.0
  0
LINE
  8
SIZE
  6
CONTINUOUS
 62
    30
 10
-152.99999999999949
 20
260.00111143581529
 30
0.0
 11
153.00000000000051
 21
260.00111143581529
 31
0.0
  0
CIRCLE
  8
SIZE
  6
CONTINUOUS
 62
    30
 10
-164.99999999999949
 20
260.00111143581529
 30
0.0
 40
6.0
  0
LINE
  8
SIZE
  6
CONTINUOUS
 62
    30
 10
-164.99999999999949
 20
260.00111143581529
 30
0.0
 11
-152.99999999999949
 21
260.00111143581529
 31
0.0
  0
CIRCLE
  8
SIZE
  6
CONTINUOUS
 62
    30
 10
165.00000000000051
 20
260.00111143581529
 30
0.0
 40
6.0
  0
LINE
  8
SIZE
  6
CONTINUOUS
 62
    30
 10
165.00000000000051
 20
260.00111143581529
 30
0.0
 11
153.00000000000051
 21
260.00111143581529
 31
0.0
  0
TEXT
  8
SIZE
  6
CONTINUOUS
 62
    30
 10
-80.927999999999543
 20
285.00111143581529
 30
0.0
 40
64.0
  1
330
 50
0.0
 41
0.9
 51
0.0
  7
STANDARD
 71
     0
 72
     1
 11
0.0000000000004547
 21
285.00111143581529
 31
0.0
210
0.0
220
0.0
230
1.0
  0
POINT
  8
DEFPOINTS
  6
CONTINUOUS
 62
    30
 10
-164.99999999999949
 20
186.2074606700005
 30
0.0
  0
POINT
  8
DEFPOINTS
  6
CONTINUOUS
 62
    30
 10
165.00000000000051
 20
184.7690606700005
 30
0.0
  0
POINT
  8
DEFPOINTS
  6
CONTINUOUS
 62
    30
 10
165.00000000000051
 20
260.00111143581529
 30
0.0
  0
LINE
  8
SIZE
  6
CONTINUOUS
 62
    30
 10
-206.20746066900361
 20
165.00000000000051
 30
0.0
 11
-315.99386708349971
 21
165.00000000000051
 31
0.0
  0
LINE
  8
SIZE
  6
CONTINUOUS
 62
    30
 10
-203.0109107740023
 20
-164.9999999999996
 30
0.0
 11
-315.99386708349948
 21
-164.9999999999996
 31
0.0
  0
LINE
  8
SIZE
  6
CONTINUOUS
 62
    30
 10
-295.99386708349971
 20
153.00000000000051
 30
0.0
 11
-295.99386708349948
 21
-152.9999999999996
 31
0.0
  0
CIRCLE
  8
SIZE
  6
CONTINUOUS
 62
    30
 10
-295.99386708349971
 20
165.00000000000051
 30
0.0
 40
6.0
  0
LINE
  8
SIZE
  6
CONTINUOUS
 62
    30
 10
-295.99386708349971
 20
165.00000000000051
 30
0.0
 11
-295.99386708349971
 21
153.00000000000051
 31
0.0
  0
CIRCLE
  8
SIZE
  6
CONTINUOUS
 62
    30
 10
-295.99386708349948
 20
-164.9999999999996
 30
0.0
 40
6.0
  0
LINE
  8
SIZE
  6
CONTINUOUS
 62
    30
 10
-295.99386708349948
 20
-164.9999999999996
 30
0.0
 11
-295.99386708349948
 21
-152.9999999999996
 31
0.0
  0
TEXT
  8
SIZE
  6
CONTINUOUS
 62
    30
 10
-320.99386708349948
 20
-80.927999999999486
 30
0.0
 40
64.0
  1
330
 50
90.0
 41
0.9
 51
0.0
  7
STANDARD
 71
     0
 72
     1
 11
-320.99386708349948
 21
0.0000000000005063
 31
0.0
210
0.0
220
0.0
230
1.0
  0
POINT
  8
DEFPOINTS
  6
CONTINUOUS
 62
    30
 10
-186.2074606690035
 20
165.00000000000051
 30
0.0
  0
POINT
  8
DEFPOINTS
  6
CONTINUOUS
 62
    30
 10
-183.0109107740023
 20
-164.9999999999996
 30
0.0
  0
POINT
  8
DEFPOINTS
  6
CONTINUOUS
 62
    30
 10
-295.99386708349948
 20
-164.9999999999996
 30
0.0
  0
LINE
  8
SIZE
  6
CONTINUOUS
 62
    30
 10
-194.9999999999996
 20
185.00000000000051
 30
0.0
 11
-455.40225131571242
 21
185.00000000000051
 31
0.0
  0
LINE
  8
SIZE
  6
CONTINUOUS
 62
    30
 10
-194.9999999999996
 20
-184.9999999999996
 30
0.0
 11
-455.40225131571231
 21
-184.99999999999969
 31
0.0
  0
LINE
  8
SIZE
  6
CONTINUOUS
 62
    30
 10
-435.40225131571242
 20
173.00000000000051
 30
0.0
 11
-435.40225131571231
 21
-172.9999999999996
 31
0.0
  0
CIRCLE
  8
SIZE
  6
CONTINUOUS
 62
    30
 10
-435.40225131571242
 20
185.00000000000051
 30
0.0
 40
6.0
  0
LINE
  8
SIZE
  6
CONTINUOUS
 62
    30
 10
-435.40225131571242
 20
185.00000000000051
 30
0.0
 11
-435.40225131571242
 21
173.00000000000051
 31
0.0
  0
CIRCLE
  8
SIZE
  6
CONTINUOUS
 62
    30
 10
-435.40225131571231
 20
-184.9999999999996
 30
0.0
 40
6.0
  0
LINE
  8
SIZE
  6
CONTINUOUS
 62
    30
 10
-435.40225131571231
 20
-184.9999999999996
 30
0.0
 11
-435.40225131571231
 21
-172.9999999999996
 31
0.0
  0
TEXT
  8
SIZE
  6
CONTINUOUS
 62
    30
 10
-460.40225131571219
 20
-80.927999999999457
 30
0.0
 40
64.0
  1
370
 50
90.0
 41
0.9
 51
0.0
  7
STANDARD
 71
     0
 72
     1
 11
-460.40225131571219
 21
0.0000000000005432
 31
0.0
210
0.0
220
0.0
230
1.0
  0
POINT
  8
DEFPOINTS
  6
CONTINUOUS
 62
    30
 10
-174.9999999999996
 20
185.00000000000051
 30
0.0
  0
POINT
  8
DEFPOINTS
  6
CONTINUOUS
 62
    30
 10
-174.9999999999996
 20
-184.9999999999996
 30
0.0
  0
POINT
  8
DEFPOINTS
  6
CONTINUOUS
 62
    30
 10
-435.40225131571231
 20
-184.9999999999996
 30
0.0
  0
ARC
  8
OUTLINE
  6
CONTINUOUS
 62
     3
 10
175.00000000000051
 20
175.00000000000051
 30
0.0
 40
9.9999999999999982
 50
0.0
 51
90.0
  0
LINE
  8
OUTLINE
  6
CONTINUOUS
 62
     3
 10
175.00000000000051
 20
185.00000000000051
 30
0.0
 11
-174.99999999999949
 21
185.00000000000051
 31
0.0
  0
ARC
  8
OUTLINE
  6
CONTINUOUS
 62
     3
 10
-174.99999999999949
 20
175.00000000000051
 30
0.0
 40
9.9999999999999982
 50
90.0
 51
180.0
  0
LINE
  8
OUTLINE
  6
CONTINUOUS
 62
     3
 10
-184.99999999999949
 20
175.00000000000051
 30
0.0
 11
-184.99999999999949
 21
-174.99999999999949
 31
0.0
  0
ARC
  8
OUTLINE
  6
CONTINUOUS
 62
     3
 10
-174.99999999999949
 20
-174.99999999999949
 30
0.0
 40
9.9999999999999982
 50
180.0
 51
270.0
  0
LINE
  8
OUTLINE
  6
CONTINUOUS
 62
     3
 10
-174.99999999999949
 20
-184.99999999999949
 30
0.0
 11
175.00000000000051
 21
-184.99999999999949
 31
0.0
  0
ARC
  8
OUTLINE
  6
CONTINUOUS
 62
     3
 10
175.00000000000051
 20
-174.99999999999949
 30
0.0
 40
9.9999999999999982
 50
270.0
 51
0.0
  0
LINE
  8
OUTLINE
  6
CONTINUOUS
 62
     3
 10
185.00000000000051
 20
-174.99999999999949
 30
0.0
 11
185.00000000000051
 21
175.00000000000051
 31
0.0
  0
CIRCLE
  8
FIX
  6
CONTINUOUS
 62
    11
 10
165.00000000000051
 20
165.00000000000051
 30
0.0
 40
5.0
  0
CIRCLE
  8
FIX
  6
CONTINUOUS
 62
    11
 10
-164.99999999999949
 20
165.00000000000051
 30
0.0
 40
5.0
  0
CIRCLE
  8
FIX
  6
CONTINUOUS
 62
    11
 10
-164.99999999999949
 20
-164.99999999999949
 30
0.0
 40
5.0
  0
CIRCLE
  8
FIX
  6
CONTINUOUS
 62
    11
 10
165.00000000000051
 20
-164.99999999999949
 30
0.0
 40
5.0
  0
POINT
  8
ARRANGE
  6
CONTINUOUS
 62
     1
 10
0.000000000001819
 20
0.0000000000009095
 30
0.0
 50
180.0
  0
CIRCLE
  8
ARRANGE
  6
CONTINUOUS
 62
     1
 10
0.000000000001819
 20
0.0000000000009095
 30
0.0
 40
40.0
  0
CIRCLE
  8
DETAIL
  6
CONTINUOUS
 62
     5
 10
0.0000000000004547
 20
0.0000000000006821
 30
0.0
 40
127.5
  0
LINE
  8
DETAIL
  6
CONTINUOUS
 62
     5
 10
63.927492843761677
 20
-107.4138956094864
 30
0.0
 11
64.226215440296073
 21
-107.2384914811048
 31
0.0
  0
ARC
  8
DETAIL
  6
CONTINUOUS
 62
     5
 10
-0.0369049131622887
 20
-0.372138030666747
 30
0.0
 40
124.958054820833
 50
179.157126154906
 51
179.33922051359701
  0
ARC
  8
DETAIL
  6
CONTINUOUS
 62
     5
 10
0.0000000000009095
 20
-0.0000000000002274
 30
0.0
 40
124.9999999999996
 50
131.0131617010187
 51
208.28628957654519
  0
ARC
  8
DETAIL
  6
CONTINUOUS
 62
     5
 10
-75.402171429004738
 20
20.519715081356711
 30
0.0
 40
86.96487730212057
 50
246.50394305085069
 51
307.878056329289
  0
ARC
  8
DETAIL
  6
CONTINUOUS
 62
     5
 10
6.8504682659031459
 20
74.075080157628463
 30
0.0
 40
83.691337577732284
 50
168.5387176040982
 51
226.16635477986381
  0
ARC
  8
DETAIL
  6
CONTINUOUS
 62
     5
 10
-79.364205540940929
 20
90.830034931136879
 30
0.0
 40
4.3882416695783064
 50
27.747831989245991
 51
127.922205060324
  0
ARC
  8
DETAIL
  6
CONTINUOUS
 62
     5
 10
-79.007510728978559
 20
91.265112331426508
 30
0.0
 40
3.876191270847468
 50
351.69202786047191
 51
24.509330316859131
  0
ARC
  8
DETAIL
  6
CONTINUOUS
 62
     5
 10
55.47168025337669
 20
55.04033841735054
 30
0.0
 40
86.964877302120541
 50
126.5039430508134
 51
187.87805632928979
  0
ARC
  8
DETAIL
  6
CONTINUOUS
 62
     5
 10
60.725667070924828
 20
-42.970219624904303
 30
0.0
 40
83.69133757773227
 50
48.538717604107021
 51
106.1663547798823
  0
ARC
  8
DETAIL
  6
CONTINUOUS
 62
     5
 10
118.3416051407057
 20
23.320260924353761
 30
0.0
 40
4.3920358052607602
 50
267.7708669661356
 51
7.3128545517613333
  0
ARC
  8
DETAIL
  6
CONTINUOUS
 62
     5
 10
118.54166112274559
 20
22.78995521535467
 30
0.0
 40
3.876191270847468
 50
231.69202786046981
 51
264.50933031681501
  0
ARC
  8
DETAIL
  6
CONTINUOUS
 62
     5
 10
0.0000000000009095
 20
-0.0000000000002274
 30
0.0
 40
124.9999999999996
 50
251.0131617010027
 51
328.28628957656468
  0
ARC
  8
DETAIL
  6
CONTINUOUS
 62
     5
 10
19.930491175630781
 20
-75.560053498706111
 30
0.0
 40
86.964877302120541
 50
6.5039430508096663
 51
67.878056329303064
  0
ARC
  8
DETAIL
  6
CONTINUOUS
 62
     5
 10
-67.576135336825246
 20
-31.10486053272302
 30
0.0
 40
83.691337577732284
 50
288.5387176041076
 51
346.16635477987961
  0
ARC
  8
DETAIL
  6
CONTINUOUS
 62
     5
 10
-38.974864186979183
 20
-114.1469668386537
 30
0.0
 40
4.3920358052616786
 50
147.77086696611781
 51
247.31285455166599
  0
ARC
  8
DETAIL
  6
CONTINUOUS
 62
     5
 10
-39.534150393764321
 20
-114.05506754678051
 30
0.0
 40
3.876191270847468
 50
111.692027860465
 51
144.50933031683309
  0
CIRCLE
  8
DETAIL
  6
CONTINUOUS
 62
     5
 10
0.0
 20
0.0
 30
0.0
 40
52.916666666666508
  0
ARC
  8
DETAIL
  6
CONTINUOUS
 62
     5
 10
0.000000000001819
 20
0.0000000000009095
 30
0.0
 40
124.99999999999839
 50
11.01316170101088
 51
88.286289576574902
  0
LINE
  8
DETAIL
  6
CONTINUOUS
 62
     5
 10
-81.03522202457907
 20
-98.435475268964865
 30
0.0
 11
-51.344358291624303
 21
-63.051281749001653
 31
0.0
  0
LINE
  8
DETAIL
  6
CONTINUOUS
 62
     5
 10
-55.52375392041904
 20
-64.142781937850032
 30
0.0
 11
-82.949659083586994
 21
-96.827702946607587
 31
0.0
  0
LINE
  8
DETAIL
  6
CONTINUOUS
 62
     5
 10
-33.005334939713073
 20
41.36207776005017
 30
0.0
 11
-75.144233855805396
 21
91.581261931139807
 31
0.0
  0
LINE
  8
DETAIL
  6
CONTINUOUS
 62
     5
 10
-75.628450684461313
 20
88.269019509661121
 30
0.0
 11
-34.922070506890122
 21
39.757044691763213
 31
0.0
  0
LINE
  8
SIZE
  6
CONTINUOUS
 62
    30
 10
390.8794438717552
 20
-188.67479656000529
 30
0.0
 11
125.63017754676019
 21
-60.640815376848643
 31
0.0
  0
LINE
  8
SIZE
  6
CONTINUOUS
 62
    30
 10
-125.630177546762
 20
60.640815376849147
 30
0.0
 11
-136.4370745400318
 21
65.85722960281467
 31
0.0
  0
TEXT
  8
SIZE
  6
CONTINUOUS
 62
    30
 10
185.58536139323016
 20
-61.82071687355436
 30
0.0
 40
64.0
  1
φ255
 50
334.23371862614499
 41
0.9
 51
0.0
  7
STANDARD
 71
     0
 72
     1
 11
289.07220700078204
 21
-111.77309950140025
 31
0.0
210
0.0
220
0.0
230
1.0
  0
LINE
  8
SIZE
  6
CONTINUOUS
 62
    30
 10
-114.8232805534922
 20
55.424401150883632
 30
0.0
 11
114.82328055349031
 21
-55.424401150883106
 31
0.0
  0
CIRCLE
  8
SIZE
  6
CONTINUOUS
 62
    30
 10
-114.8232805534922
 20
55.424401150883632
 30
0.0
 40
6.0
  0
LINE
  8
SIZE
  6
CONTINUOUS
 62
    30
 10
-114.8232805534922
 20
55.424401150883632
 30
0.0
 11
-125.63017754676201
 21
60.640815376849169
 31
0.0
  0
CIRCLE
  8
SIZE
  6
CONTINUOUS
 62
    30
 10
114.82328055349031
 20
-55.424401150883106
 30
0.0
 40
6.0
  0
LINE
  8
SIZE
  6
CONTINUOUS
 62
    30
 10
114.82328055349031
 20
-55.424401150883106
 30
0.0
 11
125.63017754676014
 21
-60.640815376848636
 31
0.0
  0
POINT
  8
DEFPOINTS
  6
CONTINUOUS
 62
    30
 10
114.82328055349031
 20
-55.424401150883106
 30
0.0
  0
POINT
  8
DEFPOINTS
  6
CONTINUOUS
 62
    30
 10
-114.8232805534922
 20
55.424401150883632
 30
0.0
  0
LINE
  8
SIZE
  6
CONTINUOUS
 62
    30
 10
438.69302774411159
 20
143.38916846345839
 30
0.0
 11
130.2204637078807
 21
42.563256826799652
 31
0.0
  0
LINE
  8
SIZE
  6
CONTINUOUS
 62
    30
 10
-130.220463707883
 20
-42.563256826800561
 30
0.0
 11
-141.62663571149309
 21
-46.291425307980127
 31
0.0
  0
TEXT
  8
SIZE
  6
CONTINUOUS
 62
    30
 10
202.2300887984135
 20
92.401538629332606
 30
0.0
 40
64.0
  1
φ250
 50
18.100257819951821
 41
0.9
 51
0.0
  7
STANDARD
 71
     0
 72
     1
 11
312.00308816115728
 21
128.28143209220477
 31
0.0
210
0.0
220
0.0
230
1.0
  0
LINE
  8
SIZE
  6
CONTINUOUS
 62
    30
 10
-118.8142917042729
 20
-38.835088345620989
 30
0.0
 11
118.8142917042706
 21
38.835088345620079
 31
0.0
  0
CIRCLE
  8
SIZE
  6
CONTINUOUS
 62
    30
 10
-118.8142917042729
 20
-38.835088345620989
 30
0.0
 40
6.0
  0
LINE
  8
SIZE
  6
CONTINUOUS
 62
    30
 10
-118.8142917042729
 20
-38.835088345620989
 30
0.0
 11
-130.22046370788303
 21
-42.563256826800554
 31
0.0
  0
CIRCLE
  8
SIZE
  6
CONTINUOUS
 62
    30
 10
118.8142917042706
 20
38.835088345620079
 30
0.0
 40
6.0
  0
LINE
  8
SIZE
  6
CONTINUOUS
 62
    30
 10
118.8142917042706
 20
38.835088345620079
 30
0.0
 11
130.22046370788073
 21
42.563256826799645
 31
0.0
  0
POINT
  8
DEFPOINTS
  6
CONTINUOUS
 62
    30
 10
118.8142917042706
 20
38.835088345620079
 30
0.0
  0
POINT
  8
DEFPOINTS
  6
CONTINUOUS
 62
    30
 10
-118.8142917042729
 20
-38.835088345620989
 30
0.0
  0
LINE
  8
DETAIL
  6
CONTINUOUS
 62
     5
 10
-106.1510150474319
 20
-184.99999999999949
 30
0.0
 11
-106.1510150474314
 21
-212.6098418547117
 31
0.0
  0
LINE
  8
DETAIL
  6
CONTINUOUS
 62
     5
 10
-113.08434838076479
 20
-184.9999999999998
 30
0.0
 11
-113.08434838076479
 21
-212.6098418547117
 31
0.0
  0
LINE
  8
DETAIL
  6
CONTINUOUS
 62
     5
 10
-106.1510150474314
 20
-212.6098418547117
 30
0.0
 11
-113.08434838076479
 21
-212.6098418547117
 31
0.0
  0
TEXT
  8
ETC
  6
CONTINUOUS
 62
    61
 10
458.0208120877237
 20
430.35844099990442
 30
0.0
 40
64.0
  1
EF-25ASXC2_3
 41
0.9
  0
TEXT
  8
ETC
  6
CONTINUOUS
 62
    61
 10
453.83481808772422
 20
312.40313098507318
 30
0.0
 40
64.0
  1
有圧換気扇
 41
0.9
  0
TEXT
  8
ETC
  6
CONTINUOUS
 62
    61
 10
504.53621633627932
 20
204.25435809884789
 30
0.0
 40
40.0
  1
EF-25ASXC2
 50
0.0
 41
0.9
 51
0.0
  7
STANDARD
 71
     0
 11
0.0
 21
0.0
 31
0.0
210
0.0
220
0.0
230
1.0
  0
TEXT
  8
ETC
  6
CONTINUOUS
 62
    61
 10
504.53621633627932
 20
138.25435809884789
 30
0.0
 40
40.0
  1
EF-25ATXC2
 50
0.0
 41
0.9
 51
0.0
  7
STANDARD
 71
     0
 11
0.0
 21
0.0
 31
0.0
210
0.0
220
0.0
230
1.0
  0
TEXT
  8
ETC
  6
CONTINUOUS
 62
    61
 10
504.53621633627932
 20
72.254358098847888
 30
0.0
 40
40.0
  1
EF-25ASXC2-HC
 50
0.0
 41
0.9
 51
0.0
  7
STANDARD
 71
     0
 11
0.0
 21
0.0
 31
0.0
210
0.0
220
0.0
230
1.0
  0
TEXT
  8
NOTE
  6
CONTINUOUS
 62
     4
 10
236.38635559004521
 20
-318.08194688037429
 30
0.0
 40
64.0
  1
4-10×10
 50
0.0
 41
0.9
 51
0.0
  7
STANDARD
 71
     0
 11
0.0
 21
0.0
 31
0.0
210
0.0
220
0.0
230
1.0
  0
LINE
  8
NOTE
  6
CONTINUOUS
 62
     4
 10
236.2963555900451
 20
-330.88194688037419
 30
0.0
 11
614.90064130433075
 21
-330.88194688037419
 31
0.0
  0
LINE
  8
NOTE
  6
CONTINUOUS
 62
     4
 10
166.18324051049049
 20
-196.03574429821691
 30
0.0
 11
165.00000000000051
 21
-164.99999999999949
 31
0.0
  0
LINE
  8
NOTE
  6
CONTINUOUS
 62
     4
 10
165.00000000000051
 20
-164.99999999999949
 30
0.0
 11
181.54262810166964
 21
-191.28609780358889
 31
0.0
  0
LINE
  8
NOTE
  6
CONTINUOUS
 62
     4
 10
165.00000000000051
 20
-164.99999999999949
 30
0.0
 11
182.72586861215962
 21
-222.32184210180631
 31
0.0
  0
LINE
  8
NOTE
  6
CONTINUOUS
 62
     4
 10
182.7258686121595
 20
-222.3218421018064
 30
0.0
 11
216.2963555900451
 21
-330.88194688037419
 31
0.0
  0
LINE
  8
NOTE
  6
CONTINUOUS
 62
     4
 10
216.2963555900451
 20
-330.88194688037419
 30
0.0
 11
236.2963555900451
 21
-330.88194688037419
 31
0.0
  0
TEXT
  8
NOTE
  6
CONTINUOUS
 62
     4
 10
-323.42530724996209
 20
-332.70478863353651
 30
0.0
 40
64.0
  1
EL
 50
0.0
 41
0.9
 51
0.0
  7
STANDARD
 71
     0
 72
     2
 11
-222.04930724996211
 21
-332.70478863353651
 31
0.0
210
0.0
220
0.0
230
1.0
  0
LINE
  8
NOTE
  6
CONTINUOUS
 62
     4
 10
-221.95930724996239
 20
-345.50478863353652
 30
0.0
 11
-307.07787867853392
 21
-345.50478863353652
 31
0.0
  0
LINE
  8
NOTE
  6
CONTINUOUS
 62
     4
 10
-132.66793957993031
 20
-222.60936287365701
 30
0.0
 11
-109.7029441953086
 21
-201.69940186856891
 31
0.0
  0
LINE
  8
NOTE
  6
CONTINUOUS
 62
     4
 10
-109.7029441953086
 20
-201.69940186856891
 30
0.0
 11
-119.13618850157346
 21
-231.29047119883006
 31
0.0
  0
LINE
  8
NOTE
  6
CONTINUOUS
 62
     4
 10
-109.7029441953086
 20
-201.69940186856891
 30
0.0
 11
-142.10118388619514
 21
-252.20043220391815
 31
0.0
  0
LINE
  8
NOTE
  6
CONTINUOUS
 62
     4
 10
-142.1011838861952
 20
-252.2004322039181
 30
0.0
 11
-201.95930724996239
 21
-345.50478863353652
 31
0.0
  0
LINE
  8
NOTE
  6
CONTINUOUS
 62
     4
 10
-201.95930724996239
 20
-345.50478863353652
 30
0.0
 11
-221.95930724996239
 21
-345.50478863353652
 31
0.0
  0
ENDSEC
  0
EOF
