  0
SECTION
  2
HEADER
  9
$ACADVER
  1
AC1009
  9
$DWGCODEPAGE
  3
ansi_932
  9
$INSBASE
 10
0.0
 20
0.0
 30
0.0
  9
$EXTMIN
 10
-678.4110306525693
 20
-496.180949
 30
0.0
  9
$EXTMAX
 10
721.5858062364564
 20
513.4073154954091
 30
50.0
  9
$LIMMIN
 10
-2970.0
 20
-2100.0
  9
$LIMMAX
 10
2970.0
 20
2100.0
  9
$ORTHOMODE
 70
     1
  9
$REGENMODE
 70
     0
  9
$FILLMODE
 70
     1
  9
$QTEXTMODE
 70
     0
  9
$MIRRTEXT
 70
     0
  9
$DRAGMODE
 70
     2
  9
$LTSCALE
 40
20.0
  9
$OSMODE
 70
    37
  9
$ATTMODE
 70
     1
  9
$TEXTSIZE
 40
64.0
  9
$TRACEWID
 40
0.05
  9
$TEXTSTYLE
  7
STANDARD
  9
$CLAYER
  8
OUTLINE
  9
$CELTYPE
  6
CONTINUOUS
  9
$CECOLOR
 62
     3
  9
$DIMSCALE
 40
1.0
  9
$DIMASZ
 40
40.0
  9
$DIMEXO
 40
20.0
  9
$DIMDLI
 40
200.0
  9
$DIMRND
 40
0.0
  9
$DIMDLE
 40
0.0
  9
$DIMEXE
 40
20.0
  9
$DIMTP
 40
0.0
  9
$DIMTM
 40
0.0
  9
$DIMTXT
 40
64.0
  9
$DIMCEN
 40
0.09
  9
$DIMTSZ
 40
0.0
  9
$DIMTOL
 70
     0
  9
$DIMLIM
 70
     0
  9
$DIMTIH
 70
     0
  9
$DIMTOH
 70
     0
  9
$DIMSE1
 70
     0
  9
$DIMSE2
 70
     0
  9
$DIMTAD
 70
     1
  9
$DIMZIN
 70
     8
  9
$DIMBLK
  1
NONE
  9
$DIMASO
 70
     1
  9
$DIMSHO
 70
     0
  9
$DIMPOST
  1

  9
$DIMAPOST
  1

  9
$DIMALT
 70
     0
  9
$DIMALTD
 70
     2
  9
$DIMALTF
 40
25.4
  9
$DIMLFAC
 40
1.0
  9
$DIMTOFL
 70
     1
  9
$DIMTVP
 40
0.0
  9
$DIMTIX
 70
     1
  9
$DIMSOXD
 70
     0
  9
$DIMSAH
 70
     0
  9
$DIMBLK1
  1
NONE
  9
$DIMBLK2
  1
ORIGIN
  9
$DIMSTYLE
  2
STANDARD
  9
$DIMCLRD
 70
   256
  9
$DIMCLRE
 70
   256
  9
$DIMCLRT
 70
   256
  9
$DIMTFAC
 40
1.0
  9
$DIMGAP
 40
20.0
  9
$LUNITS
 70
     2
  9
$LUPREC
 70
     4
  9
$SKETCHINC
 40
0.1
  9
$FILLETRAD
 40
65.0
  9
$AUNITS
 70
     1
  9
$AUPREC
 70
     3
  9
$MENU
  1
ACAD
  9
$ELEVATION
 40
0.0
  9
$PELEVATION
 40
0.0
  9
$THICKNESS
 40
50.0
  9
$LIMCHECK
 70
     0
  9
$CHAMFERA
 40
0.0
  9
$CHAMFERB
 40
0.0
  9
$SKPOLY
 70
     0
  9
$TDCREATE
 40
2452310.449317477
  9
$TDUPDATE
 40
2457485.552507431
  9
$TDINDWG
 40
0.0732617593
  9
$TDUSRTIMER
 40
0.0732617593
  9
$USRTIMER
 70
     1
  9
$ANGBASE
 50
0.0
  9
$ANGDIR
 70
     0
  9
$PDMODE
 70
     3
  9
$PDSIZE
 40
-2.0
  9
$PLINEWID
 40
0.0
  9
$COORDS
 70
     1
  9
$SPLFRAME
 70
     0
  9
$SPLINETYPE
 70
     6
  9
$SPLINESEGS
 70
     8
  9
$ATTDIA
 70
     0
  9
$ATTREQ
 70
     1
  9
$HANDLING
 70
     1
  9
$HANDSEED
  5
6D9
  9
$SURFTAB1
 70
     6
  9
$SURFTAB2
 70
     6
  9
$SURFTYPE
 70
     6
  9
$SURFU
 70
     6
  9
$SURFV
 70
     6
  9
$UCSNAME
  2

  9
$UCSORG
 10
0.0
 20
0.0
 30
0.0
  9
$UCSXDIR
 10
1.0
 20
0.0
 30
0.0
  9
$UCSYDIR
 10
0.0
 20
1.0
 30
0.0
  9
$PUCSNAME
  2

  9
$PUCSORG
 10
0.0
 20
0.0
 30
0.0
  9
$PUCSXDIR
 10
1.0
 20
0.0
 30
0.0
  9
$PUCSYDIR
 10
0.0
 20
1.0
 30
0.0
  9
$USERI1
 70
     0
  9
$USERI2
 70
     0
  9
$USERI3
 70
     0
  9
$USERI4
 70
     0
  9
$USERI5
 70
     0
  9
$USERR1
 40
20.0
  9
$USERR2
 40
0.0
  9
$USERR3
 40
0.0
  9
$USERR4
 40
0.0
  9
$USERR5
 40
0.0
  9
$WORLDVIEW
 70
     1
  9
$SHADEDGE
 70
     3
  9
$SHADEDIF
 70
    70
  9
$TILEMODE
 70
     1
  9
$MAXACTVP
 70
    64
  9
$PLIMCHECK
 70
     0
  9
$PEXTMIN
 10
1.000000000000000E+20
 20
1.000000000000000E+20
 30
1.000000000000000E+20
  9
$PEXTMAX
 10
-1.000000000000000E+20
 20
-1.000000000000000E+20
 30
-1.000000000000000E+20
  9
$PLIMMIN
 10
0.0
 20
0.0
  9
$PLIMMAX
 10
12.0
 20
9.0
  9
$UNITMODE
 70
     0
  9
$VISRETAIN
 70
     1
  9
$PLINEGEN
 70
     0
  9
$PSLTSCALE
 70
     1
  0
ENDSEC
  0
SECTION
  2
TABLES
  0
TABLE
  2
VPORT
 70
     1
  0
VPORT
  2
*ACTIVE
 70
     0
 10
0.0
 20
0.0
 11
1.0
 21
1.0
 12
20.63375856179664
 22
37.89634857156932
 13
0.0
 23
0.0
 14
1.0
 24
1.0
 15
0.0
 25
0.0
 16
0.0
 26
0.0
 36
1.0
 17
0.0
 27
0.0
 37
0.0
 40
1173.938851991467
 41
1.309899569583931
 42
50.0
 43
0.0
 44
0.0
 50
0.0
 51
0.0
 71
     0
 72
   100
 73
     1
 74
     0
 75
     0
 76
     0
 77
     0
 78
     1
  0
ENDTAB
  0
TABLE
  2
LTYPE
 70
     2
  0
LTYPE
  2
CONTINUOUS
 70
     0
  3
実線
 72
    65
 73
     0
 40
0.0
  0
LTYPE
  2
DASHDOT
 70
     0
  3
____ _ ____ _ ____ _ ____ _ ____ _ ____ _ ____
 72
    65
 73
     4
 40
5.5
 49
4.0
 49
-0.6
 49
0.3
 49
-0.6
  0
ENDTAB
  0
TABLE
  2
LAYER
 70
    12
  0
LAYER
  2
0
 70
     0
 62
     7
  6
CONTINUOUS
  0
LAYER
  2
OUTLINE
 70
     0
 62
     3
  6
CONTINUOUS
  0
LAYER
  2
SIZE
 70
     0
 62
    30
  6
CONTINUOUS
  0
LAYER
  2
BASIS
 70
     0
 62
     6
  6
DASHDOT
  0
LAYER
  2
DETAIL
 70
     0
 62
     5
  6
CONTINUOUS
  0
LAYER
  2
ARRANGE
 70
     0
 62
     1
  6
CONTINUOUS
  0
LAYER
  2
DEFPOINTS
 70
     0
 62
     7
  6
CONTINUOUS
  0
LAYER
  2
ETC
 70
     0
 62
    61
  6
CONTINUOUS
  0
LAYER
  2
FIX
 70
     0
 62
    11
  6
CONTINUOUS
  0
LAYER
  2
NOTE
 70
     0
 62
     4
  6
CONTINUOUS
  0
LAYER
  2
SERVICESPACE
 70
     0
 62
     2
  6
DASHDOT
  0
LAYER
  2
SYMBOLLINE
 70
     0
 62
    15
  6
CONTINUOUS
  0
ENDTAB
  0
TABLE
  2
STYLE
 70
     2
  0
STYLE
  2
STANDARD
 70
     0
 40
64.0
 41
0.9
 50
0.0
 71
     0
 42
64.0
  3
SIMPLEX.shx
  4
BIGFONT.shx
  0
STYLE
  2
ANNOTATIVE
 70
     0
 40
0.0
 41
1.0
 50
0.0
 71
     0
 42
0.2
  3
txt
  4

  0
ENDTAB
  0
TABLE
  2
VIEW
 70
     1
  0
VIEW
  2
ALL
 70
     0
 40
4282.619807999997
 10
0.0
 20
41.30990399999999
 41
5940.0
 11
0.0
 21
0.0
 31
1.0
 12
0.0
 22
0.0
 32
0.0
 42
50.0
 43
0.0
 44
0.0
 50
0.0
 71
     0
  0
ENDTAB
  0
TABLE
  2
UCS
 70
     0
  0
ENDTAB
  0
TABLE
  2
APPID
 70
     4
  0
APPID
  2
ACAD
 70
     0
  0
APPID
  2
ACADANNOTATIVE
 70
     0
  0
APPID
  2
ACAD_MLEADERVER
 70
     0
  0
APPID
  2
ACAD_EXEMPT_FROM_CAD_STAND
 70
     0
  0
ENDTAB
  0
TABLE
  2
DIMSTYLE
 70
     2
  0
DIMSTYLE
  2
STANDARD
 70
     0
  3

  4

  5

  6

  7

 40
1.0
 41
0.18
 42
0.0625
 43
0.38
 44
0.18
 45
0.0
 46
0.0
 47
0.0
 48
0.0
140
0.18
141
0.09
142
0.0
143
25.4
144
1.0
145
0.0
146
1.0
147
0.09
 71
     0
 72
     0
 73
     1
 74
     1
 75
     0
 76
     0
 77
     0
 78
     0
170
     0
171
     2
172
     0
173
     0
174
     0
175
     0
176
     0
177
     0
178
     0
  0
DIMSTYLE
  2
ANNOTATIVE
 70
     0
  3

  4

  5

  6

  7

 40
1.0
 41
0.18
 42
0.0625
 43
0.38
 44
0.18
 45
0.0
 46
0.0
 47
0.0
 48
0.0
140
0.18
141
0.09
142
0.0
143
25.4
144
1.0
145
0.0
146
1.0
147
0.09
 71
     0
 72
     0
 73
     1
 74
     1
 75
     0
 76
     0
 77
     0
 78
     0
170
     0
171
     2
172
     0
173
     0
174
     0
175
     0
176
     0
177
     0
178
     0
  0
ENDTAB
  0
ENDSEC
  0
SECTION
  2
BLOCKS
  0
BLOCK
  8
0
  2
$MODEL_SPACE
 70
     0
 10
0.0
 20
0.0
 30
0.0
  3
$MODEL_SPACE
  1

  0
ENDBLK
  5
5E5
  8
0
  0
BLOCK
 67
     1
  8
0
  2
$PAPER_SPACE
 70
     0
 10
0.0
 20
0.0
 30
0.0
  3
$PAPER_SPACE
  1

  0
ENDBLK
  5
5E1
 67
     1
  8
0
  0
BLOCK
  8
0
  2
DOT1
 70
     0
 10
0.0
 20
0.0
 30
0.0
  3
DOT1
  1

  0
CIRCLE
  5
436
  8
SIZE
  6
CONTINUOUS
 62
     7
 10
0.0
 20
0.0
 30
0.0
 40
3.0
  0
ENDBLK
  5
437
  8
0
  0
BLOCK
  8
0
  2
_ORIGIN
 70
     0
 10
0.0
 20
0.0
 30
0.0
  3
_ORIGIN
  1

  0
CIRCLE
  5
43A
  8
0
  6
CONTINUOUS
 62
     7
 10
0.0
 20
0.0
 30
0.0
 40
0.5
  0
LINE
  5
43B
  8
0
  6
CONTINUOUS
 62
     7
 10
0.0
 20
0.0
 30
0.0
 11
-1.0
 21
0.0
 31
0.0
  0
ENDBLK
  5
43C
  8
0
  0
BLOCK
  8
0
  2
_NONE
 70
     0
 10
0.0
 20
0.0
 30
0.0
  3
_NONE
  1

  0
ENDBLK
  5
43F
  8
0
 62
    30
  0
BLOCK
  8
0
  2
_OPEN30
 70
     0
 10
0.0
 20
0.0
 30
0.0
  3
_OPEN30
  1

  0
LINE
  5
442
  8
0
  6
BYBLOCK
 62
     0
 10
-1.0
 20
0.26794919
 30
0.0
 11
0.0
 21
0.0
 31
0.0
  0
LINE
  5
443
  8
0
  6
BYBLOCK
 62
     0
 10
0.0
 20
0.0
 30
0.0
 11
-1.0
 21
-0.26794919
 31
0.0
  0
LINE
  5
444
  8
0
  6
BYBLOCK
 62
     0
 10
0.0
 20
0.0
 30
0.0
 11
-1.0
 21
0.0
 31
0.0
  0
ENDBLK
  5
445
  8
0
 62
    30
  0
BLOCK
  8
0
  2
*D4
 70
     1
 10
0.0
 20
0.0
 30
0.0
  3
*D4
  1

  0
LINE
  5
448
  8
SIZE
  6
CONTINUOUS
 10
-369.6979846525692
 20
48.50000000000001
 30
0.0
 11
-487.5697845579106
 21
48.50000000000004
 31
0.0
  0
LINE
  5
449
  8
SIZE
  6
CONTINUOUS
 10
-369.6979846525692
 20
-48.49999999999999
 30
0.0
 11
-487.5697845579106
 21
-48.49999999999996
 31
0.0
  0
LINE
  5
44A
  8
SIZE
  6
CONTINUOUS
 10
-467.5697845579105
 20
48.50000000000004
 30
0.0
 11
-467.5697845579105
 21
88.50000000000004
 31
0.0
  0
LINE
  5
44B
  8
SIZE
  6
CONTINUOUS
 10
-467.5697845579105
 20
-48.49999999999996
 30
0.0
 11
-467.5697845579105
 21
-88.49999999999996
 31
0.0
  0
LINE
  5
44C
  8
SIZE
  6
CONTINUOUS
 10
-467.5697845579105
 20
48.50000000000004
 30
0.0
 11
-467.5697845579105
 21
-48.49999999999996
 31
0.0
  0
TEXT
  5
44D
  8
SIZE
  6
CONTINUOUS
 10
-487.5697845579106
 20
-46.62857142857146
 30
0.0
 40
64.0
  1
97
 50
90.0
 41
0.9
  0
POINT
  5
44E
  8
DEFPOINTS
  6
CONTINUOUS
 62
     0
 10
-349.6979846525691
 20
48.5
 30
0.0
  0
POINT
  5
44F
  8
DEFPOINTS
  6
CONTINUOUS
 62
     0
 10
-349.6979846525691
 20
-48.5
 30
0.0
  0
POINT
  5
450
  8
DEFPOINTS
  6
CONTINUOUS
 62
     0
 10
-467.5697845579105
 20
-48.49999999999996
 30
0.0
  0
ENDBLK
  5
451
  8
0
 62
    30
  0
ENDSEC
  0
SECTION
  2
ENTITIES
  0
LINE
  5
452
  8
DETAIL
  6
CONTINUOUS
 62
     5
 10
0.0
 20
-185.0
 30
0.0
 11
0.0
 21
185.0
 31
0.0
  0
LINE
  5
453
  8
BASIS
  6
DASHDOT
 62
     6
 10
44.26140099999989
 20
0.0
 30
0.0
 11
-223.3338660000001
 21
0.0
 31
0.0
  0
LINE
  5
454
  8
DETAIL
  6
CONTINUOUS
 62
     5
 10
-57.0000000000002
 20
155.0
 30
0.0
 11
-60.0
 21
155.0
 31
0.0
  0
LINE
  5
455
  8
DETAIL
  6
CONTINUOUS
 62
     5
 10
-10.0
 20
-185.0
 30
0.0
 11
-10.0
 21
-165.5
 31
0.0
  0
LINE
  5
456
  8
DETAIL
  6
CONTINUOUS
 62
     5
 10
-155.0
 20
-87.0
 30
0.0
 11
-155.0000000000001
 21
-42.0
 31
0.0
  0
TEXT
  5
457
  8
NOTE
  6
CONTINUOUS
 62
     4
 10
205.4612329999999
 20
-275.683851
 30
0.0
 40
64.0
  1
4-φ10
 41
0.9
  0
LINE
  5
458
  8
NOTE
  6
CONTINUOUS
 62
     4
 10
187.6698649999998
 20
-303.110802
 30
0.0
 11
501.2050379999998
 21
-303.110802
 31
0.0
  0
LINE
  5
459
  8
NOTE
  6
CONTINUOUS
 62
     4
 10
-9.727506000000005
 20
-165.080778
 30
0.0
 11
187.6698649999998
 21
-303.110802
 31
0.0
  0
LINE
  5
45A
  8
NOTE
  6
CONTINUOUS
 62
     4
 10
27.97587399999989
 20
-178.4394879999999
 30
0.0
 11
-9.727506000000005
 21
-165.080778
 31
0.0
  0
LINE
  5
45B
  8
NOTE
  6
CONTINUOUS
 62
     4
 10
-9.727506000000005
 20
-165.080778
 30
0.0
 11
16.24522399999989
 21
-195.5014509999998
 31
0.0
  0
LINE
  5
45C
  8
DETAIL
  6
CONTINUOUS
 62
     5
 10
-10.0
 20
-185.0
 30
0.0
 11
0.0
 21
-185.0
 31
0.0
  0
LINE
  5
45D
  8
DETAIL
  6
CONTINUOUS
 62
     5
 10
-10.0
 20
185.0
 30
0.0
 11
0.0
 21
185.0
 31
0.0
  0
LINE
  5
45E
  8
DETAIL
  6
CONTINUOUS
 62
     5
 10
-20.00000000000009
 20
-158.0
 30
0.0
 11
-10.0
 21
-158.0
 31
0.0
  0
LINE
  5
45F
  8
DETAIL
  6
CONTINUOUS
 62
     5
 10
-20.00000000000009
 20
158.0
 30
0.0
 11
-10.0
 21
158.0
 31
0.0
  0
LINE
  5
460
  8
SIZE
  6
CONTINUOUS
 62
    30
 10
0.0
 20
205.0
 30
0.0
 11
0.0
 21
323.564278
 31
0.0
  0
LINE
  5
461
  8
SIZE
  6
CONTINUOUS
 62
    30
 10
-10.0
 20
205.0
 30
0.0
 11
-10.0
 21
323.564278
 31
0.0
  0
LINE
  5
462
  8
SIZE
  6
CONTINUOUS
 62
    30
 10
12.0
 20
303.5642779999997
 30
0.0
 11
24.0
 21
303.5642779999997
 31
0.0
  0
LINE
  5
463
  8
SIZE
  6
CONTINUOUS
 62
    30
 10
-22.00000000000009
 20
303.5642779999997
 30
0.0
 11
-34.0000000000002
 21
303.5642779999997
 31
0.0
  0
LINE
  5
464
  8
SIZE
  6
CONTINUOUS
 62
    30
 10
157.0284589999998
 20
303.5642779999997
 30
0.0
 11
0.0
 21
303.5642779999997
 31
0.0
  0
TEXT
  5
465
  8
SIZE
  6
CONTINUOUS
 62
    30
 10
31.91417342857127
 20
328.5642779999997
 30
0.0
 40
64.0
  1
10
 41
0.9
 72
     1
 11
90.88560199999985
 21
328.5642779999997
 31
0.0
  0
LINE
  5
466
  8
SIZE
  6
CONTINUOUS
 62
    30
 10
0.0
 20
303.5642779999997
 30
0.0
 11
-10.0
 21
303.5642779999997
 31
0.0
  0
LINE
  5
467
  8
SIZE
  6
CONTINUOUS
 62
    30
 10
0.0
 20
303.5642779999997
 30
0.0
 11
-10.0
 21
303.5642779999997
 31
0.0
  0
CIRCLE
  5
468
  8
SIZE
  6
CONTINUOUS
 62
    30
 10
0.0
 20
303.5642779999997
 30
0.0
 40
6.0
  0
LINE
  5
469
  8
SIZE
  6
CONTINUOUS
 62
    30
 10
0.0
 20
303.5642779999997
 30
0.0
 11
12.0
 21
303.5642779999997
 31
0.0
  0
CIRCLE
  5
46A
  8
SIZE
  6
CONTINUOUS
 62
    30
 10
-10.0
 20
303.5642779999997
 30
0.0
 40
6.0
  0
LINE
  5
46B
  8
SIZE
  6
CONTINUOUS
 62
    30
 10
-10.0
 20
303.5642779999997
 30
0.0
 11
-22.00000000000009
 21
303.5642779999997
 31
0.0
  0
LINE
  5
46C
  8
SIZE
  6
CONTINUOUS
 62
    30
 10
-10.0
 20
205.0
 30
0.0
 11
-10.0
 21
323.564278
 31
0.0
  0
LINE
  5
46D
  8
SIZE
  6
CONTINUOUS
 62
    30
 10
-20.00000000000009
 20
185.5
 30
0.0
 11
-20.00000000000009
 21
323.564278
 31
0.0
  0
LINE
  5
46E
  8
SIZE
  6
CONTINUOUS
 62
    30
 10
1.999999999999915
 20
303.5642779999997
 30
0.0
 11
14.0
 21
303.5642779999997
 31
0.0
  0
LINE
  5
46F
  8
SIZE
  6
CONTINUOUS
 62
    30
 10
-32.0000000000002
 20
303.5642779999997
 30
0.0
 11
-44.0
 21
303.5642779999997
 31
0.0
  0
LINE
  5
470
  8
SIZE
  6
CONTINUOUS
 62
    30
 10
-182.7423080000001
 20
303.5642779999997
 30
0.0
 11
-20.00000000000009
 21
303.5642779999997
 31
0.0
  0
TEXT
  5
471
  8
SIZE
  6
CONTINUOUS
 62
    30
 10
-175.5708795714287
 20
328.5642779999997
 30
0.0
 40
64.0
  1
10
 41
0.9
 72
     1
 11
-116.5994510000001
 21
328.5642779999997
 31
0.0
  0
LINE
  5
472
  8
SIZE
  6
CONTINUOUS
 62
    30
 10
-10.0
 20
303.5642779999997
 30
0.0
 11
-20.00000000000009
 21
303.5642779999997
 31
0.0
  0
LINE
  5
473
  8
SIZE
  6
CONTINUOUS
 62
    30
 10
-10.0
 20
303.5642779999997
 30
0.0
 11
-20.00000000000009
 21
303.5642779999997
 31
0.0
  0
CIRCLE
  5
474
  8
SIZE
  6
CONTINUOUS
 62
    30
 10
-10.0
 20
303.5642779999997
 30
0.0
 40
6.0
  0
LINE
  5
475
  8
SIZE
  6
CONTINUOUS
 62
    30
 10
-10.0
 20
303.5642779999997
 30
0.0
 11
1.999999999999915
 21
303.5642779999997
 31
0.0
  0
CIRCLE
  5
476
  8
SIZE
  6
CONTINUOUS
 62
    30
 10
-20.00000000000009
 20
303.5642779999997
 30
0.0
 40
6.0
  0
LINE
  5
477
  8
SIZE
  6
CONTINUOUS
 62
    30
 10
-20.00000000000009
 20
303.5642779999997
 30
0.0
 11
-32.0000000000002
 21
303.5642779999997
 31
0.0
  0
LINE
  5
478
  8
SIZE
  6
CONTINUOUS
 62
    30
 10
1.999999999999915
 20
-387.8170109999999
 30
0.0
 11
110.4351329999999
 21
-387.8170109999999
 31
0.0
  0
LINE
  5
479
  8
DETAIL
  6
CONTINUOUS
 62
     5
 10
-10.0
 20
-165.5
 30
0.0
 11
-10.0
 21
165.5
 31
0.0
  0
LINE
  5
47A
  8
DETAIL
  6
CONTINUOUS
 62
     5
 10
-10.0
 20
165.5
 30
0.0
 11
-10.0
 21
185.0
 31
0.0
  0
LINE
  5
47B
  8
DETAIL
  6
CONTINUOUS
 62
     5
 10
-20.00000000000009
 20
-158.0
 30
0.0
 11
-20.00000000000009
 21
158.0
 31
0.0
  0
LINE
  5
47C
  8
DETAIL
  6
CONTINUOUS
 62
     5
 10
-155.0000000000001
 20
42.0
 30
0.0
 11
-155.0
 21
87.0
 31
0.0
  0
LINE
  5
47D
  8
DETAIL
  6
CONTINUOUS
 62
     5
 10
-153.0000000000001
 20
-40.0
 30
0.0
 11
-152.0000000000001
 21
-40.0
 31
0.0
  0
LINE
  5
47E
  8
DETAIL
  6
CONTINUOUS
 62
     5
 10
-153.0000000000001
 20
40.0
 30
0.0
 11
-152.0000000000001
 21
40.0
 31
0.0
  0
LINE
  5
47F
  8
DETAIL
  6
CONTINUOUS
 62
     5
 10
-130.0000000000001
 20
40.0
 30
0.0
 11
-130.0000000000001
 21
82.0
 31
0.0
  0
LINE
  5
480
  8
DETAIL
  6
CONTINUOUS
 62
     5
 10
-130.0000000000001
 20
-82.0
 30
0.0
 11
-130.0000000000001
 21
-40.0
 31
0.0
  0
LINE
  5
481
  8
DETAIL
  6
CONTINUOUS
 62
     5
 10
-60.0
 20
-132.0
 30
0.0
 11
-60.0
 21
132.0
 31
0.0
  0
LINE
  5
482
  8
DETAIL
  6
CONTINUOUS
 62
     5
 10
-128.0000000000001
 20
33.0
 30
0.0
 11
-85.00000000000011
 21
33.0
 31
0.0
  0
LINE
  5
483
  8
DETAIL
  6
CONTINUOUS
 62
     5
 10
-128.0000000000001
 20
-33.0
 30
0.0
 11
-85.00000000000011
 21
-33.0
 31
0.0
  0
LINE
  5
484
  8
SIZE
  6
CONTINUOUS
 62
    30
 10
20.0
 20
-185.0
 30
0.0
 11
302.7691449999998
 21
-185.0
 31
0.0
  0
LINE
  5
485
  8
SIZE
  6
CONTINUOUS
 62
    30
 10
20.0
 20
185.0
 30
0.0
 11
302.7691449999998
 21
185.0
 31
0.0
  0
LINE
  5
486
  8
SIZE
  6
CONTINUOUS
 62
    30
 10
282.7691449999999
 20
-173.0
 30
0.0
 11
282.7691449999999
 21
173.0
 31
0.0
  0
CIRCLE
  5
487
  8
SIZE
  6
CONTINUOUS
 62
    30
 10
282.7691449999999
 20
-185.0
 30
0.0
 40
6.0
  0
LINE
  5
488
  8
SIZE
  6
CONTINUOUS
 62
    30
 10
282.7691449999999
 20
-185.0
 30
0.0
 11
282.7691449999999
 21
-173.0
 31
0.0
  0
CIRCLE
  5
489
  8
SIZE
  6
CONTINUOUS
 62
    30
 10
282.7691449999999
 20
185.0
 30
0.0
 40
6.0
  0
LINE
  5
48A
  8
SIZE
  6
CONTINUOUS
 62
    30
 10
282.7691449999999
 20
185.0
 30
0.0
 11
282.7691449999999
 21
173.0
 31
0.0
  0
TEXT
  5
48B
  8
SIZE
  6
CONTINUOUS
 62
    30
 10
257.7691449999999
 20
-82.28571428571429
 30
0.0
 40
64.0
  1
370
 50
90.0
 41
0.9
 72
     1
 11
257.7691449999999
 21
0.0
 31
0.0
  0
LINE
  5
48C
  8
SIZE
  6
CONTINUOUS
 62
    30
 10
0.0
 20
-205.0
 30
0.0
 11
0.0
 21
-496.180949
 31
0.0
  0
LINE
  5
48D
  8
SIZE
  6
CONTINUOUS
 62
    30
 10
-170.0000000000001
 20
-65.28848982292175
 30
0.0
 11
-170.0000000000001
 21
-496.180949
 31
0.0
  0
LINE
  5
48E
  8
SIZE
  6
CONTINUOUS
 62
    30
 10
-12.0
 20
-476.180949
 30
0.0
 11
-164.0000000000001
 21
-476.180949
 31
0.0
  0
LINE
  5
48F
  8
SIZE
  6
CONTINUOUS
 62
    30
 10
-367.6419450000002
 20
-476.180949
 30
0.0
 11
-165.0000000000001
 21
-476.180949
 31
0.0
  0
TEXT
  5
490
  8
SIZE
  6
CONTINUOUS
 62
    30
 10
-360.4705159999999
 20
-451.180949
 30
0.0
 40
64.0
  1
170
 41
0.9
 72
     1
 11
-274.0705159999999
 21
-451.180949
 31
0.0
  0
CIRCLE
  5
491
  8
SIZE
  6
CONTINUOUS
 62
    30
 10
0.0
 20
-476.180949
 30
0.0
 40
6.0
  0
LINE
  5
492
  8
SIZE
  6
CONTINUOUS
 62
    30
 10
0.0
 20
-476.180949
 30
0.0
 11
-12.0
 21
-476.180949
 31
0.0
  0
CIRCLE
  5
493
  8
SIZE
  6
CONTINUOUS
 62
    30
 10
-170.0000000000001
 20
-476.180949
 30
0.0
 40
6.0
  0
LINE
  5
494
  8
SIZE
  6
CONTINUOUS
 62
    30
 10
-170.0000000000001
 20
-476.180949
 30
0.0
 11
-158.0000000000001
 21
-476.180949
 31
0.0
  0
LINE
  5
495
  8
DETAIL
  6
CONTINUOUS
 62
     5
 10
-130.0000000000001
 20
40.0
 30
0.0
 11
-130.0000000000001
 21
-40.0
 31
0.0
  0
LINE
  5
496
  8
DETAIL
  6
CONTINUOUS
 62
     5
 10
-20.00000000000009
 20
152.0
 30
0.0
 11
-90.0
 21
152.0
 31
0.0
  0
LINE
  5
497
  8
DETAIL
  6
CONTINUOUS
 62
     5
 10
-20.00000000000009
 20
132.0
 30
0.0
 11
-80.00000000000011
 21
132.0
 31
0.0
  0
ARC
  5
498
  8
DETAIL
  6
CONTINUOUS
 62
     5
 10
-80.00000000000011
 20
82.0
 30
0.0
 40
50.0
 50
90.0
 51
180.0
  0
LINE
  5
49A
  8
DETAIL
  6
CONTINUOUS
 62
     5
 10
-57.0000000000002
 20
-132.0
 30
0.0
 11
-57.0000000000002
 21
132.0
 31
0.0
  0
LINE
  5
49B
  8
DETAIL
  6
CONTINUOUS
 62
     5
 10
-60.0
 20
152.0
 30
0.0
 11
-60.0
 21
155.0
 31
0.0
  0
LINE
  5
49C
  8
DETAIL
  6
CONTINUOUS
 62
     5
 10
-57.0000000000002
 20
152.0
 30
0.0
 11
-57.0000000000002
 21
155.0
 31
0.0
  0
LINE
  5
49D
  8
DETAIL
  6
CONTINUOUS
 62
     5
 10
-20.00000000000009
 20
-132.0
 30
0.0
 11
-80.00000000000011
 21
-132.0
 31
0.0
  0
LINE
  5
49E
  8
DETAIL
  6
CONTINUOUS
 62
     5
 10
-90.0
 20
-152.0
 30
0.0
 11
-20.00000000000009
 21
-152.0
 31
0.0
  0
LINE
  5
4A0
  8
DETAIL
  6
CONTINUOUS
 62
     5
 10
-60.0
 20
-152.0
 30
0.0
 11
-60.0
 21
-155.0
 31
0.0
  0
LINE
  5
4A1
  8
DETAIL
  6
CONTINUOUS
 62
     5
 10
-57.0000000000002
 20
-152.0
 30
0.0
 11
-57.0000000000002
 21
-155.0
 31
0.0
  0
LINE
  5
4A2
  8
DETAIL
  6
CONTINUOUS
 62
     5
 10
-57.0000000000002
 20
-155.0
 30
0.0
 11
-60.0
 21
-155.0
 31
0.0
  0
LINE
  5
4A3
  8
SIZE
  6
CONTINUOUS
 62
    30
 10
0.0
 20
-205.0
 30
0.0
 11
0.0
 21
-407.817011
 31
0.0
  0
LINE
  5
4A4
  8
SIZE
  6
CONTINUOUS
 62
    30
 10
-60.0
 20
-175.0
 30
0.0
 11
-60.0
 21
-407.817011
 31
0.0
  0
LINE
  5
4A5
  8
SIZE
  6
CONTINUOUS
 62
    30
 10
12.0
 20
-387.8170109999999
 30
0.0
 11
24.0
 21
-387.8170109999999
 31
0.0
  0
LINE
  5
4A6
  8
SIZE
  6
CONTINUOUS
 62
    30
 10
-72.00000000000011
 20
-387.8170109999999
 30
0.0
 11
-84.00000000000017
 21
-387.8170109999999
 31
0.0
  0
LINE
  5
4A7
  8
SIZE
  6
CONTINUOUS
 62
    30
 10
167.5363569999998
 20
-387.8170109999999
 30
0.0
 11
0.0
 21
-387.8170109999999
 31
0.0
  0
TEXT
  5
4A8
  8
SIZE
  6
CONTINUOUS
 62
    30
 10
39.6792145714284
 20
-362.8170109999999
 30
0.0
 40
64.0
  1
60
 41
0.9
 72
     1
 11
95.90778599999983
 21
-362.8170109999999
 31
0.0
  0
LINE
  5
4A9
  8
SIZE
  6
CONTINUOUS
 62
    30
 10
0.0
 20
-387.8170109999999
 30
0.0
 11
-60.0
 21
-387.8170109999999
 31
0.0
  0
LINE
  5
4AA
  8
SIZE
  6
CONTINUOUS
 62
    30
 10
0.0
 20
-387.8170109999999
 30
0.0
 11
-60.0
 21
-387.8170109999999
 31
0.0
  0
CIRCLE
  5
4AB
  8
SIZE
  6
CONTINUOUS
 62
    30
 10
0.0
 20
-387.8170109999999
 30
0.0
 40
6.0
  0
LINE
  5
4AC
  8
SIZE
  6
CONTINUOUS
 62
    30
 10
0.0
 20
-387.8170109999999
 30
0.0
 11
12.0
 21
-387.8170109999999
 31
0.0
  0
CIRCLE
  5
4AD
  8
SIZE
  6
CONTINUOUS
 62
    30
 10
-60.0
 20
-387.8170109999999
 30
0.0
 40
6.0
  0
LINE
  5
4AE
  8
SIZE
  6
CONTINUOUS
 62
    30
 10
-60.0
 20
-387.8170109999999
 30
0.0
 11
-72.00000000000011
 21
-387.8170109999999
 31
0.0
  0
LINE
  5
4AF
  8
SIZE
  6
CONTINUOUS
 62
    30
 10
-80.00000000000011
 20
-155.0
 30
0.0
 11
-421.7130460000002
 21
-155.0
 31
0.0
  0
LINE
  5
4B0
  8
SIZE
  6
CONTINUOUS
 62
    30
 10
-80.00000000000011
 20
155.0
 30
0.0
 11
-421.7130460000002
 21
155.0
 31
0.0
  0
LINE
  5
4B1
  8
SIZE
  6
CONTINUOUS
 62
    30
 10
-401.7130460000002
 20
-143.0
 30
0.0
 11
-401.7130460000002
 21
143.0
 31
0.0
  0
CIRCLE
  5
4B2
  8
SIZE
  6
CONTINUOUS
 62
    30
 10
-401.7130460000002
 20
-155.0
 30
0.0
 40
6.0
  0
LINE
  5
4B3
  8
SIZE
  6
CONTINUOUS
 62
    30
 10
-401.7130460000002
 20
-155.0
 30
0.0
 11
-401.7130460000002
 21
-143.0
 31
0.0
  0
CIRCLE
  5
4B4
  8
SIZE
  6
CONTINUOUS
 62
    30
 10
-401.7130460000002
 20
155.0
 30
0.0
 40
6.0
  0
LINE
  5
4B5
  8
SIZE
  6
CONTINUOUS
 62
    30
 10
-401.7130460000002
 20
155.0
 30
0.0
 11
-401.7130460000002
 21
143.0
 31
0.0
  0
TEXT
  5
4B6
  8
SIZE
  6
CONTINUOUS
 62
    30
 10
-426.7130460000002
 20
-106.9714285714286
 30
0.0
 40
64.0
  1
φ310
 50
90.0
 41
0.9
 72
     1
 11
-426.7130460000002
 21
0.0
 31
0.0
  0
LINE
  5
4B7
  8
SIZE
  6
CONTINUOUS
 62
    30
 10
29.99999999999991
 20
-165.0
 30
0.0
 11
163.0178969999998
 21
-165.0
 31
0.0
  0
LINE
  5
4B8
  8
SIZE
  6
CONTINUOUS
 62
    30
 10
29.99999999999991
 20
165.0
 30
0.0
 11
163.0178969999998
 21
165.0
 31
0.0
  0
LINE
  5
4B9
  8
SIZE
  6
CONTINUOUS
 62
    30
 10
143.0178969999998
 20
-153.0
 30
0.0
 11
143.0178969999998
 21
153.0
 31
0.0
  0
CIRCLE
  5
4BA
  8
SIZE
  6
CONTINUOUS
 62
    30
 10
143.0178969999998
 20
-165.0
 30
0.0
 40
6.0
  0
LINE
  5
4BB
  8
SIZE
  6
CONTINUOUS
 62
    30
 10
143.0178969999998
 20
-165.0
 30
0.0
 11
143.0178969999998
 21
-153.0
 31
0.0
  0
CIRCLE
  5
4BC
  8
SIZE
  6
CONTINUOUS
 62
    30
 10
143.0178969999998
 20
165.0
 30
0.0
 40
6.0
  0
LINE
  5
4BD
  8
SIZE
  6
CONTINUOUS
 62
    30
 10
143.0178969999998
 20
165.0
 30
0.0
 11
143.0178969999998
 21
153.0
 31
0.0
  0
TEXT
  5
4BE
  8
SIZE
  6
CONTINUOUS
 62
    30
 10
118.0178969999998
 20
-82.28571428571429
 30
0.0
 40
64.0
  1
330
 50
90.0
 41
0.9
 72
     1
 11
118.0178969999998
 21
0.0
 31
0.0
  0
CIRCLE
  5
4BF
  8
FIX
  6
CONTINUOUS
 62
    11
 10
-10.0
 20
165.0
 30
0.0
 40
5.0
  0
CIRCLE
  5
4C0
  8
FIX
  6
CONTINUOUS
 62
    11
 10
-10.0
 20
-165.0
 30
0.0
 40
5.0
  0
LINE
  5
4C1
  8
NOTE
  6
CONTINUOUS
 62
     4
 10
-30.00000000000009
 20
165.0
 30
0.0
 11
9.999999999999915
 21
165.0
 31
0.0
  0
LINE
  5
4C2
  8
NOTE
  6
CONTINUOUS
 62
     4
 10
-10.0
 20
185.0
 30
0.0
 11
-10.0
 21
145.0
 31
0.0
  0
LINE
  5
4C3
  8
NOTE
  6
CONTINUOUS
 62
     4
 10
-30.00000000000009
 20
-165.0
 30
0.0
 11
9.999999999999915
 21
-165.0
 31
0.0
  0
LINE
  5
4C4
  8
NOTE
  6
CONTINUOUS
 62
     4
 10
-10.0
 20
-145.0
 30
0.0
 11
-10.0
 21
-185.0
 31
0.0
  0
ARC
  5
4C5
  8
DETAIL
  6
CONTINUOUS
 62
     5
 10
-80.00000000000011
 20
-82.0
 30
0.0
 40
50.0
 50
180.0
 51
270.0
  0
LINE
  5
4C6
  8
DETAIL
  6
CONTINUOUS
 62
     5
 10
-100.0000000000001
 20
33.0
 30
0.0
 11
-100.0000000000001
 21
-33.0
 31
0.0
  0
LINE
  5
4C7
  8
DETAIL
  6
CONTINUOUS
 62
     5
 10
-80.00000000000011
 20
28.0
 30
0.0
 11
-80.00000000000011
 21
13.113542
 31
0.0
  0
ARC
  5
4C8
  8
DETAIL
  6
CONTINUOUS
 62
     5
 10
-85.00000000000011
 20
28.0
 30
0.0
 40
5.0
 50
0.0
 51
90.0
  0
ARC
  5
4C9
  8
DETAIL
  6
CONTINUOUS
 62
     5
 10
-85.00000000000011
 20
-28.0
 30
0.0
 40
5.0
 50
270.0
 51
0.0
  0
LINE
  5
4CA
  8
DETAIL
  6
CONTINUOUS
 62
     5
 10
-60.0
 20
5.0
 30
0.0
 11
-72.87418400000001
 21
5.0
 31
0.0
  0
LINE
  5
4CB
  8
DETAIL
  6
CONTINUOUS
 62
     5
 10
-60.0
 20
-5.0
 30
0.0
 11
-61.83257400000011
 21
-5.0
 31
0.0
  0
LINE
  5
4CC
  8
DETAIL
  6
CONTINUOUS
 62
     5
 10
-155.0000000000001
 20
-78.50107199999998
 30
0.0
 11
-162.0000000000001
 21
-78.50107199999998
 31
0.0
  0
LINE
  5
4CD
  8
DETAIL
  6
CONTINUOUS
 62
     5
 10
-155.0000000000001
 20
51.49892799999999
 30
0.0
 11
-162.0000000000001
 21
51.49892799999999
 31
0.0
  0
ARC
  5
4CE
  8
DETAIL
  6
CONTINUOUS
 62
     5
 10
-105.3173560000002
 20
29.016879
 30
0.0
 40
64.60945600000001
 50
45.460213
 51
80.68582600000002
  0
ARC
  5
4CF
  8
DETAIL
  6
CONTINUOUS
 62
     5
 10
-34.741591
 20
79.28067799999998
 30
0.0
 40
61.61313199999999
 50
121.1683
 51
167.349646
  0
ARC
  5
4D0
  8
DETAIL
  6
CONTINUOUS
 62
     5
 10
192.7181189999998
 20
105.242175
 30
0.0
 40
295.4204659999999
 50
202.6086159999999
 51
211.1902609999999
  0
ARC
  5
4D1
  8
DETAIL
  6
CONTINUOUS
 62
     5
 10
6.688740999999908
 20
-111.3460899999999
 30
0.0
 40
104.1984339999999
 50
134.4219309999998
 51
189.973661
  0
ARC
  5
4D2
  8
DETAIL
  6
CONTINUOUS
 62
     5
 10
98.18071999999985
 20
-178.2180869999999
 30
0.0
 40
200.161984
 50
142.210147
 51
165.8814529999999
  0
ARC
  5
4D3
  8
DETAIL
  6
CONTINUOUS
 62
     5
 10
8.05489
 20
83.262873
 30
0.0
 40
112.581492
 50
218.5427399999999
 51
232.8075259999998
  0
ARC
  5
4D4
  8
DETAIL
  6
CONTINUOUS
 62
     5
 10
192.7181189999998
 20
105.242175
 30
0.0
 40
295.4204659999999
 50
193.232443
 51
202.6086159999999
  0
ARC
  5
4D5
  8
DETAIL
  6
CONTINUOUS
 62
     5
 10
8.05489
 20
83.262873
 30
0.0
 40
112.581492
 50
203.9177009999999
 51
218.5427399999999
  0
LINE
  5
4D6
  8
DETAIL
  6
CONTINUOUS
 62
     5
 10
-80.00000000000011
 20
-8.327538
 30
0.0
 11
-80.00000000000011
 21
-28.0
 31
0.0
  0
LINE
  5
4D7
  8
NOTE
  6
CONTINUOUS
 62
     4
 10
-40.0
 20
-145.0
 30
0.0
 11
0.0
 21
-145.0
 31
0.0
  0
LINE
  5
4D8
  8
NOTE
  6
CONTINUOUS
 62
     4
 10
-20.00000000000009
 20
-125.0
 30
0.0
 11
-20.00000000000009
 21
-165.0
 31
0.0
  0
LINE
  5
4D9
  8
NOTE
  6
CONTINUOUS
 62
     4
 10
-20.00000000000009
 20
-145.0
 30
0.0
 11
-228.8977509999999
 21
-302.0670749999998
 31
0.0
  0
LINE
  5
4DA
  8
NOTE
  6
CONTINUOUS
 62
     4
 10
-45.086579
 20
-176.155474
 30
0.0
 11
-20.00000000000009
 21
-145.0
 31
0.0
  0
LINE
  5
4DB
  8
NOTE
  6
CONTINUOUS
 62
     4
 10
-20.00000000000009
 20
-145.0
 30
0.0
 11
-57.3033520000001
 21
-159.4381419999999
 31
0.0
  0
TEXT
  5
4DC
  8
NOTE
  6
CONTINUOUS
 62
     4
 10
-327.4296460000002
 20
-280.663529
 30
0.0
 40
64.0
  1
EL
 41
0.9
  0
LINE
  5
4DD
  8
NOTE
  6
CONTINUOUS
 62
     4
 10
-228.8977509999999
 20
-302.0670749999998
 30
0.0
 11
-343.4946310000002
 21
-302.0670749999998
 31
0.0
  0
LINE
  5
4E1
  8
DETAIL
  6
CONTINUOUS
 62
     5
 10
-170.0000000000001
 20
-40.49999999999999
 30
0.0
 11
-170.0000000000001
 21
40.49999999999999
 31
0.0
  0
LINE
  5
4E2
  8
DETAIL
  6
CONTINUOUS
 62
     5
 39
50.0
 10
-130.0000000000001
 20
50.58886300000001
 30
0.0
 11
-155.0000000000001
 21
50.58886300000001
 31
0.0
  0
LINE
  5
4E3
  8
DETAIL
  6
CONTINUOUS
 62
     5
 39
50.0
 10
-130.0000000000001
 20
-57.98231798629362
 30
0.0
 11
-155.0000000000001
 21
-57.98231798629362
 31
0.0
  0
LINE
  5
4E4
  8
DETAIL
  6
CONTINUOUS
 62
     5
 10
-162.0000000000001
 20
-78.50107199999998
 30
0.0
 11
-162.0000000000001
 21
51.49892799999999
 31
0.0
  0
LINE
  5
4E5
  8
DETAIL
  6
CONTINUOUS
 62
     5
 10
-128.0000000000001
 20
50.58886300000001
 30
0.0
 11
-128.0000000000001
 21
-78.50107199999998
 31
0.0
  0
LINE
  5
4E6
  8
DETAIL
  6
CONTINUOUS
 62
     5
 10
-126.0000000000001
 20
51.49892799999999
 30
0.0
 11
-126.0000000000001
 21
-51.50000000000001
 31
0.0
  0
LINE
  5
4E7
  8
DETAIL
  6
CONTINUOUS
 62
     5
 39
50.0
 10
-126.0000000000001
 20
51.49892799999999
 30
0.0
 11
-130.0000000000001
 21
51.49892799999999
 31
0.0
  0
LINE
  5
4E8
  8
DETAIL
  6
CONTINUOUS
 62
     5
 39
50.0
 10
-128.0000000000001
 20
-78.50107199999998
 30
0.0
 11
-130.0000000000001
 21
-78.50107199999998
 31
0.0
  0
LINE
  5
4E9
  8
DETAIL
  6
CONTINUOUS
 62
     5
 39
50.0
 10
-150.0000000000001
 20
38.0
 30
0.0
 11
-150.0000000000001
 21
-38.0
 31
0.0
  0
LINE
  5
4EA
  8
DETAIL
  6
CONTINUOUS
 62
     5
 10
-128.0000000000001
 20
-51.5
 30
0.0
 11
-126.0000000000001
 21
-51.5
 31
0.0
  0
LINE
  5
4EB
  8
DETAIL
  6
CONTINUOUS
 62
     5
 39
50.0
 10
-162.0000000000001
 20
-48.5
 30
0.0
 11
-170.0000000000001
 21
-40.49999999999999
 31
0.0
  0
LINE
  5
4EC
  8
DETAIL
  6
CONTINUOUS
 62
     5
 39
50.0
 10
-162.0000000000001
 20
48.5
 30
0.0
 11
-170.0000000000001
 21
40.49999999999999
 31
0.0
  0
ARC
  5
4ED
  8
DETAIL
  6
CONTINUOUS
 62
     5
 10
-153.0000000000001
 20
42.0
 30
0.0
 40
2.0
 50
180.0
 51
270.0
  0
ARC
  5
4EE
  8
DETAIL
  6
CONTINUOUS
 62
     5
 10
-152.0000000000001
 20
38.0
 30
0.0
 40
2.0
 50
0.0
 51
90.0
  0
ARC
  5
4EF
  8
DETAIL
  6
CONTINUOUS
 62
     5
 10
-152.0000000000001
 20
-38.0
 30
0.0
 40
2.0
 50
270.0
 51
0.0
  0
ARC
  5
4F0
  8
DETAIL
  6
CONTINUOUS
 62
     5
 10
-153.0000000000001
 20
-42.0
 30
0.0
 40
2.0
 50
90.0
 51
180.0
  0
LINE
  5
4F1
  8
OUTLINE
  6
CONTINUOUS
 62
     3
 10
-57.0000000000002
 20
-132.0
 30
0.0
 11
-57.0000000000002
 21
132.0
 31
0.0
  0
LINE
  5
4F2
  8
OUTLINE
  6
CONTINUOUS
 62
     3
 10
-60.0
 20
-132.0
 30
0.0
 11
-60.0
 21
132.0
 31
0.0
  0
LINE
  5
4F3
  8
OUTLINE
  6
CONTINUOUS
 62
     3
 10
-20.00000000000009
 20
-158.0
 30
0.0
 11
-20.00000000000009
 21
158.0
 31
0.0
  0
LINE
  5
4F4
  8
OUTLINE
  6
CONTINUOUS
 62
     3
 10
-10.0
 20
-165.5
 30
0.0
 11
-10.0
 21
165.5
 31
0.0
  0
LINE
  5
4F5
  8
OUTLINE
  6
CONTINUOUS
 62
     3
 10
0.0
 20
-185.0
 30
0.0
 11
0.0
 21
185.0
 31
0.0
  0
LINE
  5
4F6
  8
OUTLINE
  6
CONTINUOUS
 62
     3
 39
50.0
 10
-130.0000000000001
 20
82.0
 30
0.0
 11
-130.0000000000001
 21
-82.0
 31
0.0
  0
LINE
  5
4F7
  8
OUTLINE
  6
CONTINUOUS
 62
     3
 39
50.0
 10
-162.0000000000001
 20
51.49892799999999
 30
0.0
 11
-162.0000000000001
 21
-78.50107199999998
 31
0.0
  0
LINE
  5
4F8
  8
OUTLINE
  6
CONTINUOUS
 62
     3
 39
50.0
 10
-170.0000000000001
 20
40.49999999999999
 30
0.0
 11
-170.0000000000001
 21
-40.49999999999999
 31
0.0
  0
LINE
  5
4F9
  8
OUTLINE
  6
CONTINUOUS
 62
     3
 39
50.0
 10
-150.0000000000001
 20
38.0
 30
0.0
 11
-150.0000000000001
 21
-38.0
 31
0.0
  0
POINT
  5
4FA
  8
ARRANGE
  6
CONTINUOUS
 62
     1
 10
0.0
 20
0.0
 30
0.0
  0
CIRCLE
  5
4FB
  8
ARRANGE
  6
CONTINUOUS
 62
     1
 10
0.0
 20
0.0
 30
0.0
 40
40.0
  0
LINE
  5
4FC
  8
OUTLINE
  6
CONTINUOUS
 62
     3
 39
50.0
 10
-162.0000000000001
 20
-78.50107199999998
 30
0.0
 11
-155.0000000000001
 21
-78.50107199999998
 31
0.0
  0
LINE
  5
4FD
  8
OUTLINE
  6
CONTINUOUS
 62
     3
 39
50.0
 10
-155.0000000000001
 20
-57.98231798629362
 30
0.0
 11
-130.0000000000001
 21
-57.98231798629362
 31
0.0
  0
LINE
  5
4FE
  8
OUTLINE
  6
CONTINUOUS
 62
     3
 39
50.0
 10
-170.0000000000001
 20
-40.49999999999999
 30
0.0
 11
-162.0000000000001
 21
-48.5
 31
0.0
  0
ARC
  5
4FF
  8
OUTLINE
  6
CONTINUOUS
 62
     3
 39
50.0
 10
-152.0000000000001
 20
-38.0
 30
0.0
 40
2.0
 50
270.0
 51
0.0
  0
ARC
  5
500
  8
OUTLINE
  6
CONTINUOUS
 62
     3
 39
50.0
 10
-153.0000000000001
 20
-42.0
 30
0.0
 40
2.0
 50
90.0
 51
180.0
  0
LINE
  5
502
  8
OUTLINE
  6
CONTINUOUS
 62
     3
 39
50.0
 10
-153.0000000000001
 20
-40.0
 30
0.0
 11
-152.0000000000001
 21
-40.0
 31
0.0
  0
ARC
  5
503
  8
OUTLINE
  6
CONTINUOUS
 62
     3
 10
-80.00000000000011
 20
-82.0
 30
0.0
 40
50.0
 50
180.0
 51
270.0
  0
LINE
  5
505
  8
OUTLINE
  6
CONTINUOUS
 62
     3
 10
-10.0
 20
-185.0
 30
0.0
 11
0.0
 21
-185.0
 31
0.0
  0
LINE
  5
506
  8
OUTLINE
  6
CONTINUOUS
 62
     3
 10
-10.0
 20
-185.0
 30
0.0
 11
-10.0
 21
-165.5
 31
0.0
  0
LINE
  5
507
  8
OUTLINE
  6
CONTINUOUS
 62
     3
 10
-20.00000000000009
 20
-158.0
 30
0.0
 11
-10.0
 21
-158.0
 31
0.0
  0
LINE
  5
509
  8
OUTLINE
  6
CONTINUOUS
 62
     3
 10
-20.00000000000009
 20
-132.0
 30
0.0
 11
-80.00000000000011
 21
-132.0
 31
0.0
  0
LINE
  5
50A
  8
OUTLINE
  6
CONTINUOUS
 62
     3
 10
-57.0000000000002
 20
-152.0
 30
0.0
 11
-57.0000000000002
 21
-155.0
 31
0.0
  0
LINE
  5
50B
  8
OUTLINE
  6
CONTINUOUS
 62
     3
 10
-60.0
 20
-152.0
 30
0.0
 11
-60.0
 21
-155.0
 31
0.0
  0
LINE
  5
50C
  8
OUTLINE
  6
CONTINUOUS
 62
     3
 10
-57.0000000000002
 20
-155.0
 30
0.0
 11
-60.0
 21
-155.0
 31
0.0
  0
LINE
  5
50D
  8
OUTLINE
  6
CONTINUOUS
 62
     3
 39
50.0
 10
-155.0000000000001
 20
51.49892799999999
 30
0.0
 11
-162.0000000000001
 21
51.49892799999999
 31
0.0
  0
LINE
  5
50E
  8
OUTLINE
  6
CONTINUOUS
 62
     3
 39
50.0
 10
-155.0000000000001
 20
50.58886300000001
 30
0.0
 11
-130.0000000000001
 21
50.58886300000001
 31
0.0
  0
LINE
  5
50F
  8
OUTLINE
  6
CONTINUOUS
 62
     3
 39
50.0
 10
-162.0000000000001
 20
48.5
 30
0.0
 11
-170.0000000000001
 21
40.49999999999999
 31
0.0
  0
ARC
  5
510
  8
OUTLINE
  6
CONTINUOUS
 62
     3
 39
50.0
 10
-153.0000000000001
 20
42.0
 30
0.0
 40
2.0
 50
180.0
 51
270.0
  0
ARC
  5
512
  8
OUTLINE
  6
CONTINUOUS
 62
     3
 39
50.0
 10
-152.0000000000001
 20
38.0
 30
0.0
 40
2.0
 50
0.0
 51
90.0
  0
LINE
  5
513
  8
OUTLINE
  6
CONTINUOUS
 62
     3
 39
50.0
 10
-153.0000000000001
 20
40.0
 30
0.0
 11
-152.0000000000001
 21
40.0
 31
0.0
  0
ARC
  5
514
  8
OUTLINE
  6
CONTINUOUS
 62
     3
 10
-80.00000000000011
 20
82.0
 30
0.0
 40
50.0
 50
90.0
 51
180.0
  0
LINE
  5
516
  8
OUTLINE
  6
CONTINUOUS
 62
     3
 10
-20.00000000000009
 20
158.0
 30
0.0
 11
-10.0
 21
158.0
 31
0.0
  0
LINE
  5
517
  8
OUTLINE
  6
CONTINUOUS
 62
     3
 10
-20.00000000000009
 20
132.0
 30
0.0
 11
-80.00000000000011
 21
132.0
 31
0.0
  0
LINE
  5
519
  8
OUTLINE
  6
CONTINUOUS
 62
     3
 10
-57.0000000000002
 20
152.0
 30
0.0
 11
-57.0000000000002
 21
155.0
 31
0.0
  0
LINE
  5
51A
  8
OUTLINE
  6
CONTINUOUS
 62
     3
 10
-60.0
 20
152.0
 30
0.0
 11
-60.0
 21
155.0
 31
0.0
  0
LINE
  5
51B
  8
OUTLINE
  6
CONTINUOUS
 62
     3
 10
-57.0000000000002
 20
155.0
 30
0.0
 11
-60.0
 21
155.0
 31
0.0
  0
LINE
  5
51C
  8
OUTLINE
  6
CONTINUOUS
 62
     3
 10
-10.0
 20
185.0
 30
0.0
 11
0.0
 21
185.0
 31
0.0
  0
LINE
  5
51D
  8
OUTLINE
  6
CONTINUOUS
 62
     3
 10
-10.0
 20
165.5
 30
0.0
 11
-10.0
 21
185.0
 31
0.0
  0
LINE
  5
51E
  8
SIZE
  6
CONTINUOUS
 10
-182.0000000000002
 20
48.50000000000001
 30
0.0
 11
-299.8717999053416
 21
48.50000000000004
 31
0.0
  0
LINE
  5
51F
  8
SIZE
  6
CONTINUOUS
 10
-182.0000000000002
 20
-48.49999999999999
 30
0.0
 11
-299.8717999053416
 21
-48.49999999999996
 31
0.0
  0
LINE
  5
520
  8
SIZE
  6
CONTINUOUS
 10
-279.8717999053415
 20
48.50000000000004
 30
0.0
 11
-279.8717999053415
 21
88.50000000000004
 31
0.0
  0
LINE
  5
521
  8
SIZE
  6
CONTINUOUS
 10
-279.8717999053415
 20
-48.49999999999996
 30
0.0
 11
-279.8717999053415
 21
-88.49999999999996
 31
0.0
  0
LINE
  5
522
  8
SIZE
  6
CONTINUOUS
 10
-279.8717999053415
 20
48.50000000000004
 30
0.0
 11
-279.8717999053415
 21
-48.49999999999996
 31
0.0
  0
TEXT
  5
523
  8
SIZE
  6
CONTINUOUS
 62
    30
 10
-307.3604451982728
 20
-72.03499464545057
 30
0.0
 40
64.0
  1
φ97
 50
90.0
 41
0.9
 72
     1
 11
-307.3604451982728
 21
7.507862497406575
 31
0.0
  0
CIRCLE
  5
524
  8
SIZE
  6
CONTINUOUS
 62
    30
 39
50.0
 10
-279.8717999053415
 20
48.50000000000002
 30
0.0
 40
6.0
  0
CIRCLE
  5
525
  8
SIZE
  6
CONTINUOUS
 62
    30
 39
50.0
 10
-279.8717999053415
 20
-48.49999999999996
 30
0.0
 40
6.0
  0
ARC
  5
527
  8
DETAIL
  6
CONTINUOUS
 62
     5
 10
-90.0
 20
87.0
 30
0.0
 40
65.0
 50
90.0
 51
180.0
  0
ARC
  5
528
  8
DETAIL
  6
CONTINUOUS
 62
     5
 10
-90.0
 20
-87.0
 30
0.0
 40
65.0
 50
180.0
 51
270.0
  0
LINE
  5
529
  8
OUTLINE
  6
CONTINUOUS
 62
     3
 39
50.0
 10
-90.00000000000011
 20
-152.0
 30
0.0
 11
-20.00000000000009
 21
-152.0
 31
0.0
  0
LINE
  5
52A
  8
OUTLINE
  6
CONTINUOUS
 62
     3
 39
50.0
 10
-155.0000000000001
 20
-87.00000000000011
 30
0.0
 11
-155.0000000000001
 21
-42.0
 31
0.0
  0
LINE
  5
52B
  8
OUTLINE
  6
CONTINUOUS
 62
     3
 39
50.0
 10
-155.0000000000001
 20
42.0
 30
0.0
 11
-155.0
 21
87.00000000000021
 31
0.0
  0
LINE
  5
52C
  8
OUTLINE
  6
CONTINUOUS
 62
     3
 39
50.0
 10
-90.0
 20
152.0
 30
0.0
 11
-20.00000000000009
 21
152.0
 31
0.0
  0
ARC
  5
52D
  8
OUTLINE
  6
CONTINUOUS
 62
     3
 39
50.0
 10
-90.0
 20
87.00000000000001
 30
0.0
 40
65.0
 50
90.0
 51
180.0
  0
ARC
  5
52E
  8
OUTLINE
  6
CONTINUOUS
 62
     3
 39
50.0
 10
-90.00000000000011
 20
-87.00000000000001
 30
0.0
 40
65.0
 50
180.0
 51
270.0
  0
TEXT
  5
60E
  8
ETC
  6
CONTINUOUS
 62
    61
 10
266.2940333311307
 20
463.4073154954091
 30
0.0
 40
50.0
  1
EF-25ATB40A5_4
 41
0.9
  0
TEXT
  5
60F
  8
ETC
  6
CONTINUOUS
 62
    61
 10
263.0107553311307
 20
384.8006320634146
 30
0.0
 40
50.0
  1
産業扇
 41
0.9
  0
TEXT
  5
610
  8
ETC
  6
CONTINUOUS
 62
    61
 10
371.8489439666647
 20
320.7130945164517
 30
0.0
 40
40.0
  1
EF-25ATB40A3
 41
0.9
  0
TEXT
  5
611
  8
ETC
  6
CONTINUOUS
 62
    61
 10
371.8489439666647
 20
260.7429087196796
 30
0.0
 40
40.0
  1
EF-25ATB40A5
 41
0.9
  0
ENDSEC
  0
EOF
