  0
SECTION
  2
HEADER
  9
$ACADVER
  1
AC1009
  9
$DWGCODEPAGE
  3
dos932
  9
$INSBASE
 10
0.0
 20
0.0
 30
0.0
  9
$EXTMIN
 10
-355.75102072413029
 20
-303.45152621559282
 30
-0.0015257624927045
  9
$EXTMAX
 10
949.42475513022328
 20
591.84265939034776
 30
0.0022888765696933
  9
$LIMMIN
 10
-2970.0
 20
-2100.0
  9
$LIMMAX
 10
2970.0
 20
2100.0
  9
$ORTHOMODE
 70
     1
  9
$REGENMODE
 70
     1
  9
$FILLMODE
 70
     1
  9
$QTEXTMODE
 70
     0
  9
$MIRRTEXT
 70
     0
  9
$LTSCALE
 40
20.0
  9
$ATTMODE
 70
     1
  9
$TEXTSIZE
 40
64.0
  9
$TRACEWID
 40
0.05
  9
$TEXTSTYLE
  7
STANDARD
  9
$CLAYER
  8
SIZE
  9
$CELTYPE
  6
CONTINUOUS
  9
$CECOLOR
 62
     7
  9
$DIMSCALE
 40
1.0
  9
$DIMASZ
 40
12.0
  9
$DIMEXO
 40
20.0
  9
$DIMDLI
 40
200.0
  9
$DIMRND
 40
0.0
  9
$DIMDLE
 40
0.0
  9
$DIMEXE
 40
20.0
  9
$DIMTP
 40
0.0
  9
$DIMTM
 40
0.0
  9
$DIMTXT
 40
64.0
  9
$DIMCEN
 40
0.09
  9
$DIMTSZ
 40
0.0
  9
$DIMTOL
 70
     0
  9
$DIMLIM
 70
     0
  9
$DIMTIH
 70
     0
  9
$DIMTOH
 70
     0
  9
$DIMSE1
 70
     0
  9
$DIMSE2
 70
     0
  9
$DIMTAD
 70
     1
  9
$DIMZIN
 70
     8
  9
$DIMBLK
  1

  9
$DIMASO
 70
     1
  9
$DIMSHO
 70
     0
  9
$DIMPOST
  1

  9
$DIMAPOST
  1

  9
$DIMALT
 70
     0
  9
$DIMALTD
 70
     2
  9
$DIMALTF
 40
25.399999999999999
  9
$DIMLFAC
 40
1.0
  9
$DIMTOFL
 70
     1
  9
$DIMTVP
 40
0.0
  9
$DIMTIX
 70
     1
  9
$DIMSOXD
 70
     0
  9
$DIMSAH
 70
     0
  9
$DIMBLK1
  1

  9
$DIMBLK2
  1

  9
$DIMSTYLE
  2
STANDARD
  9
$DIMCLRD
 70
     7
  9
$DIMCLRE
 70
     7
  9
$DIMCLRT
 70
     7
  9
$DIMTFAC
 40
1.0
  9
$DIMGAP
 40
25.0
  9
$LUNITS
 70
     2
  9
$LUPREC
 70
     4
  9
$SKETCHINC
 40
0.1
  9
$FILLETRAD
 40
3.0
  9
$AUNITS
 70
     1
  9
$AUPREC
 70
     3
  9
$MENU
  1
ACAD
  9
$ELEVATION
 40
0.0
  9
$PELEVATION
 40
0.0
  9
$THICKNESS
 40
50.0
  9
$LIMCHECK
 70
     0
  9
$CHAMFERA
 40
0.0
  9
$CHAMFERB
 40
0.0
  9
$SKPOLY
 70
     0
  9
$TDCREATE
 40
2453019.62301037
  9
$TDUPDATE
 40
2458949.421868183
  9
$TDINDWG
 40
1.7140553356
  9
$TDUSRTIMER
 40
1.7140553356
  9
$USRTIMER
 70
     1
  9
$ANGBASE
 50
0.0
  9
$ANGDIR
 70
     0
  9
$PDMODE
 70
     3
  9
$PDSIZE
 40
-2.0
  9
$PLINEWID
 40
0.0
  9
$SPLFRAME
 70
     0
  9
$SPLINETYPE
 70
     6
  9
$SPLINESEGS
 70
     8
  9
$SURFTAB1
 70
     6
  9
$SURFTAB2
 70
     6
  9
$SURFTYPE
 70
     6
  9
$SURFU
 70
     6
  9
$SURFV
 70
     6
  9
$UCSNAME
  2

  9
$UCSORG
 10
0.0
 20
0.0
 30
0.0
  9
$UCSXDIR
 10
1.0
 20
0.0
 30
0.0
  9
$UCSYDIR
 10
0.0
 20
1.0
 30
0.0
  9
$PUCSNAME
  2

  9
$PUCSORG
 10
0.0
 20
0.0
 30
0.0
  9
$PUCSXDIR
 10
1.0
 20
0.0
 30
0.0
  9
$PUCSYDIR
 10
0.0
 20
1.0
 30
0.0
  9
$USERI1
 70
     0
  9
$USERI2
 70
     0
  9
$USERI3
 70
     0
  9
$USERI4
 70
     0
  9
$USERI5
 70
     0
  9
$USERR1
 40
20.0
  9
$USERR2
 40
0.0
  9
$USERR3
 40
0.0
  9
$USERR4
 40
0.0
  9
$USERR5
 40
0.0
  9
$WORLDVIEW
 70
     1
  9
$SHADEDGE
 70
     3
  9
$SHADEDIF
 70
    70
  9
$TILEMODE
 70
     1
  9
$MAXACTVP
 70
    48
  9
$PINSBASE
 10
0.0
 20
0.0
 30
0.0
  9
$PLIMCHECK
 70
     0
  9
$PEXTMIN
 10
-100000000000000000000.0
 20
-100000000000000000000.0
 30
-100000000000000000000.0
  9
$PEXTMAX
 10
100000000000000000000.0
 20
100000000000000000000.0
 30
100000000000000000000.0
  9
$PLIMMIN
 10
0.0
 20
0.0
  9
$PLIMMAX
 10
12.0
 20
9.0
  9
$UNITMODE
 70
     0
  9
$VISRETAIN
 70
     0
  9
$PLINEGEN
 70
     0
  9
$PSLTSCALE
 70
     0
  9
$TREEDEPTH
 70
  3020
  9
$ATTDIA
 70
     0
  9
$ATTREQ
 70
     1
  9
$BLIPMODE
 70
     1
  9
$COORDS
 70
     1
  9
$DRAGMODE
 70
     2
  9
$OSMODE
 70
     0
  9
$HANDLING
 70
     0
  9
$HANDSEED
  5
10A4F
  0
ENDSEC
  0
SECTION
  2
TABLES
  0
TABLE
  2
LTYPE
 70
     2
  0
LTYPE
  2
CONTINUOUS
 70
     0
  3
実線
 72
    65
 73
     0
 40
0.0
  0
LTYPE
  2
DASHDOT
 70
     0
  3
____ _ ____ _ ____ _ ____ _ ____ _ ____ _ ____
 72
    65
 73
     4
 40
5.5
 49
4.0
 49
-0.6
 49
0.3
 49
-0.6
  0
ENDTAB
  0
TABLE
  2
LAYER
 70
    12
  0
LAYER
  2
0
 70
     0
 62
     7
  6
CONTINUOUS
  0
LAYER
  2
BASIS
 70
     0
 62
     6
  6
DASHDOT
  0
LAYER
  2
OUTLINE
 70
     0
 62
     3
  6
CONTINUOUS
  0
LAYER
  2
DETAIL
 70
     0
 62
     5
  6
CONTINUOUS
  0
LAYER
  2
SIZE
 70
     0
 62
    30
  6
CONTINUOUS
  0
LAYER
  2
ARRANGE
 70
     0
 62
     1
  6
CONTINUOUS
  0
LAYER
  2
DEFPOINTS
 70
     0
 62
     7
  6
CONTINUOUS
  0
LAYER
  2
ETC
 70
     0
 62
    61
  6
CONTINUOUS
  0
LAYER
  2
FIX
 70
     0
 62
    11
  6
CONTINUOUS
  0
LAYER
  2
NOTE
 70
     0
 62
     4
  6
CONTINUOUS
  0
LAYER
  2
SERVICESPACE
 70
    64
 62
     2
  6
DASHDOT
  0
LAYER
  2
SYMBOLLINE
 70
    64
 62
    15
  6
CONTINUOUS
  0
ENDTAB
  0
TABLE
  2
STYLE
 70
     1
  0
STYLE
  2
STANDARD
 70
     0
 40
64.0
 41
0.9
 50
0.0
 71
     0
 42
64.0
  3
SIMPLEX.shx
  4
BIGFONT.shx
  0
ENDTAB
  0
TABLE
  2
APPID
 70
    19
  0
APPID
  2
ACAD
 70
     0
  0
APPID
  2
AUTOCAD_POSTSCRIPT_FIGURE
 70
     0
  0
APPID
  2
ACAD_EXEMPT_FROM_CAD_STANDARDS
 70
     0
  0
APPID
  2
ACAD_PSEXT
 70
     0
  0
APPID
  2
ACAUTHENVIRON
 70
     0
  0
APPID
  2
GENIUS_GENOENT_13
 70
     0
  0
APPID
  2
GENIUS_GENCFG_13
 70
     0
  0
APPID
  2
GENIUS_GENCFG0_13
 70
     0
  0
APPID
  2
GENIUS_GENCFG1_13
 70
     0
  0
APPID
  2
GENIUS_GENCFG2_13
 70
     0
  0
APPID
  2
GENIUS_GENCFG3_13
 70
     0
  0
APPID
  2
GENIUS_GENCFG4_13
 70
     0
  0
APPID
  2
GENIUS_GEVCFG0_13
 70
     0
  0
APPID
  2
CONTENTBLOCKICON
 70
     0
  0
APPID
  2
CONTENTBLOCKDESCRIPTION
 70
     0
  0
APPID
  2
ACAD_NAV_VCDISPLAY
 70
     0
  0
APPID
  2
ACAD_MLEADERVER
 70
     0
  0
APPID
  2
ACDBDYNAMICBLOCKTRUENAME
 70
     0
  0
APPID
  2
ACDBDYNAMICBLOCKGUID
 70
     0
  0
ENDTAB
  0
TABLE
  2
DIMSTYLE
 70
     1
  0
DIMSTYLE
  2
STANDARD
 70
     0
  3

  4

  5
_ORIGIN
  6

  7

 40
1.0
 41
12.0
 42
20.0
 43
200.0
 44
20.0
 45
0.0
 46
0.0
 47
0.0
 48
0.0
140
64.0
141
0.09
142
0.0
143
25.399999999999999
144
1.0
145
0.0
146
1.0
147
25.0
 71
     0
 72
     0
 73
     0
 74
     0
 75
     0
 76
     0
 77
     1
 78
     8
170
     0
171
     2
172
     1
173
     0
174
     1
175
     0
176
     7
177
     7
178
     7
  0
ENDTAB
  0
TABLE
  2
VIEW
 70
     1
  0
VIEW
  2
ALL
 70
     0
 40
4282.6198079999986
 10
0.0
 20
41.309904000000003
 41
5940.0
 11
0.0
 21
0.0
 31
1.0
 12
0.0
 22
0.0
 32
0.0
 42
50.0
 43
0.0
 44
0.0
 50
0.0
 71
     0
  0
ENDTAB
  0
TABLE
  2
UCS
 70
     0
  0
ENDTAB
  0
TABLE
  2
VPORT
 70
     1
  0
VPORT
  2
*ACTIVE
 70
     0
 10
0.0
 20
0.0
 11
1.0
 21
1.0
 12
296.83686720304649
 22
144.1955665873775
 13
0.0
 23
0.0
 14
1.0
 24
1.0
 15
0.0
 25
0.0
 16
0.0
 26
0.0
 36
1.0
 17
0.0
 27
0.0
 37
0.0
 40
901.22983766520656
 41
1.747787610619469
 42
50.0
 43
0.0
 44
0.0
 50
0.0
 51
0.0
 71
     0
 72
  1000
 73
     1
 74
     3
 75
     0
 76
     0
 77
     0
 78
     0
  0
ENDTAB
  0
ENDSEC
  0
SECTION
  2
BLOCKS
  0
BLOCK
  8
0
  2
_ORIGIN
 70
     0
 10
0.0
 20
0.0
 30
0.0
  3
_ORIGIN
  1
_ORIGIN
  0
CIRCLE
  8
0
  6
CONTINUOUS
 62
     7
 10
0.0
 20
0.0
 30
0.0
 40
0.5
  0
LINE
  8
0
  6
CONTINUOUS
 62
     7
 10
0.0
 20
0.0
 30
0.0
 11
-1.0
 21
0.0
 31
0.0
  0
ENDBLK
  8
0
  0
ENDSEC
  0
SECTION
  2
ENTITIES
  0
TEXT
  8
ETC
  6
CONTINUOUS
 62
    61
 10
260.77266444770481
 20
527.77990314897647
 30
0.0
 40
64.0
  1
EF-25UAS2-K_6
 41
0.9
  0
TEXT
  8
ETC
  6
CONTINUOUS
 62
    61
 10
256.58667044770442
 20
409.82459313414529
 30
0.0
 40
64.0
  1
産業扇
 41
0.9
  0
CIRCLE
  8
ARRANGE
  6
CONTINUOUS
 62
     1
 10
0.0
 20
0.0
 30
0.0
 40
40.0
  0
POINT
  8
ARRANGE
  6
CONTINUOUS
 62
     1
 10
0.0
 20
0.0
 30
0.0
  0
LINE
  8
BASIS
  6
DASHDOT
 62
     6
 10
0.0
 20
-132.47446783846229
 30
0.0
 11
0.0
 21
67.445074417599244
 31
0.0
  0
LINE
  8
BASIS
  6
DASHDOT
 62
     6
 10
225.66933588690969
 20
0.0
 30
0.0
 11
-225.66933588690969
 21
0.0
 31
0.0
  0
TEXT
  8
ETC
  6
CONTINUOUS
 62
    61
 10
307.28806869626032
 20
301.67582024792
 30
0.0
 40
40.0
  1
EF-25UAS2-K
 41
0.9
  0
TEXT
  8
ETC
  6
CONTINUOUS
 62
    61
 10
307.28806869626032
 20
235.67582024792
 30
0.0
 40
40.0
  1
EF-25UASQ2-K
 41
0.9
  0
LINE
  8
DETAIL
  6
CONTINUOUS
 62
     5
 10
184.90098118136211
 20
-1.821556496865355
 30
0.0
 11
184.26739631288731
 21
-4.474693133604319
 31
0.0
  0
LINE
  8
DETAIL
  6
CONTINUOUS
 62
     5
 10
-139.08487537976839
 20
-10.493749384116089
 30
0.0
 11
-150.92499260939371
 21
-10.493749384116089
 31
0.0
  0
LINE
  8
DETAIL
  6
CONTINUOUS
 62
     5
 10
183.5942123901327
 20
-5.1478770563587659
 30
0.0
 11
-183.59421239013281
 21
-5.1478770563587659
 31
0.0
  0
LINE
  8
DETAIL
  6
CONTINUOUS
 62
     5
 10
183.51501428157329
 20
0.0
 30
0.0
 11
-183.47541522729381
 21
0.0
 31
0.0
  0
LINE
  8
DETAIL
  6
CONTINUOUS
 62
     5
 10
-139.08487537976839
 20
-10.493749384116089
 30
0.0
 11
-139.08487537976839
 21
-10.01856073275985
 31
0.0
  0
LINE
  8
DETAIL
  6
CONTINUOUS
 62
     5
 10
-150.92499260939371
 20
-10.493749384116089
 30
0.0
 11
-150.92499260939371
 21
-10.01856073275985
 31
0.0
  0
LINE
  8
DETAIL
  6
CONTINUOUS
 62
     5
 10
-185.01977834420131
 20
-1.821556496865355
 30
0.0
 11
-184.42579253000611
 21
-4.474693133604319
 31
0.0
  0
LINE
  8
DETAIL
  6
CONTINUOUS
 62
     5
 10
184.90098118136211
 20
-1.821556496865355
 30
0.0
 11
184.98017928992161
 21
-1.2671697369497681
 31
0.0
  0
LINE
  8
DETAIL
  6
CONTINUOUS
 62
     5
 10
184.98017928992161
 20
-1.2671697369497681
 30
0.0
 11
184.90098118136211
 21
-0.8711791941530009
 31
0.0
  0
LINE
  8
DETAIL
  6
CONTINUOUS
 62
     5
 10
184.90098118136211
 20
-0.8711791941530009
 30
0.0
 11
184.5841887471247
 21
-0.475188651356234
 31
0.0
  0
LINE
  8
DETAIL
  6
CONTINUOUS
 62
     5
 10
184.5841887471247
 20
-0.475188651356234
 30
0.0
 11
184.26739631288731
 21
-0.1583962171187068
 31
0.0
  0
LINE
  8
DETAIL
  6
CONTINUOUS
 62
     5
 10
184.26739631288731
 20
-0.1583962171187068
 30
0.0
 11
183.91100482437011
 21
0.0
 31
0.0
  0
LINE
  8
DETAIL
  6
CONTINUOUS
 62
     5
 10
183.91100482437011
 20
0.0
 30
0.0
 11
183.51501428157329
 21
0.0
 31
0.0
  0
LINE
  8
DETAIL
  6
CONTINUOUS
 62
     5
 10
183.5942123901327
 20
-5.1478770563587659
 30
0.0
 11
183.79220766153091
 21
-5.0686789477994134
 31
0.0
  0
LINE
  8
DETAIL
  6
CONTINUOUS
 62
     5
 10
183.79220766153091
 20
-5.0686789477994134
 30
0.0
 11
184.06940104148879
 21
-4.9894808392400591
 31
0.0
  0
LINE
  8
DETAIL
  6
CONTINUOUS
 62
     5
 10
184.06940104148879
 20
-4.9894808392400591
 30
0.0
 11
184.1881982043277
 21
-4.7914855678417334
 31
0.0
  0
LINE
  8
DETAIL
  6
CONTINUOUS
 62
     5
 10
184.1881982043277
 20
-4.7914855678417334
 30
0.0
 11
184.26739631288731
 21
-4.474693133604319
 31
0.0
  0
LINE
  8
DETAIL
  6
CONTINUOUS
 62
     5
 10
-150.92499260939371
 20
-10.493749384116089
 30
0.0
 11
-148.94503989540979
 21
-12.077711555303379
 31
0.0
  0
LINE
  8
DETAIL
  6
CONTINUOUS
 62
     5
 10
-148.94503989540979
 20
-12.077711555303379
 30
0.0
 11
-146.41070042151
 21
-12.86969264089714
 31
0.0
  0
LINE
  8
DETAIL
  6
CONTINUOUS
 62
     5
 10
-146.41070042151
 20
-12.86969264089714
 30
0.0
 11
-143.7179647304915
 21
-12.86969264089714
 31
0.0
  0
LINE
  8
DETAIL
  6
CONTINUOUS
 62
     5
 10
-143.7179647304915
 20
-12.86969264089714
 30
0.0
 11
-141.2232243108713
 21
-12.077711555303379
 31
0.0
  0
LINE
  8
DETAIL
  6
CONTINUOUS
 62
     5
 10
-141.2232243108713
 20
-12.077711555303379
 30
0.0
 11
-139.08487537976839
 21
-10.493749384116089
 31
0.0
  0
LINE
  8
DETAIL
  6
CONTINUOUS
 62
     5
 10
-183.47541522729381
 20
0.0
 30
0.0
 11
-183.99020293292969
 21
0.0
 31
0.0
  0
LINE
  8
DETAIL
  6
CONTINUOUS
 62
     5
 10
-183.99020293292969
 20
0.0
 30
0.0
 11
-184.42579253000611
 21
-0.1583962171187068
 31
0.0
  0
LINE
  8
DETAIL
  6
CONTINUOUS
 62
     5
 10
-184.42579253000611
 20
-0.1583962171187068
 30
0.0
 11
-184.7425849642436
 21
-0.475188651356234
 31
0.0
  0
LINE
  8
DETAIL
  6
CONTINUOUS
 62
     5
 10
-184.7425849642436
 20
-0.475188651356234
 30
0.0
 11
-184.9405802356421
 21
-0.8711791941530009
 31
0.0
  0
LINE
  8
DETAIL
  6
CONTINUOUS
 62
     5
 10
-184.9405802356421
 20
-0.8711791941530009
 30
0.0
 11
-185.01977834420131
 21
-1.2671697369497681
 31
0.0
  0
LINE
  8
DETAIL
  6
CONTINUOUS
 62
     5
 10
-185.01977834420131
 20
-1.2671697369497681
 30
0.0
 11
-185.01977834420131
 21
-1.821556496865355
 31
0.0
  0
LINE
  8
DETAIL
  6
CONTINUOUS
 62
     5
 10
-184.42579253000611
 20
-4.474693133604319
 30
0.0
 11
-184.34659442144689
 21
-4.7914855678417334
 31
0.0
  0
LINE
  8
DETAIL
  6
CONTINUOUS
 62
     5
 10
-184.34659442144689
 20
-4.7914855678417334
 30
0.0
 11
-184.0694010414891
 21
-4.9894808392400591
 31
0.0
  0
LINE
  8
DETAIL
  6
CONTINUOUS
 62
     5
 10
-184.0694010414891
 20
-4.9894808392400591
 30
0.0
 11
-183.91100482437039
 21
-5.0686789477994134
 31
0.0
  0
LINE
  8
DETAIL
  6
CONTINUOUS
 62
     5
 10
-183.91100482437039
 20
-5.0686789477994134
 30
0.0
 11
-183.59421239013281
 21
-5.1478770563587659
 31
0.0
  0
LINE
  8
DETAIL
  6
CONTINUOUS
 62
     5
 10
182.80223130453899
 20
-5.1478770563587659
 30
0.0
 11
182.80223130453899
 21
-7.4842212588602024
 31
0.0
  0
LINE
  8
DETAIL
  6
CONTINUOUS
 62
     5
 10
150.48414346226841
 20
-115.0163025184421
 30
0.0
 11
-150.524202332747
 21
-114.96874384036759
 31
0.0
  0
LINE
  8
DETAIL
  6
CONTINUOUS
 62
     5
 10
150.5237425165484
 20
-111.0167980361944
 30
0.0
 11
-150.524202332747
 21
-110.96923935811949
 31
0.0
  0
LINE
  8
DETAIL
  6
CONTINUOUS
 62
     5
 10
180.2678918306392
 20
-10.01856073275985
 30
0.0
 11
-180.3470899391989
 21
-10.01856073275985
 31
0.0
  0
LINE
  8
DETAIL
  6
CONTINUOUS
 62
     5
 10
183.51501428157329
 20
0.0
 30
0.0
 11
-183.47541522729381
 21
0.0
 31
0.0
  0
LINE
  8
DETAIL
  6
CONTINUOUS
 62
     5
 10
-130.01669194972101
 20
-13.503277509372079
 30
0.0
 11
-130.01669194972101
 21
-16.47320658034835
 31
0.0
  0
LINE
  8
DETAIL
  6
CONTINUOUS
 62
     5
 10
-165.02225593296129
 20
-11.998513446744139
 30
0.0
 11
-165.02225593296129
 21
-17.502781991620171
 31
0.0
  0
LINE
  8
DETAIL
  6
CONTINUOUS
 62
     5
 10
-182.80223130453919
 20
-5.1478770563587659
 30
0.0
 11
-182.80223130453919
 21
-7.4842212588602024
 31
0.0
  0
LINE
  8
DETAIL
  6
CONTINUOUS
 62
     5
 10
-143.99515811044921
 20
-111.0171874674727
 30
0.0
 11
-141.61921485366821
 21
-108.08685745077619
 31
0.0
  0
LINE
  8
DETAIL
  6
CONTINUOUS
 62
     5
 10
-141.61921485366821
 20
-108.08685745077619
 30
0.0
 11
-140.07485173676059
 21
-104.6813387827234
 31
0.0
  0
LINE
  8
DETAIL
  6
CONTINUOUS
 62
     5
 10
-140.07485173676059
 20
-104.6813387827234
 30
0.0
 11
-139.4808659225653
 21
-98.997635699208786
 31
0.0
  0
LINE
  8
DETAIL
  6
CONTINUOUS
 62
     5
 10
180.2678918306392
 20
-10.01856073275985
 30
0.0
 11
180.98067480767349
 21
-9.8205654613615252
 31
0.0
  0
LINE
  8
DETAIL
  6
CONTINUOUS
 62
     5
 10
180.98067480767349
 20
-9.8205654613615252
 30
0.0
 11
181.69345778470779
 21
-9.503773027123998
 31
0.0
  0
LINE
  8
DETAIL
  6
CONTINUOUS
 62
     5
 10
181.69345778470779
 20
-9.503773027123998
 30
0.0
 11
182.2478445446234
 21
-8.8701881586490572
 31
0.0
  0
LINE
  8
DETAIL
  6
CONTINUOUS
 62
     5
 10
182.2478445446234
 20
-8.8701881586490572
 30
0.0
 11
182.56463697886099
 21
-8.1574051816146493
 31
0.0
  0
LINE
  8
DETAIL
  6
CONTINUOUS
 62
     5
 10
182.56463697886099
 20
-8.1574051816146493
 30
0.0
 11
182.80223130453899
 21
-7.4842212588602024
 31
0.0
  0
LINE
  8
DETAIL
  6
CONTINUOUS
 62
     5
 10
-130.01669194972101
 20
-16.47320658034835
 30
0.0
 11
-129.93749384116151
 21
-17.502781991620171
 31
0.0
  0
LINE
  8
DETAIL
  6
CONTINUOUS
 62
     5
 10
-129.93749384116151
 20
-17.502781991620171
 30
0.0
 11
-129.42270613552569
 21
-18.492758348612259
 31
0.0
  0
LINE
  8
DETAIL
  6
CONTINUOUS
 62
     5
 10
-129.42270613552569
 20
-18.492758348612259
 30
0.0
 11
-128.59112599565239
 21
-19.28473943420579
 31
0.0
  0
LINE
  8
DETAIL
  6
CONTINUOUS
 62
     5
 10
-128.59112599565239
 20
-19.28473943420579
 30
0.0
 11
-127.6011496386602
 21
-19.799527139841761
 31
0.0
  0
LINE
  8
DETAIL
  6
CONTINUOUS
 62
     5
 10
-127.6011496386602
 20
-19.799527139841761
 30
0.0
 11
-126.492376118829
 21
-19.997522411240201
 31
0.0
  0
LINE
  8
DETAIL
  6
CONTINUOUS
 62
     5
 10
-130.01669194972101
 20
-13.503277509372079
 30
0.0
 11
-130.21468722111939
 21
-12.354904935261169
 31
0.0
  0
LINE
  8
DETAIL
  6
CONTINUOUS
 62
     5
 10
-130.21468722111939
 20
-12.354904935261169
 30
0.0
 11
-130.7294749267553
 21
-11.3649285782692
 31
0.0
  0
LINE
  8
DETAIL
  6
CONTINUOUS
 62
     5
 10
-130.7294749267553
 20
-11.3649285782692
 30
0.0
 11
-131.4818569580691
 21
-10.572947492675439
 31
0.0
  0
LINE
  8
DETAIL
  6
CONTINUOUS
 62
     5
 10
-131.4818569580691
 20
-10.572947492675439
 30
0.0
 11
-132.4718333150613
 21
-10.097758841319321
 31
0.0
  0
LINE
  8
DETAIL
  6
CONTINUOUS
 62
     5
 10
-132.4718333150613
 20
-10.097758841319321
 30
0.0
 11
-133.50140872633301
 21
-10.01856073275985
 31
0.0
  0
LINE
  8
DETAIL
  6
CONTINUOUS
 62
     5
 10
-182.80223130453919
 20
-7.4842212588602024
 30
0.0
 11
-182.72303319597981
 21
-8.1574051816146493
 31
0.0
  0
LINE
  8
DETAIL
  6
CONTINUOUS
 62
     5
 10
-182.72303319597981
 20
-8.1574051816146493
 30
0.0
 11
-182.40624076174231
 21
-8.8701881586490572
 31
0.0
  0
LINE
  8
DETAIL
  6
CONTINUOUS
 62
     5
 10
-182.40624076174231
 20
-8.8701881586490572
 30
0.0
 11
-181.81225494754699
 21
-9.503773027123998
 31
0.0
  0
LINE
  8
DETAIL
  6
CONTINUOUS
 62
     5
 10
-181.81225494754699
 20
-9.503773027123998
 30
0.0
 11
-181.09947197051289
 21
-9.8205654613615252
 31
0.0
  0
LINE
  8
DETAIL
  6
CONTINUOUS
 62
     5
 10
-181.09947197051289
 20
-9.8205654613615252
 30
0.0
 11
-180.3470899391989
 21
-10.01856073275985
 31
0.0
  0
ARC
  8
DETAIL
  6
CONTINUOUS
 62
     5
 10
-150.5044028056071
 20
-112.96899159924369
 30
0.0
 40
1.9998502561829821
 50
90.567266409857567
 51
269.43273359014239
  0
ARC
  8
DETAIL
  6
CONTINUOUS
 62
     5
 10
-162.38273862413919
 20
-17.3560213347663
 30
0.0
 40
2.643594203725621
 50
183.1824443780587
 51
267.71983271551642
  0
ARC
  8
DETAIL
  6
CONTINUOUS
 62
     5
 10
-166.97109510429709
 20
-11.967399904095711
 30
0.0
 40
1.949087521962255
 50
359.08534102305202
 51
90.914658976934959
  0
LINE
  8
OUTLINE
  6
CONTINUOUS
 62
     3
 10
184.90098118136211
 20
-1.8215564968654689
 30
0.0
 11
184.26739631288731
 21
-4.4746931336044327
 31
0.0
  0
LINE
  8
OUTLINE
  6
CONTINUOUS
 62
     3
 10
183.5942123901327
 20
-5.1478770563587659
 30
0.0
 11
-183.59421239013281
 21
-5.1478770563587659
 31
0.0
  0
LINE
  8
OUTLINE
  6
CONTINUOUS
 62
     3
 10
183.51501428157329
 20
0.0
 30
0.0
 11
-183.47541522729381
 21
0.0
 31
0.0
  0
LINE
  8
OUTLINE
  6
CONTINUOUS
 62
     3
 10
-185.01977834420131
 20
-1.8215564968654689
 30
0.0
 11
-184.42579253000611
 21
-4.4746931336044327
 31
0.0
  0
LINE
  8
OUTLINE
  6
CONTINUOUS
 62
     3
 10
184.90098118136211
 20
-1.8215564968654689
 30
0.0
 11
184.98017928992161
 21
-1.267169736949654
 31
0.0
  0
LINE
  8
OUTLINE
  6
CONTINUOUS
 62
     3
 10
184.98017928992161
 20
-1.267169736949654
 30
0.0
 11
184.90098118136211
 21
-0.8711791941530009
 31
0.0
  0
LINE
  8
OUTLINE
  6
CONTINUOUS
 62
     3
 10
184.90098118136211
 20
-0.8711791941530009
 30
0.0
 11
184.5841887471247
 21
-0.4751886513563477
 31
0.0
  0
LINE
  8
OUTLINE
  6
CONTINUOUS
 62
     3
 10
184.5841887471247
 20
-0.4751886513563477
 30
0.0
 11
184.26739631288731
 21
-0.1583962171187068
 31
0.0
  0
LINE
  8
OUTLINE
  6
CONTINUOUS
 62
     3
 10
184.26739631288731
 20
-0.1583962171187068
 30
0.0
 11
183.91100482437011
 21
0.0
 31
0.0
  0
LINE
  8
OUTLINE
  6
CONTINUOUS
 62
     3
 10
183.91100482437011
 20
0.0
 30
0.0
 11
183.51501428157329
 21
0.0
 31
0.0
  0
LINE
  8
OUTLINE
  6
CONTINUOUS
 62
     3
 10
183.5942123901327
 20
-5.1478770563587659
 30
0.0
 11
183.79220766153091
 21
-5.0686789477995262
 31
0.0
  0
LINE
  8
OUTLINE
  6
CONTINUOUS
 62
     3
 10
183.79220766153091
 20
-5.0686789477995262
 30
0.0
 11
184.06940104148879
 21
-4.9894808392400591
 31
0.0
  0
LINE
  8
OUTLINE
  6
CONTINUOUS
 62
     3
 10
184.06940104148879
 20
-4.9894808392400591
 30
0.0
 11
184.1881982043277
 21
-4.7914855678418462
 31
0.0
  0
LINE
  8
OUTLINE
  6
CONTINUOUS
 62
     3
 10
184.1881982043277
 20
-4.7914855678418462
 30
0.0
 11
184.26739631288731
 21
-4.4746931336044327
 31
0.0
  0
LINE
  8
OUTLINE
  6
CONTINUOUS
 62
     3
 10
-183.47541522729381
 20
0.0
 30
0.0
 11
-183.99020293292969
 21
0.0
 31
0.0
  0
LINE
  8
OUTLINE
  6
CONTINUOUS
 62
     3
 10
-183.99020293292969
 20
0.0
 30
0.0
 11
-184.42579253000611
 21
-0.1583962171187068
 31
0.0
  0
LINE
  8
OUTLINE
  6
CONTINUOUS
 62
     3
 10
-184.42579253000611
 20
-0.1583962171187068
 30
0.0
 11
-184.7425849642436
 21
-0.4751886513563477
 31
0.0
  0
LINE
  8
OUTLINE
  6
CONTINUOUS
 62
     3
 10
-184.7425849642436
 20
-0.4751886513563477
 30
0.0
 11
-184.9405802356421
 21
-0.8711791941530009
 31
0.0
  0
LINE
  8
OUTLINE
  6
CONTINUOUS
 62
     3
 10
-184.9405802356421
 20
-0.8711791941530009
 30
0.0
 11
-185.01977834420131
 21
-1.267169736949654
 31
0.0
  0
LINE
  8
OUTLINE
  6
CONTINUOUS
 62
     3
 10
-185.01977834420131
 20
-1.267169736949654
 30
0.0
 11
-185.01977834420131
 21
-1.8215564968654689
 31
0.0
  0
LINE
  8
OUTLINE
  6
CONTINUOUS
 62
     3
 10
-184.42579253000611
 20
-4.4746931336044327
 30
0.0
 11
-184.34659442144689
 21
-4.7914855678418462
 31
0.0
  0
LINE
  8
OUTLINE
  6
CONTINUOUS
 62
     3
 10
-184.34659442144689
 20
-4.7914855678418462
 30
0.0
 11
-184.0694010414891
 21
-4.9894808392400591
 31
0.0
  0
LINE
  8
OUTLINE
  6
CONTINUOUS
 62
     3
 10
-184.0694010414891
 20
-4.9894808392400591
 30
0.0
 11
-183.91100482437039
 21
-5.0686789477995262
 31
0.0
  0
LINE
  8
OUTLINE
  6
CONTINUOUS
 62
     3
 10
-183.91100482437039
 20
-5.0686789477995262
 30
0.0
 11
-183.59421239013281
 21
-5.1478770563587659
 31
0.0
  0
LINE
  8
OUTLINE
  6
CONTINUOUS
 62
     3
 10
182.80223130453899
 20
-5.1478770563587659
 30
0.0
 11
182.80223130453899
 21
-7.4842212588600887
 31
0.0
  0
LINE
  8
OUTLINE
  6
CONTINUOUS
 62
     3
 10
150.48414346226841
 20
-115.0163025184421
 30
0.0
 11
-150.524202332747
 21
-114.96874384036759
 31
0.0
  0
LINE
  8
OUTLINE
  6
CONTINUOUS
 62
     3
 10
150.5237425165484
 20
-111.0167980361944
 30
0.0
 11
-150.524202332747
 21
-110.96923935811949
 31
0.0
  0
LINE
  8
OUTLINE
  6
CONTINUOUS
 62
     3
 10
180.2678918306392
 20
-10.01856073275985
 30
0.0
 11
-180.3470899391989
 21
-10.01856073275985
 31
0.0
  0
LINE
  8
OUTLINE
  6
CONTINUOUS
 62
     3
 10
183.51501428157329
 20
0.0
 30
0.0
 11
-183.47541522729381
 21
0.0
 31
0.0
  0
LINE
  8
OUTLINE
  6
CONTINUOUS
 62
     3
 10
-165.02225593296129
 20
-11.99851344674425
 30
0.0
 11
-165.02225593296129
 21
-17.502781991620171
 31
0.0
  0
LINE
  8
OUTLINE
  6
CONTINUOUS
 62
     3
 10
-182.80223130453919
 20
-5.1478770563587659
 30
0.0
 11
-182.80223130453919
 21
-7.4842212588600887
 31
0.0
  0
LINE
  8
OUTLINE
  6
CONTINUOUS
 62
     3
 10
-143.99515811044921
 20
-111.0171874674727
 30
0.0
 11
-141.61921485366821
 21
-108.08685745077629
 31
0.0
  0
LINE
  8
OUTLINE
  6
CONTINUOUS
 62
     3
 10
-141.61921485366821
 20
-108.08685745077629
 30
0.0
 11
-140.07485173676059
 21
-104.6813387827233
 31
0.0
  0
LINE
  8
OUTLINE
  6
CONTINUOUS
 62
     3
 10
-140.07485173676059
 20
-104.6813387827233
 30
0.0
 11
-139.4808659225653
 21
-98.997635699208786
 31
0.0
  0
LINE
  8
OUTLINE
  6
CONTINUOUS
 62
     3
 10
180.2678918306392
 20
-10.01856073275985
 30
0.0
 11
180.98067480767349
 21
-9.8205654613616389
 31
0.0
  0
LINE
  8
OUTLINE
  6
CONTINUOUS
 62
     3
 10
180.98067480767349
 20
-9.8205654613616389
 30
0.0
 11
181.69345778470779
 21
-9.503773027123998
 31
0.0
  0
LINE
  8
OUTLINE
  6
CONTINUOUS
 62
     3
 10
181.69345778470779
 20
-9.503773027123998
 30
0.0
 11
182.2478445446234
 21
-8.8701881586489435
 31
0.0
  0
LINE
  8
OUTLINE
  6
CONTINUOUS
 62
     3
 10
182.2478445446234
 20
-8.8701881586489435
 30
0.0
 11
182.56463697886099
 21
-8.1574051816146493
 31
0.0
  0
LINE
  8
OUTLINE
  6
CONTINUOUS
 62
     3
 10
182.56463697886099
 20
-8.1574051816146493
 30
0.0
 11
182.80223130453899
 21
-7.4842212588600887
 31
0.0
  0
LINE
  8
OUTLINE
  6
CONTINUOUS
 62
     3
 10
-182.80223130453919
 20
-7.4842212588600887
 30
0.0
 11
-182.72303319597981
 21
-8.1574051816146493
 31
0.0
  0
LINE
  8
OUTLINE
  6
CONTINUOUS
 62
     3
 10
-182.72303319597981
 20
-8.1574051816146493
 30
0.0
 11
-182.40624076174231
 21
-8.8701881586489435
 31
0.0
  0
LINE
  8
OUTLINE
  6
CONTINUOUS
 62
     3
 10
-182.40624076174231
 20
-8.8701881586489435
 30
0.0
 11
-181.81225494754699
 21
-9.503773027123998
 31
0.0
  0
LINE
  8
OUTLINE
  6
CONTINUOUS
 62
     3
 10
-181.81225494754699
 20
-9.503773027123998
 30
0.0
 11
-181.09947197051289
 21
-9.8205654613616389
 31
0.0
  0
LINE
  8
OUTLINE
  6
CONTINUOUS
 62
     3
 10
-181.09947197051289
 20
-9.8205654613616389
 30
0.0
 11
-180.3470899391989
 21
-10.01856073275985
 31
0.0
  0
ARC
  8
OUTLINE
  6
CONTINUOUS
 62
     3
 10
-150.5044028056071
 20
-112.96899159924379
 30
0.0
 40
1.9998502561829821
 50
90.567266409857567
 51
269.43273359014239
  0
ARC
  8
OUTLINE
  6
CONTINUOUS
 62
     3
 10
-162.38273862413919
 20
-17.35602133476641
 30
0.0
 40
2.643594203725621
 50
183.1824443780587
 51
267.71983271551642
  0
ARC
  8
OUTLINE
  6
CONTINUOUS
 62
     3
 10
-166.97109510429709
 20
-11.967399904095601
 30
0.0
 40
1.949087521962255
 50
359.08534102306498
 51
90.914658976934959
  0
LINE
  8
OUTLINE
  6
CONTINUOUS
 62
     3
 10
-153.02374248621709
 20
-19.997522411240201
 30
0.0
 11
-162.27756078921399
 21
-19.997522411240201
 31
0.0
  0
LINE
  8
DETAIL
  6
CONTINUOUS
 62
     5
 10
139.08487537976839
 20
-10.493749384116089
 30
0.0
 11
150.92499260939371
 21
-10.493749384116089
 31
0.0
  0
LINE
  8
DETAIL
  6
CONTINUOUS
 62
     5
 10
139.08487537976839
 20
-10.493749384116089
 30
0.0
 11
139.08487537976839
 21
-10.01856073275985
 31
0.0
  0
LINE
  8
DETAIL
  6
CONTINUOUS
 62
     5
 10
150.92499260939371
 20
-10.493749384116089
 30
0.0
 11
150.92499260939371
 21
-10.01856073275985
 31
0.0
  0
LINE
  8
DETAIL
  6
CONTINUOUS
 62
     5
 10
150.92499260939371
 20
-10.493749384116089
 30
0.0
 11
148.94503989540951
 21
-12.077711555303379
 31
0.0
  0
LINE
  8
DETAIL
  6
CONTINUOUS
 62
     5
 10
148.94503989540951
 20
-12.077711555303379
 30
0.0
 11
146.4107004215098
 21
-12.86969264089714
 31
0.0
  0
LINE
  8
DETAIL
  6
CONTINUOUS
 62
     5
 10
146.4107004215098
 20
-12.86969264089714
 30
0.0
 11
143.7179647304915
 21
-12.86969264089714
 31
0.0
  0
LINE
  8
DETAIL
  6
CONTINUOUS
 62
     5
 10
143.7179647304915
 20
-12.86969264089714
 30
0.0
 11
141.2232243108713
 21
-12.077711555303379
 31
0.0
  0
LINE
  8
DETAIL
  6
CONTINUOUS
 62
     5
 10
141.2232243108713
 20
-12.077711555303379
 30
0.0
 11
139.08487537976839
 21
-10.493749384116089
 31
0.0
  0
LINE
  8
DETAIL
  6
CONTINUOUS
 62
     5
 10
130.01669194972101
 20
-13.503277509372079
 30
0.0
 11
130.01669194972101
 21
-16.47320658034835
 31
0.0
  0
LINE
  8
DETAIL
  6
CONTINUOUS
 62
     5
 10
165.02225593296129
 20
-11.998513446744139
 30
0.0
 11
165.02225593296129
 21
-17.502781991620171
 31
0.0
  0
LINE
  8
DETAIL
  6
CONTINUOUS
 62
     5
 10
130.01669194972101
 20
-16.47320658034835
 30
0.0
 11
129.93749384116151
 21
-17.502781991620171
 31
0.0
  0
LINE
  8
DETAIL
  6
CONTINUOUS
 62
     5
 10
129.93749384116151
 20
-17.502781991620171
 30
0.0
 11
129.42270613552569
 21
-18.492758348612259
 31
0.0
  0
LINE
  8
DETAIL
  6
CONTINUOUS
 62
     5
 10
129.42270613552569
 20
-18.492758348612259
 30
0.0
 11
128.59112599565239
 21
-19.28473943420579
 31
0.0
  0
LINE
  8
DETAIL
  6
CONTINUOUS
 62
     5
 10
128.59112599565239
 20
-19.28473943420579
 30
0.0
 11
127.6011496386602
 21
-19.799527139841761
 31
0.0
  0
LINE
  8
DETAIL
  6
CONTINUOUS
 62
     5
 10
127.6011496386602
 20
-19.799527139841761
 30
0.0
 11
126.492376118829
 21
-19.997522411240201
 31
0.0
  0
LINE
  8
DETAIL
  6
CONTINUOUS
 62
     5
 10
130.01669194972101
 20
-13.503277509372079
 30
0.0
 11
130.21468722111919
 21
-12.354904935261169
 31
0.0
  0
LINE
  8
DETAIL
  6
CONTINUOUS
 62
     5
 10
130.21468722111919
 20
-12.354904935261169
 30
0.0
 11
130.7294749267553
 21
-11.3649285782692
 31
0.0
  0
LINE
  8
DETAIL
  6
CONTINUOUS
 62
     5
 10
130.7294749267553
 20
-11.3649285782692
 30
0.0
 11
131.4818569580691
 21
-10.572947492675439
 31
0.0
  0
LINE
  8
DETAIL
  6
CONTINUOUS
 62
     5
 10
131.4818569580691
 20
-10.572947492675439
 30
0.0
 11
132.4718333150613
 21
-10.097758841319321
 31
0.0
  0
LINE
  8
DETAIL
  6
CONTINUOUS
 62
     5
 10
132.4718333150613
 20
-10.097758841319321
 30
0.0
 11
133.50140872633301
 21
-10.01856073275985
 31
0.0
  0
ARC
  8
DETAIL
  6
CONTINUOUS
 62
     5
 10
150.5039429894083
 20
-113.0165502773182
 30
0.0
 40
1.9998502561829821
 50
270.56726640985761
 51
89.432733590142448
  0
ARC
  8
DETAIL
  6
CONTINUOUS
 62
     5
 10
162.38273862413919
 20
-17.3560213347663
 30
0.0
 40
2.643594203725621
 50
272.28016728448358
 51
356.81755562194132
  0
ARC
  8
DETAIL
  6
CONTINUOUS
 62
     5
 10
166.97109510429709
 20
-11.967399904095711
 30
0.0
 40
1.949087521962255
 50
89.085341023065055
 51
180.914658976948
  0
LINE
  8
OUTLINE
  6
CONTINUOUS
 62
     3
 10
165.02225593296129
 20
-11.99851344674425
 30
0.0
 11
165.02225593296129
 21
-17.502781991620171
 31
0.0
  0
ARC
  8
OUTLINE
  6
CONTINUOUS
 62
     3
 10
150.5039429894083
 20
-113.0165502773183
 30
0.0
 40
1.9998502561829821
 50
270.56726640985761
 51
89.432733590142448
  0
ARC
  8
OUTLINE
  6
CONTINUOUS
 62
     3
 10
162.38273862413919
 20
-17.35602133476641
 30
0.0
 40
2.643594203725621
 50
272.28016728448358
 51
356.81755562194132
  0
ARC
  8
OUTLINE
  6
CONTINUOUS
 62
     3
 10
166.97109510429709
 20
-11.967399904095601
 30
0.0
 40
1.949087521962255
 50
89.085341023065055
 51
180.9146589769349
  0
LINE
  8
OUTLINE
  6
CONTINUOUS
 62
     3
 10
153.02374248621709
 20
-19.997522411240201
 30
0.0
 11
162.27756078921399
 21
-19.997522411240201
 31
0.0
  0
LINE
  8
SIZE
  6
CONTINUOUS
 62
    30
 10
-185.13065569618431
 20
18.178443503134641
 30
0.0
 11
-185.13065569618431
 21
318.18209368429689
 31
0.0
  0
LINE
  8
SIZE
  6
CONTINUOUS
 62
    30
 10
185.09105664190491
 20
18.178443503134641
 30
0.0
 11
185.09105664190491
 21
318.18209368429689
 31
0.0
  0
LINE
  8
SIZE
  6
CONTINUOUS
 62
    30
 10
-173.13065569618431
 20
298.18209368429689
 30
0.0
 11
173.091056641905
 21
298.18209368429689
 31
0.0
  0
CIRCLE
  8
SIZE
  6
CONTINUOUS
 62
    30
 10
-185.13065569618431
 20
298.18209368429689
 30
0.0
 40
6.0
  0
LINE
  8
SIZE
  6
CONTINUOUS
 62
    30
 10
-185.13065569618431
 20
298.18209368429689
 30
0.0
 11
-173.13065569618431
 21
298.18209368429689
 31
0.0
  0
CIRCLE
  8
SIZE
  6
CONTINUOUS
 62
    30
 10
185.09105664190491
 20
298.18209368429689
 30
0.0
 40
6.0
  0
LINE
  8
SIZE
  6
CONTINUOUS
 62
    30
 10
185.09105664190491
 20
298.18209368429689
 30
0.0
 11
173.091056641905
 21
298.18209368429689
 31
0.0
  0
TEXT
  8
SIZE
  6
CONTINUOUS
 62
    30
 10
-75.936782845917065
 20
323.18209368429689
 30
0.0
 40
64.0
  1
370
 41
0.9
 72
     1
 11
-1.879639988774215
 21
323.18209368429689
 31
0.0
  0
POINT
  8
DEFPOINTS
  6
CONTINUOUS
 62
    30
 10
-185.13065569618431
 20
-1.821556496865355
 30
0.0
  0
POINT
  8
DEFPOINTS
  6
CONTINUOUS
 62
    30
 10
185.09105664190491
 20
-1.821556496865355
 30
0.0
  0
POINT
  8
DEFPOINTS
  6
CONTINUOUS
 62
    30
 10
185.09105664190491
 20
298.18209368429689
 30
0.0
  0
CIRCLE
  8
FIX
  6
CONTINUOUS
 62
    11
 10
165.0
 20
0.0
 30
0.0
 40
5.0
  0
CIRCLE
  8
FIX
  6
CONTINUOUS
 62
    11
 10
-165.0
 20
0.0
 30
0.0
 40
5.0
  0
LINE
  8
NOTE
  6
CONTINUOUS
 62
     4
 10
165.0
 20
-10.72024241776171
 30
0.0
 11
165.0
 21
10.72024241776171
 31
0.0
  0
LINE
  8
NOTE
  6
CONTINUOUS
 62
     4
 10
-165.0
 20
-10.72024241776171
 30
0.0
 11
-165.0
 21
10.72024241776171
 31
0.0
  0
LINE
  8
SIZE
  6
CONTINUOUS
 62
    30
 10
-165.0
 20
30.72024241776171
 30
0.0
 11
-165.0
 21
170.54577765681921
 31
0.0
  0
LINE
  8
SIZE
  6
CONTINUOUS
 62
    30
 10
165.0
 20
30.72024241776171
 30
0.0
 11
165.0
 21
170.54577765681921
 31
0.0
  0
LINE
  8
SIZE
  6
CONTINUOUS
 62
    30
 10
-153.0
 20
150.54577765681921
 30
0.0
 11
153.0
 21
150.54577765681921
 31
0.0
  0
CIRCLE
  8
SIZE
  6
CONTINUOUS
 62
    30
 10
-165.0
 20
150.54577765681921
 30
0.0
 40
6.0
  0
LINE
  8
SIZE
  6
CONTINUOUS
 62
    30
 10
-165.0
 20
150.54577765681921
 30
0.0
 11
-153.0
 21
150.54577765681921
 31
0.0
  0
CIRCLE
  8
SIZE
  6
CONTINUOUS
 62
    30
 10
165.0
 20
150.54577765681921
 30
0.0
 40
6.0
  0
LINE
  8
SIZE
  6
CONTINUOUS
 62
    30
 10
165.0
 20
150.54577765681921
 30
0.0
 11
153.0
 21
150.54577765681921
 31
0.0
  0
TEXT
  8
SIZE
  6
CONTINUOUS
 62
    30
 10
-70.257013582166948
 20
175.54577765681921
 30
0.0
 40
64.0
  1
330
 41
0.9
 72
     1
 11
3.8001292749759159
 21
175.54577765681921
 31
0.0
  0
POINT
  8
DEFPOINTS
  6
CONTINUOUS
 62
    30
 10
-165.0
 20
10.72024241776171
 30
0.0
  0
POINT
  8
DEFPOINTS
  6
CONTINUOUS
 62
    30
 10
165.0
 20
10.72024241776171
 30
0.0
  0
POINT
  8
DEFPOINTS
  6
CONTINUOUS
 62
    30
 10
165.0
 20
150.54577765681921
 30
0.0
  0
LINE
  8
SIZE
  6
CONTINUOUS
 62
    30
 10
-152.50425306179011
 20
-132.96899159924371
 30
0.0
 11
-152.50425306179011
 21
-287.23500355117079
 31
0.0
  0
LINE
  8
SIZE
  6
CONTINUOUS
 62
    30
 10
152.50379324559131
 20
-133.01655027731829
 30
0.0
 11
152.50379324559131
 21
-287.23500355117079
 31
0.0
  0
LINE
  8
SIZE
  6
CONTINUOUS
 62
    30
 10
-140.50425306179011
 20
-267.23500355117079
 30
0.0
 11
140.50379324559131
 21
-267.23500355117079
 31
0.0
  0
CIRCLE
  8
SIZE
  6
CONTINUOUS
 62
    30
 10
-152.50425306179011
 20
-267.23500355117079
 30
0.0
 40
6.0
  0
LINE
  8
SIZE
  6
CONTINUOUS
 62
    30
 10
-152.50425306179011
 20
-267.23500355117079
 30
0.0
 11
-140.50425306179011
 21
-267.23500355117079
 31
0.0
  0
CIRCLE
  8
SIZE
  6
CONTINUOUS
 62
    30
 10
152.50379324559131
 20
-267.23500355117079
 30
0.0
 40
6.0
  0
LINE
  8
SIZE
  6
CONTINUOUS
 62
    30
 10
152.50379324559131
 20
-267.23500355117079
 30
0.0
 11
140.50379324559131
 21
-267.23500355117079
 31
0.0
  0
TEXT
  8
SIZE
  6
CONTINUOUS
 62
    30
 10
-120.9672046489261
 20
-231.56833688450419
 30
0.0
 40
64.0
  1
φ305
 41
0.9
 72
     1
 11
-6.5900617917832278
 21
-231.56833688450419
 31
0.0
  0
POINT
  8
DEFPOINTS
  6
CONTINUOUS
 62
    30
 10
-152.50425306179011
 20
-112.96899159924369
 30
0.0
  0
POINT
  8
DEFPOINTS
  6
CONTINUOUS
 62
    30
 10
152.50379324559131
 20
-113.0165502773183
 30
0.0
  0
POINT
  8
DEFPOINTS
  6
CONTINUOUS
 62
    30
 10
152.50379324559131
 20
-267.23500355117079
 30
0.0
  0
LINE
  8
SIZE
  6
CONTINUOUS
 62
    30
 10
245.66933588690969
 20
0.0
 30
0.0
 11
662.68594252985486
 21
-0.0000000000001137
 31
0.0
  0
LINE
  8
SIZE
  6
CONTINUOUS
 62
    30
 10
170.48414346226841
 20
-115.0163025184421
 30
0.0
 11
662.68594252985486
 21
-115.0163025184423
 31
0.0
  0
LINE
  8
SIZE
  6
CONTINUOUS
 62
    30
 10
642.68594252985486
 20
-12.00000000000011
 30
0.0
 11
642.68594252985486
 21
-103.0163025184423
 31
0.0
  0
LINE
  8
SIZE
  6
CONTINUOUS
 62
    30
 10
642.68594252985486
 20
-115.0163025184423
 30
0.0
 11
642.68594252985474
 21
-303.18773108987091
 31
0.0
  0
CIRCLE
  8
SIZE
  6
CONTINUOUS
 62
    30
 10
642.68594252985486
 20
-0.0000000000001137
 30
0.0
 40
6.0
  0
LINE
  8
SIZE
  6
CONTINUOUS
 62
    30
 10
642.68594252985486
 20
-0.0000000000001137
 30
0.0
 11
642.68594252985486
 21
-12.00000000000011
 31
0.0
  0
CIRCLE
  8
SIZE
  6
CONTINUOUS
 62
    30
 10
642.68594252985486
 20
-115.0163025184423
 30
0.0
 40
6.0
  0
LINE
  8
SIZE
  6
CONTINUOUS
 62
    30
 10
642.68594252985486
 20
-115.0163025184423
 30
0.0
 11
642.68594252985486
 21
-103.0163025184423
 31
0.0
  0
TEXT
  8
SIZE
  6
CONTINUOUS
 62
    30
 10
617.68594252985486
 20
-278.18773108987068
 30
0.0
 40
64.0
  1
115
 50
90.0
 41
0.9
 72
     1
 11
617.68594252985486
 21
-215.10201680415639
 31
0.0
  0
POINT
  8
DEFPOINTS
  6
CONTINUOUS
 62
    30
 10
225.66933588690969
 20
0.0
 30
0.0
  0
POINT
  8
DEFPOINTS
  6
CONTINUOUS
 62
    30
 10
150.48414346226841
 20
-115.0163025184421
 30
0.0
  0
POINT
  8
DEFPOINTS
  6
CONTINUOUS
 62
    30
 10
642.68594252985486
 20
-115.0163025184423
 30
0.0
  0
LINE
  8
SIZE
  6
CONTINUOUS
 62
    30
 10
-245.66933588690969
 20
0.0
 30
0.0
 11
-286.72481091292588
 21
0.0000000000000568
 31
0.0
  0
LINE
  8
SIZE
  6
CONTINUOUS
 62
    30
 10
-200.3470899391989
 20
-10.01856073275985
 30
0.0
 11
-286.72481091292588
 21
-10.01856073275979
 31
0.0
  0
LINE
  8
SIZE
  6
CONTINUOUS
 62
    30
 10
-266.72481091292588
 20
-22.018560732759791
 30
0.0
 11
-266.72481091292588
 21
-34.018560732759852
 31
0.0
  0
LINE
  8
SIZE
  6
CONTINUOUS
 62
    30
 10
-266.72481091292588
 20
12.0
 30
0.0
 11
-266.72481091292588
 21
156.28571428571431
 31
0.0
  0
LINE
  8
SIZE
  6
CONTINUOUS
 62
    30
 10
-266.72481091292588
 20
-10.01856073275979
 30
0.0
 11
-266.72481091292588
 21
0.0000000000000568
 31
0.0
  0
CIRCLE
  8
SIZE
  6
CONTINUOUS
 62
    30
 10
-266.72481091292588
 20
-10.01856073275979
 30
0.0
 40
6.0
  0
LINE
  8
SIZE
  6
CONTINUOUS
 62
    30
 10
-266.72481091292588
 20
-10.01856073275979
 30
0.0
 11
-266.72481091292588
 21
-22.018560732759791
 31
0.0
  0
CIRCLE
  8
SIZE
  6
CONTINUOUS
 62
    30
 10
-266.72481091292588
 20
0.0000000000000568
 30
0.0
 40
6.0
  0
LINE
  8
SIZE
  6
CONTINUOUS
 62
    30
 10
-266.72481091292588
 20
0.0000000000000568
 30
0.0
 11
-266.72481091292588
 21
12.00000000000006
 31
0.0
  0
TEXT
  8
SIZE
  6
CONTINUOUS
 62
    30
 10
-291.72481091292588
 20
48.999999999999972
 30
0.0
 40
64.0
  1
10
 50
90.0
 41
0.9
 72
     1
 11
-291.72481091292588
 21
90.14285714285711
 31
0.0
  0
POINT
  8
DEFPOINTS
  6
CONTINUOUS
 62
    30
 10
-225.66933588690969
 20
0.0
 30
0.0
  0
POINT
  8
DEFPOINTS
  6
CONTINUOUS
 62
    30
 10
-180.3470899391989
 20
-10.01856073275985
 30
0.0
  0
POINT
  8
DEFPOINTS
  6
CONTINUOUS
 62
    30
 10
-266.72481091292588
 20
-10.01856073275979
 30
0.0
  0
LINE
  8
SIZE
  6
CONTINUOUS
 62
    30
 10
-200.3470899391989
 20
-10.01856073275985
 30
0.0
 11
-286.72481091292588
 21
-10.01856073275979
 31
0.0
  0
LINE
  8
SIZE
  6
CONTINUOUS
 62
    30
 10
-182.27756078921399
 20
-19.997522411240201
 30
0.0
 11
-286.72481091292588
 21
-19.997522411240141
 31
0.0
  0
LINE
  8
SIZE
  6
CONTINUOUS
 62
    30
 10
-266.72481091292588
 20
1.981439267240205
 30
0.0
 11
-266.72481091292588
 21
13.98143926724021
 31
0.0
  0
LINE
  8
SIZE
  6
CONTINUOUS
 62
    30
 10
-266.72481091292588
 20
-31.997522411240141
 30
0.0
 11
-266.72481091292599
 21
-230.8185194311302
 31
0.0
  0
LINE
  8
SIZE
  6
CONTINUOUS
 62
    30
 10
-266.72481091292588
 20
-10.01856073275979
 30
0.0
 11
-266.72481091292588
 21
-19.997522411240141
 31
0.0
  0
CIRCLE
  8
SIZE
  6
CONTINUOUS
 62
    30
 10
-266.72481091292588
 20
-10.01856073275979
 30
0.0
 40
6.0
  0
LINE
  8
SIZE
  6
CONTINUOUS
 62
    30
 10
-266.72481091292588
 20
-10.01856073275979
 30
0.0
 11
-266.72481091292588
 21
1.981439267240205
 31
0.0
  0
CIRCLE
  8
SIZE
  6
CONTINUOUS
 62
    30
 10
-266.72481091292588
 20
-19.997522411240141
 30
0.0
 40
6.0
  0
LINE
  8
SIZE
  6
CONTINUOUS
 62
    30
 10
-266.72481091292588
 20
-19.997522411240141
 30
0.0
 11
-266.72481091292588
 21
-31.997522411240141
 31
0.0
  0
TEXT
  8
SIZE
  6
CONTINUOUS
 62
    30
 10
-291.72481091292588
 20
-205.8185194311302
 30
0.0
 40
64.0
  1
10
 50
90.0
 41
0.9
 72
     1
 11
-291.72481091292588
 21
-164.67566228827309
 31
0.0
  0
POINT
  8
DEFPOINTS
  6
CONTINUOUS
 62
    30
 10
-180.3470899391989
 20
-10.01856073275985
 30
0.0
  0
POINT
  8
DEFPOINTS
  6
CONTINUOUS
 62
    30
 10
-162.27756078921399
 20
-19.997522411240201
 30
0.0
  0
POINT
  8
DEFPOINTS
  6
CONTINUOUS
 62
    30
 10
-266.72481091292588
 20
-19.997522411240141
 30
0.0
  0
TEXT
  8
NOTE
  6
CONTINUOUS
 62
     4
 10
243.40562389116349
 20
98.129061056749379
 30
0.0
 40
64.0
  1
4-φ10
 41
0.9
  0
LINE
  8
DETAIL
  6
CONTINUOUS
 62
     4
 10
170.45752295815871
 20
2.9665034048809962
 30
0.0
 11
165.0
 21
0.0
 31
0.0
  0
LINE
  8
DETAIL
  6
CONTINUOUS
 62
     4
 10
165.0
 20
0.0
 30
0.0
 11
168.24309383752819
 21
5.2978336752852897
 31
0.0
  0
LINE
  8
DETAIL
  6
CONTINUOUS
 62
     4
 10
165.0
 20
0.0
 30
0.0
 11
173.70061679568701
 21
8.2643370801662286
 31
0.0
  0
LINE
  8
NOTE
  6
CONTINUOUS
 62
     4
 10
173.70061679568701
 20
8.2643370801662286
 30
0.0
 11
223.21731636032109
 21
55.651507573754941
 31
0.0
  0
LINE
  8
NOTE
  6
CONTINUOUS
 62
     4
 10
223.21731636032109
 20
55.651507573754941
 30
0.0
 11
529.01731636032105
 21
55.651507573754941
 31
0.0
  0
LINE
  8
DETAIL
  6
CONTINUOUS
 62
     5
 10
0.0
 20
-10.4869738116322
 30
0.0
 11
0.0
 21
6.0982543590712339
 31
0.0
  0
LINE
  8
DETAIL
  6
CONTINUOUS
 62
     5
 10
163.99268052168921
 20
-94.008154859968727
 30
0.0
 11
163.99268052168901
 21
-97.572069745140197
 31
0.0
  0
LINE
  8
DETAIL
  6
CONTINUOUS
 62
     5
 10
162.17112402482371
 20
-21.581484582427489
 30
0.0
 11
162.17112402482371
 21
-61.0221426449923
 31
0.0
  0
LINE
  8
DETAIL
  6
CONTINUOUS
 62
     5
 10
162.17112402482371
 20
-69.02115160948847
 30
0.0
 11
162.17112402482371
 21
-90.998626734712843
 31
0.0
  0
LINE
  8
DETAIL
  6
CONTINUOUS
 62
     5
 10
162.05232686198471
 20
-69.02115160948847
 30
0.0
 11
162.05232686198471
 21
-90.998626734712843
 31
0.0
  0
LINE
  8
DETAIL
  6
CONTINUOUS
 62
     5
 10
161.57713821062859
 20
-21.581484582427489
 30
0.0
 11
161.57713821062859
 21
-22.01707417950411
 31
0.0
  0
LINE
  8
DETAIL
  6
CONTINUOUS
 62
     5
 10
157.77562899977869
 20
-10.01856073275985
 30
0.0
 11
157.77562899977869
 21
-10.4937493841162
 31
0.0
  0
LINE
  8
DETAIL
  6
CONTINUOUS
 62
     5
 10
150.88539355511401
 20
-11.00853708975183
 30
0.0
 11
150.88539355511401
 21
-10.4937493841162
 31
0.0
  0
LINE
  8
DETAIL
  6
CONTINUOUS
 62
     5
 10
149.56170948119441
 20
-23.588308319073349
 30
0.0
 11
149.4994266553251
 21
-12.077711555303271
 31
0.0
  0
LINE
  8
DETAIL
  6
CONTINUOUS
 62
     5
 10
149.26183232964681
 20
-99.472824350565133
 30
0.0
 11
149.26183232964681
 21
-98.997635699208786
 31
0.0
  0
LINE
  8
DETAIL
  6
CONTINUOUS
 62
     5
 10
147.08388434426431
 20
-13.265683183693911
 30
0.0
 11
147.08388434426431
 21
-15.998017928992111
 31
0.0
  0
LINE
  8
DETAIL
  6
CONTINUOUS
 62
     5
 10
146.6878938014676
 20
-13.34488129225338
 30
0.0
 11
146.6878938014676
 21
-15.998017928992111
 31
0.0
  0
LINE
  8
DETAIL
  6
CONTINUOUS
 62
     5
 10
144.5891439246443
 20
-101.4923761188288
 30
0.0
 11
144.5891439246443
 21
-101.0963855760322
 31
0.0
  0
LINE
  8
DETAIL
  6
CONTINUOUS
 62
     5
 10
139.9164555196414
 20
-99.472824350565133
 30
0.0
 11
139.9164555196414
 21
-98.997635699208786
 31
0.0
  0
LINE
  8
DETAIL
  6
CONTINUOUS
 62
     5
 10
139.04527632548869
 20
-11.00853708975183
 30
0.0
 11
139.04527632548869
 21
-10.4937493841162
 31
0.0
  0
LINE
  8
DETAIL
  6
CONTINUOUS
 62
     5
 10
136.51093685158889
 20
-11.00853708975183
 30
0.0
 11
136.51093685158889
 21
-15.998017928992111
 31
0.0
  0
LINE
  8
DETAIL
  6
CONTINUOUS
 62
     5
 10
133.9765973776891
 20
-30.016083144000049
 30
0.0
 11
133.97659737768899
 21
-10.01856073275974
 31
0.0
  0
LINE
  8
DETAIL
  6
CONTINUOUS
 62
     5
 10
133.58060683489231
 20
-30.016083144000049
 30
0.0
 11
133.5014087263329
 21
-10.01856073275974
 31
0.0
  0
LINE
  8
DETAIL
  6
CONTINUOUS
 62
     5
 10
125.10640921904
 20
-90.998626734712843
 30
0.0
 11
120.6713151397155
 21
-97.176079202343317
 31
0.0
  0
LINE
  8
DETAIL
  6
CONTINUOUS
 62
     5
 10
125.10640921904
 20
-23.997026893488059
 30
0.0
 11
125.10640921904
 21
-90.998626734712843
 31
0.0
  0
LINE
  8
DETAIL
  6
CONTINUOUS
 62
     5
 10
120.59211703115599
 20
-20.987498768232399
 30
0.0
 11
120.59211703115599
 21
-97.176079202343317
 31
0.0
  0
LINE
  8
DETAIL
  6
CONTINUOUS
 62
     5
 10
119.52294256560459
 20
-98.997635699208786
 30
0.0
 11
119.52294256560459
 21
-98.166055559335518
 31
0.0
  0
LINE
  8
DETAIL
  6
CONTINUOUS
 62
     5
 10
119.52294256560459
 20
-19.997522411240201
 30
0.0
 11
119.52294256560459
 21
-20.789503496833731
 31
0.0
  0
LINE
  8
DETAIL
  6
CONTINUOUS
 62
     5
 10
118.2557728286547
 20
-97.374074473741985
 30
0.0
 11
118.2557728286547
 21
-20.987498768232399
 31
0.0
  0
LINE
  8
DETAIL
  6
CONTINUOUS
 62
     5
 10
94.892330803641244
 20
-21.581484582427489
 30
0.0
 11
94.892330803641244
 21
-22.09627228806357
 31
0.0
  0
LINE
  8
DETAIL
  6
CONTINUOUS
 62
     5
 10
93.981552555208737
 20
-22.09627228806357
 30
0.0
 11
93.981552555208737
 21
-25.50179095611611
 31
0.0
  0
LINE
  8
DETAIL
  6
CONTINUOUS
 62
     5
 10
149.26183232964681
 20
-99.472824350565133
 30
0.0
 11
139.9164555196414
 21
-99.472824350565133
 31
0.0
  0
LINE
  8
DETAIL
  6
CONTINUOUS
 62
     5
 10
162.92350605613771
 20
-98.997635699208786
 30
0.0
 11
94.10034971804771
 21
-98.997635699208786
 31
0.0
  0
LINE
  8
DETAIL
  6
CONTINUOUS
 62
     5
 10
120.6713151397155
 20
-97.176079202343317
 30
0.0
 11
118.2557728286547
 21
-97.176079202343317
 31
0.0
  0
LINE
  8
DETAIL
  6
CONTINUOUS
 62
     5
 10
92.912378089657295
 20
-97.176079202343317
 30
0.0
 11
92.516387546860415
 21
-97.176079202343317
 31
0.0
  0
LINE
  8
DETAIL
  6
CONTINUOUS
 62
     5
 10
161.893930644866
 20
-90.998626734712843
 30
0.0
 11
125.10640921904
 21
-90.998626734712843
 31
0.0
  0
LINE
  8
DETAIL
  6
CONTINUOUS
 62
     5
 10
92.912378089657295
 20
-97.374074473741985
 30
0.0
 11
92.912378089657295
 21
-97.176079202343317
 31
0.0
  0
LINE
  8
DETAIL
  6
CONTINUOUS
 62
     5
 10
92.516387546860415
 20
-97.176079202343317
 30
0.0
 11
92.516387546860415
 21
-25.50179095611611
 31
0.0
  0
LINE
  8
DETAIL
  6
CONTINUOUS
 62
     5
 10
90.972024429952626
 20
-22.09627228806357
 30
0.0
 11
90.972024429952626
 21
-25.50179095611611
 31
0.0
  0
LINE
  8
DETAIL
  6
CONTINUOUS
 62
     5
 10
90.100845235799625
 20
-21.581484582427489
 30
0.0
 11
90.100845235799625
 21
-22.09627228806357
 31
0.0
  0
LINE
  8
DETAIL
  6
CONTINUOUS
 62
     5
 10
85.665751156475153
 20
-20.789503496833731
 30
0.0
 11
85.665751156475153
 21
-19.997522411240201
 31
0.0
  0
LINE
  8
DETAIL
  6
CONTINUOUS
 62
     5
 10
93.981552555208737
 20
-25.50179095611611
 30
0.0
 11
90.972024429952626
 21
-25.50179095611611
 31
0.0
  0
LINE
  8
DETAIL
  6
CONTINUOUS
 62
     5
 10
94.892330803641244
 20
-22.09627228806357
 30
0.0
 11
90.100845235799625
 21
-22.09627228806357
 31
0.0
  0
LINE
  8
DETAIL
  6
CONTINUOUS
 62
     5
 10
161.57713821062859
 20
-22.01707417950411
 30
0.0
 11
162.05232686198471
 21
-22.01707417950411
 31
0.0
  0
LINE
  8
DETAIL
  6
CONTINUOUS
 62
     5
 10
122.96806028793711
 20
-20.987498768232399
 30
0.0
 11
95.090326075039911
 21
-20.987498768232399
 31
0.0
  0
LINE
  8
DETAIL
  6
CONTINUOUS
 62
     5
 10
103.0893350395359
 20
-20.789503496833731
 30
0.0
 11
85.665751156475153
 21
-20.789503496833731
 31
0.0
  0
LINE
  8
DETAIL
  6
CONTINUOUS
 62
     5
 10
162.4879164590611
 20
-19.997522411240421
 30
0.0
 11
149.4994266553251
 21
-19.997522411240201
 31
0.0
  0
LINE
  8
DETAIL
  6
CONTINUOUS
 62
     5
 10
133.58060683489231
 20
-19.997522411240201
 30
0.0
 11
-149.49942665532541
 21
-20.353913899757341
 31
0.0
  0
LINE
  8
DETAIL
  6
CONTINUOUS
 62
     5
 10
145.57912028163631
 20
-18.017569697256022
 30
0.0
 11
137.89690375137769
 21
-18.017569697256022
 31
0.0
  0
LINE
  8
DETAIL
  6
CONTINUOUS
 62
     5
 10
150.88539355511401
 20
-11.00853708975183
 30
0.0
 11
139.04527632548869
 21
-11.00853708975183
 31
0.0
  0
LINE
  8
DETAIL
  6
CONTINUOUS
 62
     5
 10
157.77562899977869
 20
-10.4937493841162
 30
0.0
 11
134.25379075764681
 21
-10.4937493841162
 31
0.0
  0
LINE
  8
DETAIL
  6
CONTINUOUS
 62
     5
 10
183.51501428157329
 20
0.0
 30
0.0
 11
-183.47541522729381
 21
0.0
 31
0.0
  0
LINE
  8
DETAIL
  6
CONTINUOUS
 62
     5
 10
139.9164555196414
 20
-99.472824350565133
 30
0.0
 11
141.57961579938839
 21
-100.70039503323549
 31
0.0
  0
LINE
  8
DETAIL
  6
CONTINUOUS
 62
     5
 10
141.57961579938839
 20
-100.70039503323549
 30
0.0
 11
143.51996945909289
 21
-101.3735789559898
 31
0.0
  0
LINE
  8
DETAIL
  6
CONTINUOUS
 62
     5
 10
143.51996945909289
 20
-101.3735789559898
 30
0.0
 11
145.57912028163631
 21
-101.3735789559898
 31
0.0
  0
LINE
  8
DETAIL
  6
CONTINUOUS
 62
     5
 10
145.57912028163631
 20
-101.3735789559898
 30
0.0
 11
147.59867204990019
 21
-100.70039503323549
 31
0.0
  0
LINE
  8
DETAIL
  6
CONTINUOUS
 62
     5
 10
147.59867204990019
 20
-100.70039503323549
 30
0.0
 11
149.26183232964681
 21
-99.472824350565133
 31
0.0
  0
LINE
  8
DETAIL
  6
CONTINUOUS
 62
     5
 10
139.04527632548869
 20
-11.00853708975183
 30
0.0
 11
141.06482809375231
 21
-12.55290020665961
 31
0.0
  0
LINE
  8
DETAIL
  6
CONTINUOUS
 62
     5
 10
141.06482809375231
 20
-12.55290020665961
 30
0.0
 11
143.5991675676521
 21
-13.34488129225338
 31
0.0
  0
LINE
  8
DETAIL
  6
CONTINUOUS
 62
     5
 10
143.5991675676521
 20
-13.34488129225338
 30
0.0
 11
146.25230420439081
 21
-13.34488129225338
 31
0.0
  0
LINE
  8
DETAIL
  6
CONTINUOUS
 62
     5
 10
146.25230420439081
 20
-13.34488129225338
 30
0.0
 11
148.7866436782908
 21
-12.55290020665961
 31
0.0
  0
LINE
  8
DETAIL
  6
CONTINUOUS
 62
     5
 10
148.7866436782908
 20
-12.55290020665961
 30
0.0
 11
150.88539355511401
 21
-11.00853708975183
 31
0.0
  0
LINE
  8
DETAIL
  6
CONTINUOUS
 62
     5
 10
90.100845235799625
 20
-21.581484582427489
 30
0.0
 11
89.982048072960652
 21
-21.264692148190079
 31
0.0
  0
LINE
  8
DETAIL
  6
CONTINUOUS
 62
     5
 10
89.982048072960652
 20
-21.264692148190079
 30
0.0
 11
89.902849964401184
 21
-21.066696876791639
 31
0.0
  0
LINE
  8
DETAIL
  6
CONTINUOUS
 62
     5
 10
89.902849964401184
 20
-21.066696876791639
 30
0.0
 11
89.665255638723238
 21
-20.868701605393198
 31
0.0
  0
LINE
  8
DETAIL
  6
CONTINUOUS
 62
     5
 10
89.665255638723238
 20
-20.868701605393198
 30
0.0
 11
89.506859421604531
 21
-20.789503496833731
 31
0.0
  0
LINE
  8
DETAIL
  6
CONTINUOUS
 62
     5
 10
95.684311889235005
 20
-20.789503496833731
 30
0.0
 11
95.367519454997591
 21
-20.789503496833731
 31
0.0
  0
LINE
  8
DETAIL
  6
CONTINUOUS
 62
     5
 10
95.367519454997591
 20
-20.789503496833731
 30
0.0
 11
95.169524183599151
 21
-20.868701605393198
 31
0.0
  0
LINE
  8
DETAIL
  6
CONTINUOUS
 62
     5
 10
95.169524183599151
 20
-20.868701605393198
 30
0.0
 11
94.971528912200711
 21
-21.066696876791639
 31
0.0
  0
LINE
  8
DETAIL
  6
CONTINUOUS
 62
     5
 10
94.971528912200711
 20
-21.066696876791639
 30
0.0
 11
94.892330803641244
 21
-21.264692148190079
 31
0.0
  0
LINE
  8
DETAIL
  6
CONTINUOUS
 62
     5
 10
94.892330803641244
 20
-21.264692148190079
 30
0.0
 11
94.892330803641244
 21
-21.581484582427489
 31
0.0
  0
LINE
  8
DETAIL
  6
CONTINUOUS
 62
     5
 10
95.367519454997591
 20
-20.789503496833731
 30
0.0
 11
95.248722292158618
 21
-20.789503496833731
 31
0.0
  0
LINE
  8
DETAIL
  6
CONTINUOUS
 62
     5
 10
95.248722292158618
 20
-20.789503496833731
 30
0.0
 11
95.248722292158618
 21
-20.868701605393198
 31
0.0
  0
LINE
  8
DETAIL
  6
CONTINUOUS
 62
     5
 10
95.248722292158618
 20
-20.868701605393198
 30
0.0
 11
95.169524183599151
 21
-20.868701605393198
 31
0.0
  0
LINE
  8
DETAIL
  6
CONTINUOUS
 62
     5
 10
95.169524183599151
 20
-20.868701605393198
 30
0.0
 11
95.169524183599151
 21
-20.987498768232399
 31
0.0
  0
LINE
  8
DETAIL
  6
CONTINUOUS
 62
     5
 10
136.7881302315466
 20
-10.4937493841162
 30
0.0
 11
136.70893212298731
 21
-10.4937493841162
 31
0.0
  0
LINE
  8
DETAIL
  6
CONTINUOUS
 62
     5
 10
136.70893212298731
 20
-10.4937493841162
 30
0.0
 11
136.59013496014811
 21
-10.4937493841162
 31
0.0
  0
LINE
  8
DETAIL
  6
CONTINUOUS
 62
     5
 10
136.59013496014811
 20
-10.4937493841162
 30
0.0
 11
136.59013496014811
 21
-10.572947492675439
 31
0.0
  0
LINE
  8
DETAIL
  6
CONTINUOUS
 62
     5
 10
136.59013496014811
 20
-10.572947492675439
 30
0.0
 11
136.51093685158889
 21
-10.572947492675439
 31
0.0
  0
LINE
  8
DETAIL
  6
CONTINUOUS
 62
     5
 10
136.51093685158889
 20
-10.572947492675439
 30
0.0
 11
136.51093685158889
 21
-10.691744655514411
 31
0.0
  0
LINE
  8
DETAIL
  6
CONTINUOUS
 62
     5
 10
136.51093685158889
 20
-10.691744655514411
 30
0.0
 11
136.51093685158889
 21
-10.81054181835361
 31
0.0
  0
LINE
  8
DETAIL
  6
CONTINUOUS
 62
     5
 10
136.51093685158889
 20
-10.81054181835361
 30
0.0
 11
136.51093685158889
 21
-10.88973992691308
 31
0.0
  0
LINE
  8
DETAIL
  6
CONTINUOUS
 62
     5
 10
136.51093685158889
 20
-10.88973992691308
 30
0.0
 11
136.51093685158889
 21
-11.00853708975183
 31
0.0
  0
LINE
  8
DETAIL
  6
CONTINUOUS
 62
     5
 10
94.10034971804771
 20
-98.997635699208786
 30
0.0
 11
93.981552555208737
 21
-98.997635699208786
 31
0.0
  0
LINE
  8
DETAIL
  6
CONTINUOUS
 62
     5
 10
93.981552555208737
 20
-98.997635699208786
 30
0.0
 11
93.902354446649269
 21
-98.878838536369813
 31
0.0
  0
LINE
  8
DETAIL
  6
CONTINUOUS
 62
     5
 10
93.902354446649269
 20
-98.878838536369813
 30
0.0
 11
93.783557283810296
 21
-98.878838536369813
 31
0.0
  0
LINE
  8
DETAIL
  6
CONTINUOUS
 62
     5
 10
93.783557283810296
 20
-98.878838536369813
 30
0.0
 11
93.664760120971323
 21
-98.878838536369813
 31
0.0
  0
LINE
  8
DETAIL
  6
CONTINUOUS
 62
     5
 10
93.664760120971323
 20
-98.878838536369813
 30
0.0
 11
93.585562012411856
 21
-98.799640427810573
 31
0.0
  0
LINE
  8
DETAIL
  6
CONTINUOUS
 62
     5
 10
93.585562012411856
 20
-98.799640427810573
 30
0.0
 11
93.506363903852389
 21
-98.799640427810573
 31
0.0
  0
LINE
  8
DETAIL
  6
CONTINUOUS
 62
     5
 10
93.506363903852389
 20
-98.799640427810573
 30
0.0
 11
93.506363903852389
 21
-98.680843264971372
 31
0.0
  0
LINE
  8
DETAIL
  6
CONTINUOUS
 62
     5
 10
93.506363903852389
 20
-98.680843264971372
 30
0.0
 11
93.387566741013416
 21
-98.680843264971372
 31
0.0
  0
LINE
  8
DETAIL
  6
CONTINUOUS
 62
     5
 10
93.387566741013416
 20
-98.680843264971372
 30
0.0
 11
93.387566741013416
 21
-98.562046102132399
 31
0.0
  0
LINE
  8
DETAIL
  6
CONTINUOUS
 62
     5
 10
93.387566741013416
 20
-98.562046102132399
 30
0.0
 11
93.268769578174442
 21
-98.562046102132399
 31
0.0
  0
LINE
  8
DETAIL
  6
CONTINUOUS
 62
     5
 10
93.268769578174442
 20
-98.562046102132399
 30
0.0
 11
93.268769578174442
 21
-98.482847993572932
 31
0.0
  0
LINE
  8
DETAIL
  6
CONTINUOUS
 62
     5
 10
93.268769578174442
 20
-98.482847993572932
 30
0.0
 11
93.189571469614975
 21
-98.482847993572932
 31
0.0
  0
LINE
  8
DETAIL
  6
CONTINUOUS
 62
     5
 10
93.189571469614975
 20
-98.482847993572932
 30
0.0
 11
93.189571469614975
 21
-98.364050830733959
 31
0.0
  0
LINE
  8
DETAIL
  6
CONTINUOUS
 62
     5
 10
93.189571469614975
 20
-98.364050830733959
 30
0.0
 11
93.189571469614975
 21
-98.284852722174492
 31
0.0
  0
LINE
  8
DETAIL
  6
CONTINUOUS
 62
     5
 10
93.189571469614975
 20
-98.284852722174492
 30
0.0
 11
93.110373361055508
 21
-98.284852722174492
 31
0.0
  0
LINE
  8
DETAIL
  6
CONTINUOUS
 62
     5
 10
93.110373361055508
 20
-98.284852722174492
 30
0.0
 11
93.110373361055508
 21
-98.166055559335518
 31
0.0
  0
LINE
  8
DETAIL
  6
CONTINUOUS
 62
     5
 10
93.110373361055508
 20
-98.166055559335518
 30
0.0
 11
93.110373361055508
 21
-98.086857450776279
 31
0.0
  0
LINE
  8
DETAIL
  6
CONTINUOUS
 62
     5
 10
93.110373361055508
 20
-98.086857450776279
 30
0.0
 11
92.991576198216535
 21
-98.086857450776279
 31
0.0
  0
LINE
  8
DETAIL
  6
CONTINUOUS
 62
     5
 10
92.991576198216535
 20
-98.086857450776279
 30
0.0
 11
92.991576198216535
 21
-98.007659342216812
 31
0.0
  0
LINE
  8
DETAIL
  6
CONTINUOUS
 62
     5
 10
92.991576198216535
 20
-98.007659342216812
 30
0.0
 11
92.991576198216535
 21
-97.888862179377611
 31
0.0
  0
LINE
  8
DETAIL
  6
CONTINUOUS
 62
     5
 10
92.991576198216535
 20
-97.888862179377611
 30
0.0
 11
92.991576198216535
 21
-97.809664070818371
 31
0.0
  0
LINE
  8
DETAIL
  6
CONTINUOUS
 62
     5
 10
92.991576198216535
 20
-97.809664070818371
 30
0.0
 11
92.991576198216535
 21
-97.690866907979398
 31
0.0
  0
LINE
  8
DETAIL
  6
CONTINUOUS
 62
     5
 10
92.991576198216535
 20
-97.690866907979398
 30
0.0
 11
92.912378089657295
 21
-97.572069745140197
 31
0.0
  0
LINE
  8
DETAIL
  6
CONTINUOUS
 62
     5
 10
92.912378089657295
 20
-97.572069745140197
 30
0.0
 11
92.912378089657295
 21
-97.49287163658073
 31
0.0
  0
LINE
  8
DETAIL
  6
CONTINUOUS
 62
     5
 10
92.912378089657295
 20
-97.49287163658073
 30
0.0
 11
92.912378089657295
 21
-97.374074473741985
 31
0.0
  0
LINE
  8
DETAIL
  6
CONTINUOUS
 62
     5
 10
164.98265687868141
 20
-11.99851344674425
 30
0.0
 11
164.98265687868141
 21
-17.502781991620171
 31
0.0
  0
LINE
  8
DETAIL
  6
CONTINUOUS
 62
     5
 10
129.97709289544099
 20
-16.473206580348229
 30
0.0
 11
129.97709289544099
 21
-13.503277509372079
 31
0.0
  0
LINE
  8
DETAIL
  6
CONTINUOUS
 62
     5
 10
150.40494535370919
 20
-111.016798036194
 30
0.0
 11
147.08388434426431
 21
-111.0171874674727
 31
0.0
  0
LINE
  8
DETAIL
  6
CONTINUOUS
 62
     5
 10
126.4923761188288
 20
-19.997522411240201
 30
0.0
 11
127.52195153010079
 21
-19.799527139841761
 31
0.0
  0
LINE
  8
DETAIL
  6
CONTINUOUS
 62
     5
 10
127.52195153010079
 20
-19.799527139841761
 30
0.0
 11
128.5119278870927
 21
-19.284739434205679
 31
0.0
  0
LINE
  8
DETAIL
  6
CONTINUOUS
 62
     5
 10
128.5119278870927
 20
-19.284739434205679
 30
0.0
 11
129.26430991840681
 21
-18.492758348612369
 31
0.0
  0
LINE
  8
DETAIL
  6
CONTINUOUS
 62
     5
 10
129.26430991840681
 20
-18.492758348612369
 30
0.0
 11
129.77909762404261
 21
-17.502781991620171
 31
0.0
  0
LINE
  8
DETAIL
  6
CONTINUOUS
 62
     5
 10
129.77909762404261
 20
-17.502781991620171
 30
0.0
 11
129.97709289544099
 21
-16.473206580348229
 31
0.0
  0
LINE
  8
DETAIL
  6
CONTINUOUS
 62
     5
 10
133.50140872633301
 20
-10.01856073275985
 30
0.0
 11
132.39263520650161
 21
-10.097758841319321
 31
0.0
  0
LINE
  8
DETAIL
  6
CONTINUOUS
 62
     5
 10
131.40265884950961
 20
-10.572947492675439
 30
0.0
 11
130.5710787096364
 21
-11.3649285782692
 31
0.0
  0
LINE
  8
DETAIL
  6
CONTINUOUS
 62
     5
 10
130.5710787096364
 20
-11.3649285782692
 30
0.0
 11
130.05629100400051
 21
-12.354904935261169
 31
0.0
  0
LINE
  8
DETAIL
  6
CONTINUOUS
 62
     5
 10
130.05629100400051
 20
-12.354904935261169
 30
0.0
 11
129.97709289544099
 21
-13.503277509372079
 31
0.0
  0
ARC
  8
DETAIL
  6
CONTINUOUS
 62
     5
 10
110.54659279925001
 20
-29.91803812902754
 30
0.0
 40
2.7513137790880018
 50
270.56152062499967
 51
304.92593005724763
  0
ARC
  8
DETAIL
  6
CONTINUOUS
 62
     5
 10
110.0018509382852
 20
-29.103948707789069
 30
0.0
 40
3.730704552642742
 50
304.62721665767378
 51
324.03757702159339
  0
ARC
  8
DETAIL
  6
CONTINUOUS
 62
     5
 10
109.0375219881619
 20
-28.394186003850791
 30
0.0
 40
4.9280527901212974
 50
323.94250718812327
 51
340.0544681544834
  0
ARC
  8
DETAIL
  6
CONTINUOUS
 62
     5
 10
107.9373887148143
 20
-27.995789088928628
 30
0.0
 40
6.0981010041778791
 50
340.06184182975079
 51
0.1790559416394643
  0
ARC
  8
DETAIL
  6
CONTINUOUS
 62
     5
 10
107.9373887148144
 20
-27.95767460826443
 30
0.0
 40
6.0981010041778401
 50
359.82094405836062
 51
19.938158170249238
  0
ARC
  8
DETAIL
  6
CONTINUOUS
 62
     5
 10
109.0375219881619
 20
-27.55927769334221
 30
0.0
 40
4.9280527901212379
 50
19.94553184551248
 51
36.05749281187672
  0
ARC
  8
DETAIL
  6
CONTINUOUS
 62
     5
 10
110.0018509382852
 20
-26.849514989403989
 30
0.0
 40
3.7307045526427411
 50
35.962422978406501
 51
55.372783342326223
  0
ARC
  8
DETAIL
  6
CONTINUOUS
 62
     5
 10
110.54659279925001
 20
-26.035425568165461
 30
0.0
 40
2.7513137790879632
 50
55.074069942752431
 51
89.438479375000327
  0
ARC
  8
DETAIL
  6
CONTINUOUS
 62
     5
 10
110.6005197975423
 20
-26.035425568165461
 30
0.0
 40
2.7513137790879609
 50
90.561520624999687
 51
124.9259300572476
  0
ARC
  8
DETAIL
  6
CONTINUOUS
 62
     5
 10
111.1452616585071
 20
-26.849514989403989
 30
0.0
 40
3.730704552642742
 50
124.6272166576738
 51
144.03757702159351
  0
ARC
  8
DETAIL
  6
CONTINUOUS
 62
     5
 10
112.1095906086306
 20
-27.559277693342271
 30
0.0
 40
4.9280527901212974
 50
143.9425071881233
 51
160.05446815448491
  0
ARC
  8
DETAIL
  6
CONTINUOUS
 62
     5
 10
113.20972388197811
 20
-27.95767460826443
 30
0.0
 40
6.0981010041778791
 50
160.06184182975079
 51
180.17905594163949
  0
ARC
  8
DETAIL
  6
CONTINUOUS
 62
     5
 10
113.20972388197799
 20
-27.995789088928628
 30
0.0
 40
6.0981010041778401
 50
179.82094405836051
 51
199.93815817024921
  0
ARC
  8
DETAIL
  6
CONTINUOUS
 62
     5
 10
112.1095906086305
 20
-28.394186003850791
 30
0.0
 40
4.9280527901212379
 50
199.94553184551251
 51
216.0574928118767
  0
ARC
  8
DETAIL
  6
CONTINUOUS
 62
     5
 10
111.1452616585071
 20
-29.103948707789069
 30
0.0
 40
3.7307045526427411
 50
215.96242297840649
 51
235.37278334232619
  0
ARC
  8
DETAIL
  6
CONTINUOUS
 62
     5
 10
110.6005197975423
 20
-29.91803812902754
 30
0.0
 40
2.7513137790880018
 50
235.0740699427524
 51
269.43847937500033
  0
ARC
  8
DETAIL
  6
CONTINUOUS
 62
     5
 10
150.43711958531151
 20
-113.0165502773181
 30
0.0
 40
2.0003050444581452
 50
271.34705349895307
 51
88.652946501046969
  0
ARC
  8
DETAIL
  6
CONTINUOUS
 62
     5
 10
162.12345849652411
 20
-97.283876627882819
 30
0.0
 40
1.8913080796624171
 50
295.02494591591142
 51
351.23525879241771
  0
ARC
  8
DETAIL
  6
CONTINUOUS
 62
     5
 10
160.16781295176131
 20
-94.343915090284327
 30
0.0
 40
3.8395763906644969
 50
5.0167636597144787
 51
60.605969936416813
  0
ARC
  8
DETAIL
  6
CONTINUOUS
 62
     5
 10
166.80847231273449
 20
-11.84419493544328
 30
0.0
 40
1.8261609363425599
 50
91.37617632146447
 51
181.1145522120693
  0
ARC
  8
DETAIL
  6
CONTINUOUS
 62
     5
 10
162.1783238528744
 20
-17.19318938543347
 30
0.0
 40
2.821370465117337
 50
276.29982555594199
 51
353.70017444404488
  0
ARC
  8
DETAIL
  6
CONTINUOUS
 62
     5
 10
160.91327171241019
 20
-21.220434381642459
 30
0.0
 40
1.308644217245996
 50
343.98456039375247
 51
69.145541960425419
  0
ARC
  8
DETAIL
  6
CONTINUOUS
 62
     5
 10
122.36837038461699
 20
-23.652018231713551
 30
0.0
 40
2.759689771606153
 50
352.81825149070858
 51
74.909129646934787
  0
ARC
  8
DETAIL
  6
CONTINUOUS
 62
     5
 10
137.92843618825259
 20
-16.510577028086121
 30
0.0
 40
1.5073225267030339
 50
160.12031916701329
 51
268.80131337571822
  0
ARC
  8
DETAIL
  6
CONTINUOUS
 62
     5
 10
145.4654727796067
 20
-16.362516905926672
 30
0.0
 40
1.658950118841515
 50
273.92816279192658
 51
12.692391543109631
  0
LINE
  8
OUTLINE
  6
CONTINUOUS
 62
     3
 10
163.99268052168921
 20
-94.008154859968727
 30
0.0
 11
163.99268052168901
 21
-97.572069745140197
 31
0.0
  0
LINE
  8
OUTLINE
  6
CONTINUOUS
 62
     3
 10
162.17112402482371
 20
-21.581484582427489
 30
0.0
 11
162.05232686198471
 21
-69.02115160948847
 31
0.0
  0
LINE
  8
OUTLINE
  6
CONTINUOUS
 62
     3
 10
162.17112402482371
 20
-69.02115160948847
 30
0.0
 11
162.17112402482371
 21
-90.998626734712843
 31
0.0
  0
LINE
  8
OUTLINE
  6
CONTINUOUS
 62
     3
 10
162.05232686198471
 20
-69.02115160948847
 30
0.0
 11
162.05232686198471
 21
-90.998626734712843
 31
0.0
  0
LINE
  8
OUTLINE
  6
CONTINUOUS
 62
     3
 10
161.57713821062859
 20
-21.581484582427489
 30
0.0
 11
161.57713821062859
 21
-22.01707417950411
 31
0.0
  0
LINE
  8
OUTLINE
  6
CONTINUOUS
 62
     3
 10
162.92350605613771
 20
-98.997635699208786
 30
0.0
 11
94.10034971804771
 21
-98.997635699208786
 31
0.0
  0
LINE
  8
OUTLINE
  6
CONTINUOUS
 62
     3
 10
161.57713821062859
 20
-22.01707417950411
 30
0.0
 11
162.05232686198471
 21
-22.01707417950411
 31
0.0
  0
LINE
  8
OUTLINE
  6
CONTINUOUS
 62
     3
 10
164.98265687868141
 20
-11.99851344674425
 30
0.0
 11
164.98265687868141
 21
-17.502781991620171
 31
0.0
  0
LINE
  8
OUTLINE
  6
CONTINUOUS
 62
     3
 10
150.40494535370919
 20
-111.016798036194
 30
0.0
 11
147.08388434426431
 21
-111.0171874674727
 31
0.0
  0
ARC
  8
OUTLINE
  6
CONTINUOUS
 62
     3
 10
150.43711958531151
 20
-113.0165502773181
 30
0.0
 40
2.0003050444581452
 50
271.34705349895307
 51
88.652946501046969
  0
ARC
  8
OUTLINE
  6
CONTINUOUS
 62
     3
 10
162.12345849652411
 20
-97.283876627882819
 30
0.0
 40
1.8913080796624171
 50
295.02494591591142
 51
351.23525879241771
  0
ARC
  8
OUTLINE
  6
CONTINUOUS
 62
     3
 10
160.16781295176131
 20
-94.343915090284327
 30
0.0
 40
3.8395763906644969
 50
5.0167636597144787
 51
60.605969936416813
  0
ARC
  8
OUTLINE
  6
CONTINUOUS
 62
     3
 10
166.80847231273449
 20
-11.84419493544328
 30
0.0
 40
1.8261609363425599
 50
91.37617632146447
 51
181.1145522120693
  0
ARC
  8
OUTLINE
  6
CONTINUOUS
 62
     3
 10
162.1783238528744
 20
-17.19318938543347
 30
0.0
 40
2.821370465117337
 50
276.29982555594199
 51
353.70017444404488
  0
ARC
  8
OUTLINE
  6
CONTINUOUS
 62
     3
 10
160.91327171241019
 20
-21.220434381642459
 30
0.0
 40
1.308644217245996
 50
343.98456039375247
 51
69.145541960425419
  0
TEXT
  8
NOTE
  6
CONTINUOUS
 62
     4
 10
272.78469250395187
 20
-236.36892761470349
 30
0.0
 40
64.0
  1
EL
 41
0.9
  0
LINE
  8
SIZE
  6
CONTINUOUS
 62
    30
 10
245.66933588690969
 20
0.0
 30
0.0
 11
502.40544360646481
 21
-0.0000000000000568
 31
0.0
  0
LINE
  8
SIZE
  6
CONTINUOUS
 62
    30
 10
182.92350605613771
 20
-98.997635699208928
 30
0.0
 11
502.40544360646481
 21
-98.997635699209013
 31
0.0
  0
LINE
  8
SIZE
  6
CONTINUOUS
 62
    30
 10
482.40544360646481
 20
-12.00000000000006
 30
0.0
 11
482.40544360646481
 21
-86.997635699209013
 31
0.0
  0
LINE
  8
SIZE
  6
CONTINUOUS
 62
    30
 10
482.40544360646481
 20
-98.997635699209013
 30
0.0
 11
482.40544360646481
 21
-275.84119185185108
 31
0.0
  0
CIRCLE
  8
SIZE
  6
CONTINUOUS
 62
    30
 10
482.40544360646481
 20
-0.0000000000000568
 30
0.0
 40
6.0
  0
LINE
  8
SIZE
  6
CONTINUOUS
 62
    30
 10
482.40544360646481
 20
-0.0000000000000568
 30
0.0
 11
482.40544360646481
 21
-12.00000000000006
 31
0.0
  0
CIRCLE
  8
SIZE
  6
CONTINUOUS
 62
    30
 10
482.40544360646481
 20
-98.997635699209013
 30
0.0
 40
6.0
  0
LINE
  8
SIZE
  6
CONTINUOUS
 62
    30
 10
482.40544360646481
 20
-98.997635699209013
 30
0.0
 11
482.40544360646481
 21
-86.997635699209013
 31
0.0
  0
TEXT
  8
SIZE
  6
CONTINUOUS
 62
    30
 10
457.40544360646481
 20
-250.84119185185099
 30
0.0
 40
64.0
  1
99
 50
90.0
 41
0.9
 72
     1
 11
457.40544360646481
 21
-205.58404899470821
 31
0.0
  0
POINT
  8
DEFPOINTS
  6
CONTINUOUS
 62
    30
 10
225.66933588690969
 20
0.0
 30
0.0
  0
POINT
  8
DEFPOINTS
  6
CONTINUOUS
 62
    30
 10
162.92350605613771
 20
-98.997635699208928
 30
0.0
  0
POINT
  8
DEFPOINTS
  6
CONTINUOUS
 62
    30
 10
482.40544360646481
 20
-98.997635699209013
 30
0.0
  0
LINE
  8
DETAIL
  6
CONTINUOUS
 62
     5
 10
-125.10640921904
 20
-90.998626734712843
 30
0.0
 11
-120.6713151397155
 21
-97.176079202343317
 31
0.0
  0
LINE
  8
DETAIL
  6
CONTINUOUS
 62
     5
 10
-125.10640921904
 20
-23.997026893488059
 30
0.0
 11
-125.10640921904
 21
-90.998626734712843
 31
0.0
  0
LINE
  8
DETAIL
  6
CONTINUOUS
 62
     5
 10
-120.59211703115599
 20
-20.987498768232399
 30
0.0
 11
-120.59211703115599
 21
-97.176079202343317
 31
0.0
  0
LINE
  8
DETAIL
  6
CONTINUOUS
 62
     5
 10
-119.52294256560459
 20
-98.997635699208786
 30
0.0
 11
-119.52294256560459
 21
-98.166055559335518
 31
0.0
  0
LINE
  8
DETAIL
  6
CONTINUOUS
 62
     5
 10
-118.2557728286547
 20
-97.374074473741985
 30
0.0
 11
-118.2557728286547
 21
-20.987498768232399
 31
0.0
  0
LINE
  8
DETAIL
  6
CONTINUOUS
 62
     5
 10
-162.92350605613771
 20
-98.997635699208786
 30
0.0
 11
-94.10034971804771
 21
-98.997635699208786
 31
0.0
  0
LINE
  8
DETAIL
  6
CONTINUOUS
 62
     5
 10
-120.6713151397155
 20
-97.176079202343317
 30
0.0
 11
-118.2557728286547
 21
-97.176079202343317
 31
0.0
  0
LINE
  8
DETAIL
  6
CONTINUOUS
 62
     5
 10
-92.912378089657295
 20
-97.176079202343317
 30
0.0
 11
-92.516387546860415
 21
-97.176079202343317
 31
0.0
  0
LINE
  8
DETAIL
  6
CONTINUOUS
 62
     5
 10
-161.893930644866
 20
-90.998626734712843
 30
0.0
 11
-125.10640921904
 21
-90.998626734712843
 31
0.0
  0
LINE
  8
DETAIL
  6
CONTINUOUS
 62
     5
 10
-92.912378089657295
 20
-97.374074473741985
 30
0.0
 11
-92.912378089657295
 21
-97.176079202343317
 31
0.0
  0
LINE
  8
DETAIL
  6
CONTINUOUS
 62
     5
 10
-92.516387546860415
 20
-97.176079202343317
 30
0.0
 11
-92.516387546860415
 21
-20.282173516383409
 31
0.0
  0
LINE
  8
DETAIL
  6
CONTINUOUS
 62
     5
 10
-122.96806028793711
 20
-20.987498768232399
 30
0.0
 11
-92.516387546860415
 21
-20.987498768232399
 31
0.0
  0
LINE
  8
DETAIL
  6
CONTINUOUS
 62
     5
 10
-94.10034971804771
 20
-98.997635699208786
 30
0.0
 11
-93.981552555208737
 21
-98.997635699208786
 31
0.0
  0
LINE
  8
DETAIL
  6
CONTINUOUS
 62
     5
 10
-93.981552555208737
 20
-98.997635699208786
 30
0.0
 11
-93.902354446649269
 21
-98.878838536369813
 31
0.0
  0
LINE
  8
DETAIL
  6
CONTINUOUS
 62
     5
 10
-93.902354446649269
 20
-98.878838536369813
 30
0.0
 11
-93.783557283810296
 21
-98.878838536369813
 31
0.0
  0
LINE
  8
DETAIL
  6
CONTINUOUS
 62
     5
 10
-93.783557283810296
 20
-98.878838536369813
 30
0.0
 11
-93.664760120971323
 21
-98.878838536369813
 31
0.0
  0
LINE
  8
DETAIL
  6
CONTINUOUS
 62
     5
 10
-93.664760120971323
 20
-98.878838536369813
 30
0.0
 11
-93.585562012411856
 21
-98.799640427810573
 31
0.0
  0
LINE
  8
DETAIL
  6
CONTINUOUS
 62
     5
 10
-93.585562012411856
 20
-98.799640427810573
 30
0.0
 11
-93.506363903852389
 21
-98.799640427810573
 31
0.0
  0
LINE
  8
DETAIL
  6
CONTINUOUS
 62
     5
 10
-93.506363903852389
 20
-98.799640427810573
 30
0.0
 11
-93.506363903852389
 21
-98.680843264971372
 31
0.0
  0
LINE
  8
DETAIL
  6
CONTINUOUS
 62
     5
 10
-93.506363903852389
 20
-98.680843264971372
 30
0.0
 11
-93.387566741013416
 21
-98.680843264971372
 31
0.0
  0
LINE
  8
DETAIL
  6
CONTINUOUS
 62
     5
 10
-93.387566741013416
 20
-98.680843264971372
 30
0.0
 11
-93.387566741013416
 21
-98.562046102132399
 31
0.0
  0
LINE
  8
DETAIL
  6
CONTINUOUS
 62
     5
 10
-93.387566741013416
 20
-98.562046102132399
 30
0.0
 11
-93.268769578174442
 21
-98.562046102132399
 31
0.0
  0
LINE
  8
DETAIL
  6
CONTINUOUS
 62
     5
 10
-93.268769578174442
 20
-98.562046102132399
 30
0.0
 11
-93.268769578174442
 21
-98.482847993572932
 31
0.0
  0
LINE
  8
DETAIL
  6
CONTINUOUS
 62
     5
 10
-93.268769578174442
 20
-98.482847993572932
 30
0.0
 11
-93.189571469614975
 21
-98.482847993572932
 31
0.0
  0
LINE
  8
DETAIL
  6
CONTINUOUS
 62
     5
 10
-93.189571469614975
 20
-98.482847993572932
 30
0.0
 11
-93.189571469614975
 21
-98.364050830733959
 31
0.0
  0
LINE
  8
DETAIL
  6
CONTINUOUS
 62
     5
 10
-93.189571469614975
 20
-98.364050830733959
 30
0.0
 11
-93.189571469614975
 21
-98.284852722174492
 31
0.0
  0
LINE
  8
DETAIL
  6
CONTINUOUS
 62
     5
 10
-93.189571469614975
 20
-98.284852722174492
 30
0.0
 11
-93.110373361055508
 21
-98.284852722174492
 31
0.0
  0
LINE
  8
DETAIL
  6
CONTINUOUS
 62
     5
 10
-93.110373361055508
 20
-98.284852722174492
 30
0.0
 11
-93.110373361055508
 21
-98.166055559335518
 31
0.0
  0
LINE
  8
DETAIL
  6
CONTINUOUS
 62
     5
 10
-93.110373361055508
 20
-98.166055559335518
 30
0.0
 11
-93.110373361055508
 21
-98.086857450776279
 31
0.0
  0
LINE
  8
DETAIL
  6
CONTINUOUS
 62
     5
 10
-93.110373361055508
 20
-98.086857450776279
 30
0.0
 11
-92.991576198216535
 21
-98.086857450776279
 31
0.0
  0
LINE
  8
DETAIL
  6
CONTINUOUS
 62
     5
 10
-92.991576198216535
 20
-98.086857450776279
 30
0.0
 11
-92.991576198216535
 21
-98.007659342216812
 31
0.0
  0
LINE
  8
DETAIL
  6
CONTINUOUS
 62
     5
 10
-92.991576198216535
 20
-98.007659342216812
 30
0.0
 11
-92.991576198216535
 21
-97.888862179377611
 31
0.0
  0
LINE
  8
DETAIL
  6
CONTINUOUS
 62
     5
 10
-92.991576198216535
 20
-97.888862179377611
 30
0.0
 11
-92.991576198216535
 21
-97.809664070818371
 31
0.0
  0
LINE
  8
DETAIL
  6
CONTINUOUS
 62
     5
 10
-92.991576198216535
 20
-97.809664070818371
 30
0.0
 11
-92.991576198216535
 21
-97.690866907979398
 31
0.0
  0
LINE
  8
DETAIL
  6
CONTINUOUS
 62
     5
 10
-92.991576198216535
 20
-97.690866907979398
 30
0.0
 11
-92.912378089657295
 21
-97.572069745140197
 31
0.0
  0
LINE
  8
DETAIL
  6
CONTINUOUS
 62
     5
 10
-92.912378089657295
 20
-97.572069745140197
 30
0.0
 11
-92.912378089657295
 21
-97.49287163658073
 31
0.0
  0
LINE
  8
DETAIL
  6
CONTINUOUS
 62
     5
 10
-92.912378089657295
 20
-97.49287163658073
 30
0.0
 11
-92.912378089657295
 21
-97.374074473741985
 31
0.0
  0
ARC
  8
DETAIL
  6
CONTINUOUS
 62
     5
 10
-122.36837038461699
 20
-23.652018231713551
 30
0.0
 40
2.759689771606153
 50
105.0908703530652
 51
187.1817485092914
  0
LINE
  8
OUTLINE
  6
CONTINUOUS
 62
     3
 10
-162.92350605613771
 20
-98.997635699208786
 30
0.0
 11
-94.10034971804771
 21
-98.997635699208786
 31
0.0
  0
LINE
  8
DETAIL
  6
CONTINUOUS
 62
     5
 10
143.99515811044921
 20
-111.0171874674727
 30
0.0
 11
141.61921485366821
 21
-108.08685745077619
 31
0.0
  0
LINE
  8
DETAIL
  6
CONTINUOUS
 62
     5
 10
141.61921485366821
 20
-108.08685745077619
 30
0.0
 11
140.07485173676059
 21
-104.6813387827234
 31
0.0
  0
LINE
  8
DETAIL
  6
CONTINUOUS
 62
     5
 10
140.07485173676059
 20
-104.6813387827234
 30
0.0
 11
139.23476876383171
 21
-99.472824350565133
 31
0.0
  0
LINE
  8
OUTLINE
  6
CONTINUOUS
 62
     3
 10
143.99515811044921
 20
-111.0171874674727
 30
0.0
 11
141.61921485366821
 21
-108.08685745077629
 31
0.0
  0
LINE
  8
OUTLINE
  6
CONTINUOUS
 62
     3
 10
141.61921485366821
 20
-108.08685745077629
 30
0.0
 11
140.07485173676059
 21
-104.6813387827233
 31
0.0
  0
LINE
  8
OUTLINE
  6
CONTINUOUS
 62
     3
 10
140.07485173676059
 20
-104.6813387827233
 30
0.0
 11
139.23476876383171
 21
-99.472824350565133
 31
0.0
  0
LINE
  8
DETAIL
  6
CONTINUOUS
 62
     5
 10
-163.99268052168921
 20
-94.008154859968727
 30
0.0
 11
-163.99268052168901
 21
-97.572069745140197
 31
0.0
  0
LINE
  8
DETAIL
  6
CONTINUOUS
 62
     5
 10
-162.05232686198471
 20
-19.978885872137941
 30
0.0
 11
-162.05232686198471
 21
-90.998626734712843
 31
0.0
  0
ARC
  8
DETAIL
  6
CONTINUOUS
 62
     5
 10
-162.12345849652411
 20
-97.283876627882819
 30
0.0
 40
1.8913080796624171
 50
188.76474120758229
 51
244.97505408408861
  0
ARC
  8
DETAIL
  6
CONTINUOUS
 62
     5
 10
-160.16781295176131
 20
-94.343915090284327
 30
0.0
 40
3.8395763906644969
 50
119.3940300635832
 51
174.98323634028549
  0
LINE
  8
OUTLINE
  6
CONTINUOUS
 62
     3
 10
-163.99268052168921
 20
-94.008154859968727
 30
0.0
 11
-163.99268052168901
 21
-97.572069745140197
 31
0.0
  0
LINE
  8
OUTLINE
  6
CONTINUOUS
 62
     3
 10
-162.05232686198471
 20
-19.978885872137941
 30
0.0
 11
-162.05232686198471
 21
-90.998626734712843
 31
0.0
  0
ARC
  8
OUTLINE
  6
CONTINUOUS
 62
     3
 10
-162.12345849652411
 20
-97.283876627882819
 30
0.0
 40
1.8913080796624171
 50
188.76474120758229
 51
244.97505408408861
  0
ARC
  8
OUTLINE
  6
CONTINUOUS
 62
     3
 10
-160.16781295176131
 20
-94.343915090284327
 30
0.0
 40
3.8395763906644969
 50
119.3940300635832
 51
174.98323634028549
  0
LINE
  8
DETAIL
  6
CONTINUOUS
 62
     5
 10
199.59223031912501
 20
-70.486316617836792
 30
0.0
 11
198.99824450492949
 21
-69.694335532243258
 31
0.0
  0
LINE
  8
DETAIL
  6
CONTINUOUS
 62
     5
 10
198.99824450492949
 20
-69.694335532243258
 30
0.0
 11
198.52305585357351
 21
-68.902354446649497
 31
0.0
  0
LINE
  8
DETAIL
  6
CONTINUOUS
 62
     5
 10
198.52305585357351
 20
-68.902354446649497
 30
0.0
 11
197.96866909365781
 21
-68.070774306776002
 31
0.0
  0
LINE
  8
DETAIL
  6
CONTINUOUS
 62
     5
 10
197.96866909365781
 20
-68.070774306776002
 30
0.0
 11
197.77067382225951
 21
-67.080797949784028
 31
0.0
  0
LINE
  8
DETAIL
  6
CONTINUOUS
 62
     5
 10
197.77067382225951
 20
-67.080797949784028
 30
0.0
 11
197.69147571369999
 21
-66.011623484232587
 31
0.0
  0
LINE
  8
DETAIL
  6
CONTINUOUS
 62
     5
 10
197.69147571369999
 20
-66.011623484232587
 30
0.0
 11
197.96866909365781
 21
-65.100845235799625
 31
0.0
  0
LINE
  8
DETAIL
  6
CONTINUOUS
 62
     5
 10
197.96866909365781
 20
-65.100845235799625
 30
0.0
 11
198.52305585357351
 21
-64.348463204485824
 31
0.0
  0
LINE
  8
DETAIL
  6
CONTINUOUS
 62
     5
 10
198.52305585357351
 20
-64.348463204485824
 30
0.0
 11
199.27543788488731
 21
-63.477284010332603
 31
0.0
  0
LINE
  8
DETAIL
  6
CONTINUOUS
 62
     5
 10
199.27543788488731
 20
-63.477284010332603
 30
0.0
 11
199.59223031912501
 21
-62.804100087578263
 31
0.0
  0
LINE
  8
DETAIL
  6
CONTINUOUS
 62
     5
 10
199.59223031912501
 20
-62.804100087578263
 30
0.0
 11
199.39423504772651
 21
-61.695326567746861
 31
0.0
  0
LINE
  8
DETAIL
  6
CONTINUOUS
 62
     5
 10
199.39423504772651
 20
-61.695326567746861
 30
0.0
 11
198.72105112497169
 21
-60.150963450839299
 31
0.0
  0
LINE
  8
DETAIL
  6
CONTINUOUS
 62
     5
 10
198.72105112497169
 20
-60.150963450839299
 30
0.0
 11
197.88947098509851
 21
-59.002590876728391
 31
0.0
  0
LINE
  8
DETAIL
  6
CONTINUOUS
 62
     5
 10
240.77524676999579
 20
-74.010632448728529
 30
0.0
 11
240.37925622719891
 21
-74.88181164288153
 31
0.0
  0
LINE
  8
DETAIL
  6
CONTINUOUS
 62
     5
 10
218.52057826481371
 20
-68.902354446649497
 30
0.0
 11
198.52305585357351
 21
-68.902354446649497
 31
0.0
  0
LINE
  8
DETAIL
  6
CONTINUOUS
 62
     5
 10
218.52057826481371
 20
-61.10134075355154
 30
0.0
 11
199.07744261348901
 21
-61.10134075355154
 31
0.0
  0
LINE
  8
DETAIL
  6
CONTINUOUS
 62
     5
 10
218.52057826481371
 20
-68.902354446649497
 30
0.0
 11
218.52057826481371
 21
-61.10134075355154
 31
0.0
  0
LINE
  8
DETAIL
  6
CONTINUOUS
 62
     5
 10
218.52057826481371
 20
-63.794076444570237
 30
0.0
 11
235.983761202154
 21
-63.794076444570237
 31
0.0
  0
LINE
  8
DETAIL
  6
CONTINUOUS
 62
     5
 10
218.52057826481371
 20
-66.170019701351066
 30
0.0
 11
235.983761202154
 21
-66.170019701351066
 31
0.0
  0
LINE
  8
DETAIL
  6
CONTINUOUS
 62
     5
 10
235.983761202154
 20
-66.170019701351066
 30
0.0
 11
235.983761202154
 21
-63.794076444570237
 31
0.0
  0
LINE
  8
DETAIL
  6
CONTINUOUS
 62
     5
 10
218.52057826481371
 20
-62.289312381942182
 30
0.0
 11
234.51859619380571
 21
-56.468251402828628
 31
0.0
  0
LINE
  8
DETAIL
  6
CONTINUOUS
 62
     5
 10
221.37171017295091
 20
-63.794076444570237
 30
0.0
 11
235.38977538795879
 21
-58.685798442490977
 31
0.0
  0
LINE
  8
DETAIL
  6
CONTINUOUS
 62
     5
 10
235.38977538795879
 20
-58.685798442490977
 30
0.0
 11
234.51859619380571
 21
-56.468251402828628
 31
0.0
  0
LINE
  8
DETAIL
  6
CONTINUOUS
 62
     5
 10
221.37171017295091
 20
-66.170019701351066
 30
0.0
 11
235.38977538795879
 21
-71.159500540591125
 31
0.0
  0
LINE
  8
DETAIL
  6
CONTINUOUS
 62
     5
 10
218.52057826481371
 20
-67.674783763979121
 30
0.0
 11
234.51859619380571
 21
-73.495844743092675
 31
0.0
  0
LINE
  8
DETAIL
  6
CONTINUOUS
 62
     5
 10
235.38977538795879
 20
-71.159500540591125
 30
0.0
 11
234.51859619380571
 21
-73.495844743092675
 31
0.0
  0
LINE
  8
DETAIL
  6
CONTINUOUS
 62
     5
 10
235.07298295372141
 20
-71.872283517625419
 30
0.0
 11
240.77524676999579
 21
-74.010632448728529
 31
0.0
  0
LINE
  8
DETAIL
  6
CONTINUOUS
 62
     5
 10
234.7957895737635
 20
-72.822660820338115
 30
0.0
 11
240.37925622719891
 21
-74.88181164288153
 31
0.0
  0
LINE
  8
DETAIL
  6
CONTINUOUS
 62
     5
 10
235.07298295372141
 20
-58.091812628295877
 30
0.0
 11
240.77524676999579
 21
-55.993062751472507
 31
0.0
  0
LINE
  8
DETAIL
  6
CONTINUOUS
 62
     5
 10
240.77524676999579
 20
-55.993062751472507
 30
0.0
 11
240.37925622719891
 21
-55.082284503039773
 31
0.0
  0
LINE
  8
DETAIL
  6
CONTINUOUS
 62
     5
 10
234.7957895737635
 20
-57.101836271303682
 30
0.0
 11
240.37925622719891
 21
-55.082284503039773
 31
0.0
  0
LINE
  8
DETAIL
  6
CONTINUOUS
 62
     5
 10
235.983761202154
 20
-64.467260367324798
 30
0.0
 11
241.9632183983864
 21
-64.467260367324798
 31
0.0
  0
LINE
  8
DETAIL
  6
CONTINUOUS
 62
     5
 10
241.9632183983864
 20
-64.467260367324798
 30
0.0
 11
241.9632183983864
 21
-65.496835778596505
 31
0.0
  0
LINE
  8
DETAIL
  6
CONTINUOUS
 62
     5
 10
235.983761202154
 20
-65.496835778596505
 30
0.0
 11
241.9632183983864
 21
-65.496835778596505
 31
0.0
  0
LINE
  8
DETAIL
  6
CONTINUOUS
 62
     5
 10
195.59272583687689
 20
-70.486316617836792
 30
0.0
 11
194.9987400226814
 21
-69.694335532243258
 31
0.0
  0
LINE
  8
DETAIL
  6
CONTINUOUS
 62
     5
 10
194.9987400226814
 20
-69.694335532243258
 30
0.0
 11
194.48395231704569
 21
-68.902354446649497
 31
0.0
  0
LINE
  8
DETAIL
  6
CONTINUOUS
 62
     5
 10
194.48395231704569
 20
-68.902354446649497
 30
0.0
 11
193.96916461140981
 21
-68.070774306776002
 31
0.0
  0
LINE
  8
DETAIL
  6
CONTINUOUS
 62
     5
 10
193.96916461140981
 20
-68.070774306776002
 30
0.0
 11
193.7711693400114
 21
-67.080797949784028
 31
0.0
  0
LINE
  8
DETAIL
  6
CONTINUOUS
 62
     5
 10
193.7711693400114
 20
-67.080797949784028
 30
0.0
 11
193.69197123145219
 21
-66.011623484232587
 31
0.0
  0
LINE
  8
DETAIL
  6
CONTINUOUS
 62
     5
 10
193.69197123145219
 20
-66.011623484232587
 30
0.0
 11
193.96916461140981
 21
-65.100845235799625
 31
0.0
  0
LINE
  8
DETAIL
  6
CONTINUOUS
 62
     5
 10
193.96916461140981
 20
-65.100845235799625
 30
0.0
 11
194.48395231704569
 21
-64.348463204485824
 31
0.0
  0
LINE
  8
DETAIL
  6
CONTINUOUS
 62
     5
 10
194.48395231704569
 20
-64.348463204485824
 30
0.0
 11
195.2759334026392
 21
-63.477284010332603
 31
0.0
  0
LINE
  8
DETAIL
  6
CONTINUOUS
 62
     5
 10
195.2759334026392
 20
-63.477284010332603
 30
0.0
 11
195.59272583687689
 21
-62.804100087578263
 31
0.0
  0
LINE
  8
DETAIL
  6
CONTINUOUS
 62
     5
 10
195.59272583687689
 20
-62.804100087578263
 30
0.0
 11
195.3947305654784
 21
-61.695326567746861
 31
0.0
  0
LINE
  8
DETAIL
  6
CONTINUOUS
 62
     5
 10
195.3947305654784
 20
-61.695326567746861
 30
0.0
 11
194.72154664272389
 21
-60.150963450839299
 31
0.0
  0
LINE
  8
DETAIL
  6
CONTINUOUS
 62
     5
 10
194.72154664272389
 20
-60.150963450839299
 30
0.0
 11
193.88996650285051
 21
-59.002590876728391
 31
0.0
  0
LINE
  8
DETAIL
  6
CONTINUOUS
 62
     5
 10
204.7996717943515
 20
-31.377821356150889
 30
0.0
 11
204.26614350414081
 21
-30.595313197175191
 31
0.0
  0
LINE
  8
DETAIL
  6
CONTINUOUS
 62
     5
 10
204.26614350414081
 20
-30.595313197175191
 30
0.0
 11
203.80375231929131
 21
-29.848373590879991
 31
0.0
  0
LINE
  8
DETAIL
  6
CONTINUOUS
 62
     5
 10
203.80375231929131
 20
-29.848373590879991
 30
0.0
 11
203.37692968712281
 21
-29.13700253726552
 31
0.0
  0
LINE
  8
DETAIL
  6
CONTINUOUS
 62
     5
 10
203.37692968712281
 20
-29.13700253726552
 30
0.0
 11
203.19908692371919
 21
-28.318925825609089
 31
0.0
  0
LINE
  8
DETAIL
  6
CONTINUOUS
 62
     5
 10
203.19908692371919
 20
-28.318925825609089
 30
0.0
 11
203.05681271299639
 21
-27.35857490322962
 31
0.0
  0
LINE
  8
DETAIL
  6
CONTINUOUS
 62
     5
 10
203.05681271299639
 20
-27.35857490322962
 30
0.0
 11
203.37692968712281
 21
-26.433792533530781
 31
0.0
  0
LINE
  8
DETAIL
  6
CONTINUOUS
 62
     5
 10
203.37692968712281
 20
-26.433792533530781
 30
0.0
 11
203.80375231929131
 21
-25.90026424332007
 31
0.0
  0
LINE
  8
DETAIL
  6
CONTINUOUS
 62
     5
 10
203.80375231929131
 20
-25.90026424332007
 30
0.0
 11
204.55069192558651
 21
-25.082187531663521
 31
0.0
  0
LINE
  8
DETAIL
  6
CONTINUOUS
 62
     5
 10
204.55069192558651
 20
-25.082187531663521
 30
0.0
 11
204.7996717943515
 21
-24.477522136091238
 31
0.0
  0
LINE
  8
DETAIL
  6
CONTINUOUS
 62
     5
 10
204.7996717943515
 20
-24.477522136091238
 30
0.0
 11
204.62182903094799
 21
-23.41046555566982
 31
0.0
  0
LINE
  8
DETAIL
  6
CONTINUOUS
 62
     5
 10
204.62182903094799
 20
-23.41046555566982
 30
0.0
 11
203.98159508269509
 21
-22.0232920011216
 31
0.0
  0
LINE
  8
DETAIL
  6
CONTINUOUS
 62
     5
 10
203.98159508269509
 20
-22.0232920011216
 30
0.0
 11
203.30579258176141
 21
-21.06294107874248
 31
0.0
  0
LINE
  8
DETAIL
  6
CONTINUOUS
 62
     5
 10
201.2072479735989
 20
-31.377821356150889
 30
0.0
 11
200.6737196833881
 21
-30.595313197175191
 31
0.0
  0
LINE
  8
DETAIL
  6
CONTINUOUS
 62
     5
 10
200.6737196833881
 20
-30.595313197175191
 30
0.0
 11
200.21132849853879
 21
-29.848373590879991
 31
0.0
  0
LINE
  8
DETAIL
  6
CONTINUOUS
 62
     5
 10
200.21132849853879
 20
-29.848373590879991
 30
0.0
 11
199.78450586637021
 21
-29.13700253726552
 31
0.0
  0
LINE
  8
DETAIL
  6
CONTINUOUS
 62
     5
 10
199.78450586637021
 20
-29.13700253726552
 30
0.0
 11
199.57109455028581
 21
-28.318925825609089
 31
0.0
  0
LINE
  8
DETAIL
  6
CONTINUOUS
 62
     5
 10
199.57109455028581
 20
-28.318925825609089
 30
0.0
 11
199.46438889224351
 21
-27.35857490322962
 31
0.0
  0
LINE
  8
DETAIL
  6
CONTINUOUS
 62
     5
 10
199.46438889224351
 20
-27.35857490322962
 30
0.0
 11
199.78450586637021
 21
-26.433792533530781
 31
0.0
  0
LINE
  8
DETAIL
  6
CONTINUOUS
 62
     5
 10
199.78450586637021
 20
-26.433792533530781
 30
0.0
 11
200.21132849853879
 21
-25.90026424332007
 31
0.0
  0
LINE
  8
DETAIL
  6
CONTINUOUS
 62
     5
 10
200.21132849853879
 20
-25.90026424332007
 30
0.0
 11
200.95826810483391
 21
-25.082187531663521
 31
0.0
  0
LINE
  8
DETAIL
  6
CONTINUOUS
 62
     5
 10
200.95826810483391
 20
-25.082187531663521
 30
0.0
 11
201.2072479735989
 21
-24.477522136091238
 31
0.0
  0
LINE
  8
DETAIL
  6
CONTINUOUS
 62
     5
 10
201.2072479735989
 20
-24.477522136091238
 30
0.0
 11
201.02940521019531
 21
-23.41046555566982
 31
0.0
  0
LINE
  8
DETAIL
  6
CONTINUOUS
 62
     5
 10
201.02940521019531
 20
-23.41046555566982
 30
0.0
 11
200.38917126194249
 21
-22.0232920011216
 31
0.0
  0
LINE
  8
DETAIL
  6
CONTINUOUS
 62
     5
 10
200.38917126194249
 20
-22.0232920011216
 30
0.0
 11
199.7133687610087
 21
-21.06294107874248
 31
0.0
  0
LINE
  8
DETAIL
  6
CONTINUOUS
 62
     5
 10
221.76587142305459
 20
-23.23262279226606
 30
0.0
 11
204.55069192558651
 21
-23.23262279226606
 31
0.0
  0
LINE
  8
DETAIL
  6
CONTINUOUS
 62
     5
 10
221.76587142305459
 20
-29.492688064072581
 30
0.0
 11
203.6614781085685
 21
-29.492688064072581
 31
0.0
  0
LINE
  8
DETAIL
  6
CONTINUOUS
 62
     5
 10
221.76587142305459
 20
-23.23262279226606
 30
0.0
 11
221.76587142305459
 21
-29.492688064072581
 31
0.0
  0
LINE
  8
DETAIL
  6
CONTINUOUS
 62
     5
 10
242.60904329395609
 20
-30.488607539133
 30
0.0
 11
242.53790618859489
 21
-31.377821356150889
 31
0.0
  0
LINE
  8
DETAIL
  6
CONTINUOUS
 62
     5
 10
237.2026232864869
 20
-30.488607539133
 30
0.0
 11
242.53790618859489
 21
-31.377821356150889
 31
0.0
  0
LINE
  8
DETAIL
  6
CONTINUOUS
 62
     5
 10
237.3093289445292
 20
-29.563825169434271
 30
0.0
 11
242.60904329395609
 21
-30.488607539133
 31
0.0
  0
LINE
  8
DETAIL
  6
CONTINUOUS
 62
     5
 10
237.02478052308319
 20
-31.128841487385898
 30
0.0
 11
237.48717170793259
 21
-28.95915977386198
 31
0.0
  0
LINE
  8
DETAIL
  6
CONTINUOUS
 62
     5
 10
242.53790618859489
 20
-21.311920947507129
 30
0.0
 11
242.60904329395609
 21
-22.20113476452525
 31
0.0
  0
LINE
  8
DETAIL
  6
CONTINUOUS
 62
     5
 10
237.3093289445292
 20
-23.23262279226606
 30
0.0
 11
242.60904329395609
 21
-22.20113476452525
 31
0.0
  0
LINE
  8
DETAIL
  6
CONTINUOUS
 62
     5
 10
237.2026232864869
 20
-22.307840422567441
 30
0.0
 11
242.53790618859489
 21
-21.311920947507129
 31
0.0
  0
LINE
  8
DETAIL
  6
CONTINUOUS
 62
     5
 10
237.48717170793259
 20
-23.837288187838571
 30
0.0
 11
237.02478052308319
 21
-21.703175026995151
 31
0.0
  0
LINE
  8
DETAIL
  6
CONTINUOUS
 62
     5
 10
221.76587142305459
 20
-24.40638503072978
 30
0.0
 11
237.02478052308319
 21
-21.703175026995151
 31
0.0
  0
LINE
  8
DETAIL
  6
CONTINUOUS
 62
     5
 10
222.8329280034761
 20
-26.362655428169429
 30
0.0
 11
237.48717170793259
 21
-23.837288187838571
 31
0.0
  0
LINE
  8
DETAIL
  6
CONTINUOUS
 62
     5
 10
221.76587142305459
 20
-26.1848126647659
 30
0.0
 11
237.48717170793259
 21
-28.95915977386198
 31
0.0
  0
LINE
  8
DETAIL
  6
CONTINUOUS
 62
     5
 10
221.76587142305459
 20
-28.318925825609089
 30
0.0
 11
237.02478052308319
 21
-31.128841487385898
 31
0.0
  0
LINE
  8
DETAIL
  6
CONTINUOUS
 62
     5
 10
162.1711240248238
 20
-21.581484582427489
 30
0.0
 11
162.1711240248238
 21
-61.0221426449923
 31
0.0
  0
LINE
  8
DETAIL
  6
CONTINUOUS
 62
     5
 10
162.1711240248238
 20
-69.02115160948847
 30
0.0
 11
162.1711240248238
 21
-90.998626734712843
 31
0.0
  0
LINE
  8
DETAIL
  6
CONTINUOUS
 62
     5
 10
162.05232686198499
 20
-22.01707417950411
 30
0.0
 11
162.05232686198499
 21
-61.0221426449923
 31
0.0
  0
LINE
  8
DETAIL
  6
CONTINUOUS
 62
     5
 10
162.05232686198499
 20
-69.02115160948847
 30
0.0
 11
162.05232686198499
 21
-90.998626734712843
 31
0.0
  0
LINE
  8
DETAIL
  6
CONTINUOUS
 62
     5
 10
161.57713821062859
 20
-21.581484582427489
 30
0.0
 11
161.57713821062859
 21
-22.01707417950411
 31
0.0
  0
LINE
  8
DETAIL
  6
CONTINUOUS
 62
     5
 10
149.49942665532521
 20
-30.016083144000049
 30
0.0
 11
149.49942665532521
 21
-12.077711555303271
 31
0.0
  0
LINE
  8
DETAIL
  6
CONTINUOUS
 62
     5
 10
133.97659737768919
 20
-30.016083144000049
 30
0.0
 11
133.9765973776891
 21
-10.01856073275974
 31
0.0
  0
LINE
  8
DETAIL
  6
CONTINUOUS
 62
     5
 10
133.58060683489239
 20
-30.016083144000049
 30
0.0
 11
133.50140872633301
 21
-10.01856073275974
 31
0.0
  0
LINE
  8
DETAIL
  6
CONTINUOUS
 62
     5
 10
147.40067677850189
 20
-32.986012214976427
 30
0.0
 11
149.49942665532521
 21
-30.016083144000049
 31
0.0
  0
LINE
  8
DETAIL
  6
CONTINUOUS
 62
     5
 10
150.00535786163161
 20
-32.986012214976427
 30
0.0
 11
150.36174935014881
 21
-32.986012214976427
 31
0.0
  0
LINE
  8
DETAIL
  6
CONTINUOUS
 62
     5
 10
133.58060683489239
 20
-30.016083144000049
 30
0.0
 11
133.97659737768919
 21
-30.016083144000049
 31
0.0
  0
LINE
  8
DETAIL
  6
CONTINUOUS
 62
     5
 10
161.57713821062859
 20
-22.01707417950411
 30
0.0
 11
162.05232686198499
 21
-22.01707417950411
 31
0.0
  0
LINE
  8
DETAIL
  6
CONTINUOUS
 62
     5
 10
135.71895576599519
 20
-32.986012214976427
 30
0.0
 11
133.58060683489239
 21
-30.016083144000049
 31
0.0
  0
LINE
  8
DETAIL
  6
CONTINUOUS
 62
     5
 10
133.97659737768919
 20
-30.016083144000049
 30
0.0
 11
136.07534725451239
 21
-32.986012214976427
 31
0.0
  0
LINE
  8
OUTLINE
  6
CONTINUOUS
 62
     3
 10
162.1711240248238
 20
-21.581484582427489
 30
0.0
 11
162.05232686198499
 21
-69.02115160948847
 31
0.0
  0
LINE
  8
OUTLINE
  6
CONTINUOUS
 62
     3
 10
162.1711240248238
 20
-69.02115160948847
 30
0.0
 11
162.1711240248238
 21
-90.998626734712843
 31
0.0
  0
LINE
  8
OUTLINE
  6
CONTINUOUS
 62
     3
 10
162.05232686198499
 20
-22.01707417950411
 30
0.0
 11
162.05232686198499
 21
-61.0221426449923
 31
0.0
  0
LINE
  8
OUTLINE
  6
CONTINUOUS
 62
     3
 10
162.05232686198499
 20
-69.02115160948847
 30
0.0
 11
162.05232686198499
 21
-90.998626734712843
 31
0.0
  0
LINE
  8
OUTLINE
  6
CONTINUOUS
 62
     3
 10
161.57713821062859
 20
-21.581484582427489
 30
0.0
 11
161.57713821062859
 21
-22.01707417950411
 31
0.0
  0
LINE
  8
OUTLINE
  6
CONTINUOUS
 62
     3
 10
161.57713821062859
 20
-22.01707417950411
 30
0.0
 11
162.05232686198499
 21
-22.01707417950411
 31
0.0
  0
LINE
  8
DETAIL
  6
CONTINUOUS
 62
     4
 10
136.11074983697631
 20
-70.982850371892539
 30
0.0
 11
134.36468134864441
 21
-65.021647127240158
 31
0.0
  0
LINE
  8
DETAIL
  6
CONTINUOUS
 62
     4
 10
134.36468134864441
 20
-65.021647127240158
 30
0.0
 11
138.85742910267251
 21
-69.311159559752184
 31
0.0
  0
LINE
  8
DETAIL
  6
CONTINUOUS
 62
     4
 10
134.36468134864441
 20
-65.021647127240158
 30
0.0
 11
140.60349759100441
 21
-75.272362804404565
 31
0.0
  0
LINE
  8
NOTE
  6
CONTINUOUS
 62
     4
 10
140.6034975910045
 20
-75.272362804404565
 30
0.0
 11
256.69885479637298
 21
-266.27589059003247
 31
0.0
  0
LINE
  8
NOTE
  6
CONTINUOUS
 62
     4
 10
256.69885479637298
 20
-266.27589059003247
 30
0.0
 11
378.72742622494462
 21
-266.27589059003247
 31
0.0
  0
LINE
  8
DETAIL
  6
CONTINUOUS
 62
     5
 10
135.4291827679414
 20
-69.021151609488527
 30
0.0
 11
194.48395231704569
 21
-69.02115160948847
 31
0.0
  0
LINE
  8
DETAIL
  6
CONTINUOUS
 62
     5
 10
138.08231940468011
 20
-76.901363411145439
 30
0.0
 11
141.1710456384952
 21
-69.02115160948847
 31
0.0
  0
LINE
  8
DETAIL
  6
CONTINUOUS
 62
     5
 10
135.4291827679414
 20
-61.022142644992023
 30
0.0
 11
195.0779381312409
 21
-61.0221426449923
 31
0.0
  0
LINE
  8
DETAIL
  6
CONTINUOUS
 62
     5
 10
133.97659737768919
 20
-30.016083144000049
 30
0.0
 11
133.9765973776891
 21
-10.01856073275985
 31
0.0
  0
LINE
  8
DETAIL
  6
CONTINUOUS
 62
     5
 10
133.58060683489239
 20
-30.016083144000049
 30
0.0
 11
133.50140872633301
 21
-10.01856073275985
 31
0.0
  0
LINE
  8
DETAIL
  6
CONTINUOUS
 62
     5
 10
132.14246126272741
 20
-50.488794206596481
 30
0.0
 11
128.45974921471691
 21
-60.150963450839299
 31
0.0
  0
LINE
  8
DETAIL
  6
CONTINUOUS
 62
     5
 10
131.54847544853229
 20
-50.488794206596481
 30
0.0
 11
127.82616434624209
 21
-60.150963450839299
 31
0.0
  0
LINE
  8
DETAIL
  6
CONTINUOUS
 62
     5
 10
147.40067677850189
 20
-32.986012214976427
 30
0.0
 11
149.4994266553251
 21
-30.016083144000049
 31
0.0
  0
LINE
  8
DETAIL
  6
CONTINUOUS
 62
     5
 10
150.00535786163161
 20
-32.986012214976427
 30
0.0
 11
150.36174935014881
 21
-32.986012214976427
 31
0.0
  0
LINE
  8
DETAIL
  6
CONTINUOUS
 62
     5
 10
147.40067677850189
 20
-32.986012214976427
 30
0.0
 11
135.71895576599519
 21
-32.986012214976427
 31
0.0
  0
LINE
  8
DETAIL
  6
CONTINUOUS
 62
     5
 10
133.58060683489239
 20
-30.016083144000049
 30
0.0
 11
133.97659737768919
 21
-30.016083144000049
 31
0.0
  0
LINE
  8
DETAIL
  6
CONTINUOUS
 62
     5
 10
127.82616434624209
 20
-69.813132695082118
 30
0.0
 11
131.54847544853229
 21
-79.356504776485849
 31
0.0
  0
LINE
  8
DETAIL
  6
CONTINUOUS
 62
     5
 10
128.45974921471691
 20
-69.813132695082118
 30
0.0
 11
132.14246126272741
 21
-79.356504776485849
 31
0.0
  0
LINE
  8
DETAIL
  6
CONTINUOUS
 62
     5
 10
135.71895576599519
 20
-32.986012214976427
 30
0.0
 11
133.58060683489239
 21
-30.016083144000049
 31
0.0
  0
LINE
  8
DETAIL
  6
CONTINUOUS
 62
     5
 10
133.97659737768919
 20
-30.016083144000049
 30
0.0
 11
136.07534725451239
 21
-32.986012214976427
 31
0.0
  0
LINE
  8
DETAIL
  6
CONTINUOUS
 62
     5
 10
141.1710456384952
 20
-61.0221426449923
 30
0.0
 11
138.08231940468011
 21
-53.102331789055711
 31
0.0
  0
ARC
  8
DETAIL
  6
CONTINUOUS
 62
     5
 10
142.41032556512769
 20
-65.021647127240271
 30
0.0
 40
8.0456442164831827
 50
150.1915567105911
 51
209.8084432894089
  0
ARC
  8
DETAIL
  6
CONTINUOUS
 62
     5
 10
133.83968902918369
 20
-53.842864870323979
 30
0.0
 40
4.0619514632055767
 50
10.504321268815
 51
124.33754092688579
  0
ARC
  8
DETAIL
  6
CONTINUOUS
 62
     5
 10
133.83863288021061
 20
-75.529480059053753
 30
0.0
 40
4.4599259242399896
 50
239.10297203465819
 51
342.08520840595702
  0
ARC
  8
DETAIL
  6
CONTINUOUS
 62
     5
 10
142.66066268246399
 20
-64.982048072960538
 30
0.0
 40
15.6013371065904
 50
161.9613564916597
 51
198.0386435083436
  0
ARC
  8
DETAIL
  6
CONTINUOUS
 62
     5
 10
143.67127104342109
 20
-64.982048072960538
 30
0.0
 40
15.960256106066771
 50
162.38047600912591
 51
197.61952399087409
  0
LINE
  8
DETAIL
  6
CONTINUOUS
 62
     5
 10
153.99562248427159
 20
-48.095041116089106
 30
0.0
 11
153.99562248427159
 21
-48.201746774131273
 31
0.0
  0
LINE
  8
DETAIL
  6
CONTINUOUS
 62
     5
 10
153.99562248427159
 20
-51.225073751992227
 30
0.0
 11
153.99562248427159
 21
-51.118368093950039
 31
0.0
  0
LINE
  8
DETAIL
  6
CONTINUOUS
 62
     5
 10
147.05975471153141
 20
-54.212832177172693
 30
0.0
 11
147.05975471153141
 21
-45.249556901631422
 31
0.0
  0
LINE
  8
DETAIL
  6
CONTINUOUS
 62
     5
 10
147.05975471153141
 20
-54.212832177172693
 30
0.0
 11
159.61545380782511
 21
-54.212832177172693
 31
0.0
  0
LINE
  8
DETAIL
  6
CONTINUOUS
 62
     5
 10
147.05975471153141
 20
-45.249556901631422
 30
0.0
 11
159.61545380782511
 21
-45.249556901631422
 31
0.0
  0
LINE
  8
DETAIL
  6
CONTINUOUS
 62
     5
 10
200.95826810483391
 20
-23.23262279226606
 30
0.0
 11
167.2626926341799
 21
-23.23262279226606
 31
0.0
  0
LINE
  8
DETAIL
  6
CONTINUOUS
 62
     5
 10
200.0690542878159
 20
-29.492688064072581
 30
0.0
 11
167.2626926341799
 21
-29.492688064072581
 31
0.0
  0
LINE
  8
DETAIL
  6
CONTINUOUS
 62
     5
 10
167.2626926341799
 20
-23.23262279226606
 30
0.0
 11
163.8481115768308
 21
-23.588308319073349
 31
0.0
  0
LINE
  8
DETAIL
  6
CONTINUOUS
 62
     5
 10
163.8481115768308
 20
-23.588308319073349
 30
0.0
 11
160.50466762484331
 21
-24.477522136091238
 31
0.0
  0
LINE
  8
DETAIL
  6
CONTINUOUS
 62
     5
 10
152.181626297555
 20
-30.31076477572924
 30
0.0
 11
150.22535590011529
 21
-33.085111884825103
 31
0.0
  0
LINE
  8
DETAIL
  6
CONTINUOUS
 62
     5
 10
150.22535590011529
 20
-33.085111884825103
 30
0.0
 11
148.7670452402059
 21
-36.250713073409322
 31
0.0
  0
LINE
  8
DETAIL
  6
CONTINUOUS
 62
     5
 10
148.7670452402059
 20
-36.250713073409322
 30
0.0
 11
147.8778314231879
 21
-39.558588472716337
 31
0.0
  0
LINE
  8
DETAIL
  6
CONTINUOUS
 62
     5
 10
147.8778314231879
 20
-39.558588472716337
 30
0.0
 11
147.52214589638069
 21
-42.973169530065427
 31
0.0
  0
LINE
  8
DETAIL
  6
CONTINUOUS
 62
     5
 10
167.2626926341799
 20
-29.492688064072581
 30
0.0
 11
163.8481115768308
 21
-29.955079248922171
 31
0.0
  0
LINE
  8
DETAIL
  6
CONTINUOUS
 62
     5
 10
163.8481115768308
 20
-29.955079248922171
 30
0.0
 11
160.50466762484331
 21
-31.306684250789431
 31
0.0
  0
LINE
  8
DETAIL
  6
CONTINUOUS
 62
     5
 10
160.50466762484331
 20
-31.306684250789431
 30
0.0
 11
157.76588906842781
 21
-33.440797411632502
 31
0.0
  0
LINE
  8
DETAIL
  6
CONTINUOUS
 62
     5
 10
157.76588906842781
 20
-33.440797411632502
 30
0.0
 11
155.66734446026541
 21
-36.250713073409322
 31
0.0
  0
LINE
  8
DETAIL
  6
CONTINUOUS
 62
     5
 10
155.66734446026541
 20
-36.250713073409322
 30
0.0
 11
154.3157394583981
 21
-39.45188281467415
 31
0.0
  0
LINE
  8
DETAIL
  6
CONTINUOUS
 62
     5
 10
154.3157394583981
 20
-39.45188281467415
 30
0.0
 11
153.817779720868
 21
-42.973169530065427
 31
0.0
  0
LINE
  8
DETAIL
  6
CONTINUOUS
 62
     5
 10
147.52214589638069
 20
-45.249556901631422
 30
0.0
 11
147.52214589638069
 21
-42.973169530065427
 31
0.0
  0
LINE
  8
DETAIL
  6
CONTINUOUS
 62
     5
 10
159.61545380782511
 20
-54.212832177172693
 30
0.0
 11
159.61545380782511
 21
-51.865307700245133
 31
0.0
  0
LINE
  8
DETAIL
  6
CONTINUOUS
 62
     5
 10
153.817779720868
 20
-45.249556901631422
 30
0.0
 11
153.817779720868
 21
-42.973169530065427
 31
0.0
  0
LINE
  8
DETAIL
  6
CONTINUOUS
 62
     5
 10
159.61545380782511
 20
-47.454807167835952
 30
0.0
 11
159.61545380782511
 21
-45.249556901631422
 31
0.0
  0
LINE
  8
DETAIL
  6
CONTINUOUS
 62
     5
 10
153.99562248427159
 20
-54.212832177172693
 30
0.0
 11
153.99562248427159
 21
-45.249556901631422
 31
0.0
  0
ARC
  8
DETAIL
  6
CONTINUOUS
 62
     5
 10
157.0879120994673
 20
-51.417401855661844
 30
0.0
 40
2.4041797495063379
 50
270.09787055227349
 51
304.704902777423
  0
ARC
  8
DETAIL
  6
CONTINUOUS
 62
     5
 10
156.59657313896889
 20
-50.676070183506539
 30
0.0
 40
3.2934188362508698
 50
304.38915111538739
 51
323.80200725441603
  0
ARC
  8
DETAIL
  6
CONTINUOUS
 62
     5
 10
155.7212375614836
 20
-50.025978028157063
 30
0.0
 40
4.3837344408797074
 50
323.70190849126959
 51
339.73402023168921
  0
ARC
  8
DETAIL
  6
CONTINUOUS
 62
     5
 10
154.71949155965791
 20
-49.656724917225802
 30
0.0
 40
5.4513685697183671
 50
339.74021157659399
 51
359.69159631860498
  0
ARC
  8
DETAIL
  6
CONTINUOUS
 62
     5
 10
154.7197864013456
 20
-49.622228439719578
 30
0.0
 40
5.451368569718702
 50
359.32901249513799
 51
19.28039723714754
  0
ARC
  8
DETAIL
  6
CONTINUOUS
 62
     5
 10
155.72769761397629
 20
-49.270151886178269
 30
0.0
 40
4.3837344408828391
 50
19.28658858205841
 51
35.318700322465382
  0
ARC
  8
DETAIL
  6
CONTINUOUS
 62
     5
 10
156.6140171865849
 20
-48.635116612451839
 30
0.0
 40
3.2934188362506469
 50
35.218601559326977
 51
54.631457698357842
  0
ARC
  8
DETAIL
  6
CONTINUOUS
 62
     5
 10
157.1179557769855
 20
-47.902291586030799
 30
0.0
 40
2.404179749506254
 50
54.315706036317181
 51
88.922738261469149
  0
ARC
  8
DETAIL
  6
CONTINUOUS
 62
     5
 10
157.1672626644386
 20
-47.902713012419348
 30
0.0
 40
2.4041797495063379
 50
90.097870552273491
 51
124.704902777423
  0
ARC
  8
DETAIL
  6
CONTINUOUS
 62
     5
 10
157.65860162493689
 20
-48.644044684574652
 30
0.0
 40
3.2934188362508698
 50
124.38915111538741
 51
143.802007254416
  0
ARC
  8
DETAIL
  6
CONTINUOUS
 62
     5
 10
158.53393720242229
 20
-49.294136839924157
 30
0.0
 40
4.3837344408797074
 50
143.70190849126971
 51
159.7340202316891
  0
ARC
  8
DETAIL
  6
CONTINUOUS
 62
     5
 10
159.53568320424799
 20
-49.66338995085539
 30
0.0
 40
5.4513685697183671
 50
159.74021157659399
 51
179.69159631860509
  0
ARC
  8
DETAIL
  6
CONTINUOUS
 62
     5
 10
159.5353883625603
 20
-49.697886428361642
 30
0.0
 40
5.451368569718702
 50
179.32901249513799
 51
199.28039723714761
  0
ARC
  8
DETAIL
  6
CONTINUOUS
 62
     5
 10
158.5274771499295
 20
-50.049962981902951
 30
0.0
 40
4.3837344408828391
 50
199.28658858205759
 51
215.31870032246539
  0
ARC
  8
DETAIL
  6
CONTINUOUS
 62
     5
 10
157.64115757732091
 20
-50.684998255629353
 30
0.0
 40
3.2934188362506469
 50
215.218601559327
 51
234.63145769835779
  0
ARC
  8
DETAIL
  6
CONTINUOUS
 62
     5
 10
157.1372189869204
 20
-51.417823282050421
 30
0.0
 40
2.404179749506254
 50
234.31570603631721
 51
268.92273826146908
  0
ARC
  8
DETAIL
  6
CONTINUOUS
 62
     5
 10
149.46186343635199
 20
-74.905218611630062
 30
0.0
 40
6.2715899868190323
 50
190.20495200060759
 51
334.7410256798351
  0
ARC
  8
DETAIL
  6
CONTINUOUS
 62
     5
 10
152.07228221431851
 20
-72.039965002847111
 30
0.0
 40
9.6410139066454317
 50
161.7525232065708
 51
204.35853165746281
  0
ARC
  8
DETAIL
  6
CONTINUOUS
 62
     5
 10
152.80180495952609
 20
-71.724457995018611
 30
0.0
 40
6.6872083426080886
 50
156.15584057712661
 51
263.14624539987398
  0
ARC
  8
DETAIL
  6
CONTINUOUS
 62
     5
 10
151.8572296673525
 20
-72.071105410006908
 30
0.0
 40
6.2944803694446199
 50
271.33413346053038
 51
28.98261234297566
  0
ARC
  8
DETAIL
  6
CONTINUOUS
 62
     5
 10
177.291918269219
 20
-56.701753675146733
 30
0.0
 40
23.42887379971188
 50
173.90178560072101
 51
190.6264134760911
  0
ARC
  8
DETAIL
  6
CONTINUOUS
 62
     5
 10
178.03275656891341
 20
-56.295383222185819
 30
0.0
 40
30.58160202582555
 50
176.09524049479589
 51
188.8914056752848
  0
ARC
  8
DETAIL
  6
CONTINUOUS
 62
     5
 10
178.03275656891341
 20
-56.295383222185819
 30
0.0
 40
30.58160202582555
 50
204.59018153307451
 51
211.28211251925569
  0
ARC
  8
DETAIL
  6
CONTINUOUS
 62
     5
 10
166.43667629987911
 20
-41.795886536709759
 30
0.0
 40
18.306132099198621
 50
108.90772035757141
 51
141.14202620151329
  0
ENDSEC
  0
EOF
