  0
SECTION
  2
HEADER
  9
$ACADVER
  1
AC1009
  9
$INSBASE
 10
0.0
 20
0.0
 30
0.0
  9
$EXTMIN
 10
-802.49356
 20
-241.61421899999991
 30
0.0
  9
$EXTMAX
 10
905.82903671428573
 20
713.80529506885614
 30
0.0
  9
$LIMMIN
 10
-2970.0
 20
-2100.0
  9
$LIMMAX
 10
2970.0
 20
2100.0
  9
$ORTHOMODE
 70
     1
  9
$REGENMODE
 70
     1
  9
$FILLMODE
 70
     1
  9
$QTEXTMODE
 70
     0
  9
$MIRRTEXT
 70
     0
  9
$DRAGMODE
 70
     2
  9
$LTSCALE
 40
20.0
  9
$OSMODE
 70
   166
  9
$ATTMODE
 70
     1
  9
$TEXTSIZE
 40
64.0
  9
$TRACEWID
 40
0.05
  9
$TEXTSTYLE
  7
STANDARD
  9
$CLAYER
  8
OUTLINE
  9
$CELTYPE
  6
CONTINUOUS
  9
$CECOLOR
 62
     7
  9
$DIMSCALE
 40
1.0
  9
$DIMASZ
 40
2.0
  9
$DIMEXO
 40
20.0
  9
$DIMDLI
 40
200.0
  9
$DIMRND
 40
0.0
  9
$DIMDLE
 40
0.0
  9
$DIMEXE
 40
30.0
  9
$DIMTP
 40
0.0
  9
$DIMTM
 40
0.0
  9
$DIMTXT
 40
64.0
  9
$DIMCEN
 40
0.09
  9
$DIMTSZ
 40
0.0
  9
$DIMTOL
 70
     0
  9
$DIMLIM
 70
     0
  9
$DIMTIH
 70
     0
  9
$DIMTOH
 70
     0
  9
$DIMSE1
 70
     0
  9
$DIMSE2
 70
     0
  9
$DIMTAD
 70
     1
  9
$DIMZIN
 70
     8
  9
$DIMBLK
  1
DOT1
  9
$DIMASO
 70
     1
  9
$DIMSHO
 70
     0
  9
$DIMPOST
  1

  9
$DIMAPOST
  1

  9
$DIMALT
 70
     0
  9
$DIMALTD
 70
     2
  9
$DIMALTF
 40
25.399999999999999
  9
$DIMLFAC
 40
1.0
  9
$DIMTOFL
 70
     1
  9
$DIMTVP
 40
0.0
  9
$DIMTIX
 70
     1
  9
$DIMSOXD
 70
     0
  9
$DIMSAH
 70
     0
  9
$DIMBLK1
  1

  9
$DIMBLK2
  1

  9
$DIMSTYLE
  2
STANDARD
  9
$DIMCLRD
 70
     7
  9
$DIMCLRE
 70
     7
  9
$DIMCLRT
 70
     7
  9
$DIMTFAC
 40
1.0
  9
$DIMGAP
 40
0.09
  9
$LUNITS
 70
     2
  9
$LUPREC
 70
     4
  9
$SKETCHINC
 40
0.1
  9
$FILLETRAD
 40
10.0
  9
$AUNITS
 70
     1
  9
$AUPREC
 70
     3
  9
$MENU
  1
ACAD
  9
$ELEVATION
 40
0.0
  9
$PELEVATION
 40
0.0
  9
$THICKNESS
 40
0.0
  9
$LIMCHECK
 70
     0
  9
$BLIPMODE
 70
     0
  9
$CHAMFERA
 40
0.0
  9
$CHAMFERB
 40
0.0
  9
$SKPOLY
 70
     0
  9
$TDCREATE
 40
2450319.475543981
  9
$TDUPDATE
 40
2454235.8825922222
  9
$TDINDWG
 40
0.3546520718
  9
$TDUSRTIMER
 40
0.3546520718
  9
$USRTIMER
 70
     1
  9
$ANGBASE
 50
0.0
  9
$ANGDIR
 70
     0
  9
$PDMODE
 70
     3
  9
$PDSIZE
 40
-2.0
  9
$PLINEWID
 40
0.0
  9
$COORDS
 70
     2
  9
$SPLFRAME
 70
     0
  9
$SPLINETYPE
 70
     6
  9
$SPLINESEGS
 70
     8
  9
$ATTDIA
 70
     0
  9
$ATTREQ
 70
     1
  9
$HANDLING
 70
 22529
  9
$HANDSEED
  5
215
  9
$SURFTAB1
 70
     6
  9
$SURFTAB2
 70
     6
  9
$SURFTYPE
 70
     6
  9
$SURFU
 70
     6
  9
$SURFV
 70
     6
  9
$UCSNAME
  2

  9
$UCSORG
 10
0.0
 20
0.0
 30
0.0
  9
$UCSXDIR
 10
1.0
 20
0.0
 30
0.0
  9
$UCSYDIR
 10
0.0
 20
1.0
 30
0.0
  9
$PUCSNAME
  2

  9
$PUCSORG
 10
0.0
 20
0.0
 30
0.0
  9
$PUCSXDIR
 10
1.0
 20
0.0
 30
0.0
  9
$PUCSYDIR
 10
0.0
 20
1.0
 30
0.0
  9
$USERI1
 70
     0
  9
$USERI2
 70
     0
  9
$USERI3
 70
     0
  9
$USERI4
 70
     0
  9
$USERI5
 70
     0
  9
$USERR1
 40
20.0
  9
$USERR2
 40
0.0
  9
$USERR3
 40
0.0
  9
$USERR4
 40
0.0
  9
$USERR5
 40
0.0
  9
$WORLDVIEW
 70
     1
  9
$SHADEDGE
 70
     3
  9
$SHADEDIF
 70
    70
  9
$TILEMODE
 70
     1
  9
$MAXACTVP
 70
    48
  9
$PLIMCHECK
 70
     0
  9
$PEXTMIN
 10
-1.0000000000000000E+020
 20
-1.0000000000000000E+020
 30
-1.0000000000000000E+020
  9
$PEXTMAX
 10
1.0000000000000000E+020
 20
1.0000000000000000E+020
 30
1.0000000000000000E+020
  9
$PLIMMIN
 10
0.0
 20
0.0
  9
$PLIMMAX
 10
12.0
 20
9.0
  9
$UNITMODE
 70
     0
  9
$VISRETAIN
 70
     0
  9
$PLINEGEN
 70
     0
  9
$PSLTSCALE
 70
     0
  0
ENDSEC
  0
SECTION
  2
TABLES
  0
TABLE
  2
VPORT
 70
     3
  0
VPORT
  2
*ACTIVE
 70
     0
 10
0.0
 20
0.0
 11
1.0
 21
1.0
 12
47.12300375684913
 22
230.72306868520141
 13
0.0
 23
0.0
 14
50.0
 24
50.0
 15
400.0
 25
400.0
 16
0.0
 26
0.0
 36
1.0
 17
0.0
 27
0.0
 37
0.0
 40
1116.955569647901
 41
1.672794117647058
 42
50.0
 43
0.0
 44
0.0
 50
0.0
 51
0.0
 71
     0
 72
   500
 73
     1
 74
     0
 75
     0
 76
     0
 77
     0
 78
     0
  0
ENDTAB
  0
TABLE
  2
LTYPE
 70
     2
  0
LTYPE
  2
CONTINUOUS
 70
     0
  3
実線
 72
    65
 73
     0
 40
0.0
  0
LTYPE
  2
DASHDOT
 70
     0
  3
____ _ ____ _ ____ _ ____ _ ____ _ ____ _ ____
 72
    65
 73
     4
 40
5.5
 49
4.0
 49
-0.6
 49
0.3
 49
-0.6
  0
ENDTAB
  0
TABLE
  2
LAYER
 70
    12
  0
LAYER
  2
0
 70
     0
 62
     7
  6
CONTINUOUS
  0
LAYER
  2
OUTLINE
 70
     0
 62
     3
  6
CONTINUOUS
  0
LAYER
  2
DETAIL
 70
     0
 62
     5
  6
CONTINUOUS
  0
LAYER
  2
BASIS
 70
     0
 62
     6
  6
DASHDOT
  0
LAYER
  2
NOTE
 70
     0
 62
     4
  6
CONTINUOUS
  0
LAYER
  2
DEFPOINTS
 70
     0
 62
     7
  6
CONTINUOUS
  0
LAYER
  2
SIZE
 70
     0
 62
    30
  6
CONTINUOUS
  0
LAYER
  2
FIX
 70
     0
 62
    11
  6
CONTINUOUS
  0
LAYER
  2
ARRANGE
 70
     0
 62
     1
  6
CONTINUOUS
  0
LAYER
  2
ETC
 70
     0
 62
    61
  6
CONTINUOUS
  0
LAYER
  2
SERVICESPACE
 70
     0
 62
     2
  6
DASHDOT
  0
LAYER
  2
SYMBOLLINE
 70
     0
 62
    15
  6
CONTINUOUS
  0
ENDTAB
  0
TABLE
  2
STYLE
 70
     1
  0
STYLE
  2
STANDARD
 70
     0
 40
0.0
 41
0.9
 50
0.0
 71
     0
 42
64.0
  3
SIMPLEX
  4
BIGFONT
  0
ENDTAB
  0
TABLE
  2
VIEW
 70
     1
  0
VIEW
  2
ALL
 70
     0
 40
4282.6198079999986
 10
0.0
 20
41.309903999999989
 41
5940.0
 11
0.0
 21
0.0
 31
1.0
 12
0.0
 22
0.0
 32
0.0
 42
50.0
 43
0.0
 44
0.0
 50
0.0
 71
     0
  0
ENDTAB
  0
TABLE
  2
UCS
 70
     0
  0
ENDTAB
  0
TABLE
  2
APPID
 70
     1
  0
APPID
  2
ACAD
 70
     0
  0
ENDTAB
  0
TABLE
  2
DIMSTYLE
 70
     1
  0
DIMSTYLE
  2
STANDARD
 70
     0
  3

  4

  5

  6

  7

 40
1.0
 41
0.18
 42
0.0625
 43
0.38
 44
0.18
 45
0.0
 46
0.0
 47
0.0
 48
0.0
140
0.18
141
0.09
142
0.0
143
25.399999999999999
144
1.0
145
0.0
146
1.0
147
0.09
 71
     0
 72
     0
 73
     1
 74
     1
 75
     0
 76
     0
 77
     0
 78
     0
170
     0
171
     2
172
     0
173
     0
174
     0
175
     0
176
     7
177
     7
178
     7
  0
ENDTAB
  0
ENDSEC
  0
SECTION
  2
BLOCKS
  0
BLOCK
  8
0
  2
$MODEL_SPACE
 70
     0
 10
0.0
 20
0.0
 30
0.0
  3
$MODEL_SPACE
  1

  0
ENDBLK
  5
20
  8
0
  0
BLOCK
 67
     1
  8
0
  2
$PAPER_SPACE
 70
     0
 10
0.0
 20
0.0
 30
0.0
  3
$PAPER_SPACE
  1

  0
ENDBLK
  5
1C
 67
     1
  8
0
  0
BLOCK
  8
OUTLINE
  2
DOT1
 70
     0
 10
0.0
 20
0.0
 30
0.0
  3
DOT1
  1

  0
CIRCLE
  5
35
  8
SIZE
  6
CONTINUOUS
 62
     7
 10
0.0
 20
0.0
 30
0.0
 40
3.0
  0
ENDBLK
  5
36
  8
OUTLINE
  0
BLOCK
  8
0
  2
_ORIGIN
 70
     0
 10
0.0
 20
0.0
 30
0.0
  3
_ORIGIN
  1

  0
CIRCLE
  5
1BE
  8
0
  6
CONTINUOUS
 62
     7
 10
0.0
 20
0.0
 30
0.0
 40
0.5
  0
LINE
  5
1BF
  8
0
  6
CONTINUOUS
 62
     7
 10
0.0
 20
0.0
 30
0.0
 11
-1.0
 21
0.0
 31
0.0
  0
ENDBLK
  5
1C1
  8
0
  0
ENDSEC
  0
SECTION
  2
ENTITIES
  0
ARC
  5
37
  8
DETAIL
  6
CONTINUOUS
 62
     5
 10
-0.000031
 20
108.2607379999999
 30
0.0
 40
195.65666699999991
 50
259.349605
 51
279.221857
  0
ARC
  5
38
  8
DETAIL
  6
CONTINUOUS
 62
     5
 10
-0.000031
 20
108.2607379999999
 30
0.0
 40
196.83770499999989
 50
259.349605
 51
279.50016199999988
  0
ARC
  5
39
  8
DETAIL
  6
CONTINUOUS
 62
     5
 10
-0.000031
 20
0.000031
 30
0.0
 40
129.0
 50
66.856842000000015
 51
133.583856
  0
ARC
  5
3A
  8
DETAIL
  6
CONTINUOUS
 62
     5
 10
-0.000031
 20
0.000031
 30
0.0
 40
4.8225230000000003
 50
299.99999500000001
 51
299.57399199999992
  0
CIRCLE
  5
3B
  8
DETAIL
  6
CONTINUOUS
 62
     5
 10
0.0
 20
0.000031
 30
0.0
 40
39.859634999999997
  0
CIRCLE
  5
3C
  8
DETAIL
  6
CONTINUOUS
 62
     5
 10
0.0
 20
0.000031
 30
0.0
 40
40.351729999999989
  0
CIRCLE
  5
3D
  8
DETAIL
  6
CONTINUOUS
 62
     5
 10
-0.000031
 20
0.0
 30
0.0
 40
42.812201000000002
  0
LINE
  5
3E
  8
DETAIL
  6
CONTINUOUS
 62
     5
 10
1.968346999999999
 20
-97.237814
 30
0.0
 11
-1.9684079999999999
 21
-97.237814
 31
0.0
  0
LINE
  5
3F
  8
DETAIL
  6
CONTINUOUS
 62
     5
 10
9.9270969999999998
 20
-80.098015000000004
 30
0.0
 11
-28.470779999999991
 21
-80.098015000000004
 31
0.0
  0
LINE
  5
40
  8
DETAIL
  6
CONTINUOUS
 62
     5
 10
9.9270969999999998
 20
-65.335187000000005
 30
0.0
 11
-28.470779999999991
 21
-65.335187000000005
 31
0.0
  0
ARC
  5
41
  8
DETAIL
  6
CONTINUOUS
 62
     5
 10
-0.000031
 20
60.527594999999998
 30
0.0
 40
151.1713629999999
 50
270.0
 51
282.85305899999992
  0
ARC
  5
42
  8
DETAIL
  6
CONTINUOUS
 62
     5
 10
-7.6274619999999986
 20
-41.992083999999998
 30
0.0
 40
34.446598000000002
 50
180.0
 51
315.0
  0
ARC
  5
43
  8
DETAIL
  6
CONTINUOUS
 62
     5
 10
-7.6274619999999986
 20
-41.992083999999998
 30
0.0
 40
32.478220999999998
 50
180.0
 51
315.0
  0
ARC
  5
44
  8
DETAIL
  6
CONTINUOUS
 62
     5
 10
84.720465000000004
 20
-26.177267999999991
 30
0.0
 40
79.324146999999996
 50
191.67537499999989
 51
260.63425099999989
  0
LINE
  5
45
  8
SIZE
  6
CONTINUOUS
 62
    30
 10
156.999968
 20
107.99996999999991
 30
0.0
 11
156.999968
 21
395.30504699999989
 31
0.0
  0
LINE
  5
46
  8
SIZE
  6
CONTINUOUS
 62
    30
 10
-157.00003000000001
 20
107.99996999999991
 30
0.0
 11
-157.00003000000001
 21
395.30504699999989
 31
0.0
  0
LINE
  5
47
  8
SIZE
  6
CONTINUOUS
 62
    30
 10
154.99996799999991
 20
365.305047
 30
0.0
 11
-155.00003000000001
 21
365.305047
 31
0.0
  0
CIRCLE
  5
48
  8
SIZE
  6
CONTINUOUS
 62
    30
 10
156.999968
 20
365.305047
 30
0.0
 40
6.0
  0
CIRCLE
  5
49
  8
SIZE
  6
CONTINUOUS
 62
    30
 10
-157.00003000000001
 20
365.305047
 30
0.0
 40
6.0
  0
TEXT
  5
4A
  8
SIZE
  6
CONTINUOUS
 62
    30
 10
-69.942888142857129
 20
385.30504699999989
 30
0.0
 40
64.0
  1
314
 41
0.9
 72
     1
 11
-0.000031
 21
385.30504699999989
 31
0.0
  0
LINE
  5
4E
  8
SIZE
  6
CONTINUOUS
 62
    30
 10
79.999968999999993
 20
177.0
 30
0.0
 11
79.999968999999993
 21
274.085758
 31
0.0
  0
LINE
  5
4F
  8
SIZE
  6
CONTINUOUS
 62
    30
 10
-80.0
 20
176.99996899999991
 30
0.0
 11
-80.0
 21
274.085758
 31
0.0
  0
LINE
  5
50
  8
SIZE
  6
CONTINUOUS
 62
    30
 10
81.999968999999993
 20
244.08575799999991
 30
0.0
 11
83.999968999999993
 21
244.08575799999991
 31
0.0
  0
LINE
  5
51
  8
SIZE
  6
CONTINUOUS
 62
    30
 10
-82.0
 20
244.08575799999991
 30
0.0
 11
-84.0
 21
244.08575799999991
 31
0.0
  0
LINE
  5
52
  8
SIZE
  6
CONTINUOUS
 62
    30
 10
79.999968999999993
 20
244.08575799999991
 30
0.0
 11
-80.0
 21
244.08575799999991
 31
0.0
  0
CIRCLE
  5
53
  8
SIZE
  6
CONTINUOUS
 62
    30
 10
79.999968999999993
 20
244.08575799999991
 30
0.0
 40
6.0
  0
CIRCLE
  5
54
  8
SIZE
  6
CONTINUOUS
 62
    30
 10
-80.0
 20
244.08575799999991
 30
0.0
 40
6.0
  0
TEXT
  5
55
  8
SIZE
  6
CONTINUOUS
 62
    30
 10
-68.57144357142856
 20
264.085758
 30
0.0
 40
64.0
  1
160
 41
0.9
 72
     1
 11
-0.000015
 21
264.085758
 31
0.0
  0
LINE
  5
59
  8
SIZE
  6
CONTINUOUS
 62
    30
 10
-427.69905299999999
 20
-174.0638889999999
 30
0.0
 11
-121.33631799999991
 21
-49.381149999999991
 31
0.0
  0
LINE
  5
5A
  8
SIZE
  6
CONTINUOUS
 62
    30
 10
121.33631799999991
 20
49.381151000000003
 30
0.0
 11
123.18878100000001
 21
50.135061
 31
0.0
  0
TEXT
  5
5B
  8
SIZE
  6
CONTINUOUS
 62
    30
 10
-429.92424954699788
 20
-153.37659914993219
 30
0.0
 40
64.0
  1
φ258
 50
22.145208
 41
0.9
 72
     1
 11
-323.98453799999987
 21
-110.2615399999999
 31
0.0
  0
LINE
  5
5C
  8
SIZE
  6
CONTINUOUS
 62
    30
 10
119.48385500000001
 20
48.62724
 30
0.0
 11
-119.48385500000001
 21
-48.62724
 31
0.0
  0
CIRCLE
  5
5D
  8
SIZE
  6
CONTINUOUS
 62
    30
 10
119.48385500000001
 20
48.62724
 30
0.0
 40
6.0
  0
CIRCLE
  5
5E
  8
SIZE
  6
CONTINUOUS
 62
    30
 10
-119.48385500000001
 20
-48.62724
 30
0.0
 40
6.0
  0
LINE
  5
61
  8
SIZE
  6
CONTINUOUS
 62
    30
 10
-475.530755
 20
-11.262857
 30
0.0
 11
-134.46232099999989
 21
-3.184714
 31
0.0
  0
LINE
  5
62
  8
SIZE
  6
CONTINUOUS
 62
    30
 10
134.46225999999999
 20
3.1847150000000002
 30
0.0
 11
136.46169900000001
 21
3.232070999999999
 31
0.0
  0
TEXT
  5
63
  8
SIZE
  6
CONTINUOUS
 62
    30
 10
-470.2687897343892
 20
8.8674015430173316
 30
0.0
 40
64.0
  1
φ265
 50
1.3567759999999991
 41
0.9
 72
     1
 11
-355.92371400000002
 21
11.575623
 31
0.0
  0
LINE
  5
64
  8
SIZE
  6
CONTINUOUS
 62
    30
 10
132.46282099999991
 20
3.1373579999999999
 30
0.0
 11
-132.46288200000001
 21
-3.1373579999999999
 31
0.0
  0
CIRCLE
  5
65
  8
SIZE
  6
CONTINUOUS
 62
    30
 10
132.46282099999991
 20
3.1373579999999999
 30
0.0
 40
6.0
  0
CIRCLE
  5
66
  8
SIZE
  6
CONTINUOUS
 62
    30
 10
-132.46288200000001
 20
-3.1373579999999999
 30
0.0
 40
6.0
  0
ARC
  5
69
  8
DETAIL
  6
CONTINUOUS
 62
     5
 10
-0.000031
 20
-6815.0004879999988
 30
0.0
 40
6979.9936519999992
 50
89.999909000000002
 51
90.497310000000013
  0
ARC
  5
6A
  8
DETAIL
  6
CONTINUOUS
 62
     5
 10
-0.000031
 20
-6815.0004879999988
 30
0.0
 40
6979.9936519999992
 50
89.502725999999996
 51
90.000126999999992
  0
ARC
  5
6B
  8
DETAIL
  6
CONTINUOUS
 62
     5
 10
-0.000031
 20
6815.004394999999
 30
0.0
 40
6979.9936519999992
 50
269.50276200000002
 51
270.00016299999999
  0
ARC
  5
6C
  8
DETAIL
  6
CONTINUOUS
 62
     5
 10
-0.000031
 20
6815.004394999999
 30
0.0
 40
6979.9936519999992
 50
269.99988999999999
 51
270.49729200000002
  0
ARC
  5
6D
  8
DETAIL
  6
CONTINUOUS
 62
     5
 10
-0.000031
 20
0.0
 30
0.0
 40
132.49999999999989
 50
269.99988999999999
 51
313.49065799999988
  0
ARC
  5
6E
  8
DETAIL
  6
CONTINUOUS
 62
     5
 10
-0.036196
 20
0.090671
 30
0.0
 40
132.409334
 50
89.984313999999983
 51
133.50625099999991
  0
LINE
  5
71
  8
SIZE
  6
CONTINUOUS
 62
    30
 10
185.0
 20
195.0
 30
0.0
 11
185.0
 21
605.73341900000003
 31
0.0
  0
LINE
  5
72
  8
SIZE
  6
CONTINUOUS
 62
    30
 10
-185.0
 20
195.0
 30
0.0
 11
-185.0
 21
605.73341900000003
 31
0.0
  0
LINE
  5
73
  8
SIZE
  6
CONTINUOUS
 62
    30
 10
183.0
 20
575.73341900000003
 30
0.0
 11
-183.0
 21
575.73341900000003
 31
0.0
  0
CIRCLE
  5
74
  8
SIZE
  6
CONTINUOUS
 62
    30
 10
185.0
 20
575.73341900000003
 30
0.0
 40
6.0
  0
CIRCLE
  5
75
  8
SIZE
  6
CONTINUOUS
 62
    30
 10
-185.0
 20
575.73341900000003
 30
0.0
 40
6.0
  0
TEXT
  5
76
  8
SIZE
  6
CONTINUOUS
 62
    30
 10
-74.05714285714285
 20
595.73341900000003
 30
0.0
 40
64.0
  1
370
 41
0.9
 72
     1
 11
0.0
 21
595.73341900000003
 31
0.0
  0
LINE
  5
7A
  8
SIZE
  6
CONTINUOUS
 62
    30
 10
-165.0
 20
192.071068
 30
0.0
 11
-165.0
 21
501.59673199999997
 31
0.0
  0
LINE
  5
7B
  8
SIZE
  6
CONTINUOUS
 62
    30
 10
165.0
 20
192.071068
 30
0.0
 11
165.0
 21
501.59673199999997
 31
0.0
  0
LINE
  5
7C
  8
SIZE
  6
CONTINUOUS
 62
    30
 10
-163.0
 20
471.59673199999997
 30
0.0
 11
163.0
 21
471.59673199999997
 31
0.0
  0
CIRCLE
  5
7D
  8
SIZE
  6
CONTINUOUS
 62
    30
 10
-165.0
 20
471.59673199999997
 30
0.0
 40
6.0
  0
CIRCLE
  5
7E
  8
SIZE
  6
CONTINUOUS
 62
    30
 10
165.0
 20
471.59673199999997
 30
0.0
 40
6.0
  0
TEXT
  5
7F
  8
SIZE
  6
CONTINUOUS
 62
    30
 10
-74.057142857142864
 20
491.59673199999997
 30
0.0
 40
64.0
  1
330
 41
0.9
 72
     1
 11
0.0
 21
491.59673199999997
 31
0.0
  0
LINE
  5
83
  8
DETAIL
  6
CONTINUOUS
 62
     5
 10
-175.0
 20
185.0
 30
0.0
 11
175.0
 21
185.0
 31
0.0
  0
LINE
  5
84
  8
DETAIL
  6
CONTINUOUS
 62
     5
 10
175.0
 20
-185.0
 30
0.0
 11
-175.0
 21
-185.0
 31
0.0
  0
LINE
  5
85
  8
BASIS
  6
DASHDOT
 62
     6
 10
-212.913771
 20
0.0
 30
0.0
 11
207.2763919999999
 21
0.0
 31
0.0
  0
CIRCLE
  5
86
  8
ARRANGE
  6
CONTINUOUS
 62
     1
 10
0.0
 20
0.0
 30
0.0
 40
40.0
  0
POINT
  5
87
  8
ARRANGE
  6
CONTINUOUS
 62
     1
 10
0.0
 20
0.0
 30
0.0
  0
LINE
  5
88
  8
DETAIL
  6
CONTINUOUS
 62
     5
 10
-40.843823999999991
 20
-11.07212
 30
0.0
 11
-40.843823999999991
 21
3.198612999999999
 31
0.0
  0
LINE
  5
89
  8
DETAIL
  6
CONTINUOUS
 62
     5
 10
-40.351729999999989
 20
-13.532591999999999
 30
0.0
 11
-40.351729999999989
 21
3.198612999999999
 31
0.0
  0
LINE
  5
8A
  8
DETAIL
  6
CONTINUOUS
 62
     5
 10
-40.843823999999991
 20
4.6256859999999991
 30
0.0
 11
-40.843823999999991
 21
-4.6256849999999989
 31
0.0
  0
LINE
  5
8B
  8
DETAIL
  6
CONTINUOUS
 62
     5
 10
-41.127707999999991
 20
-4.6256849999999989
 30
0.0
 11
-41.127707999999991
 21
4.6256859999999991
 31
0.0
  0
ARC
  5
8C
  8
DETAIL
  6
CONTINUOUS
 62
     5
 10
-38.698239999999998
 20
-88.901255000000006
 30
0.0
 40
117.95938599999999
 50
115.5875649999999
 51
137.99845300000001
  0
ARC
  5
8D
  8
DETAIL
  6
CONTINUOUS
 62
     5
 10
6815.0016779999996
 20
0.0
 30
0.0
 40
6979.9936519999992
 50
179.50277999999989
 51
180.00018099999991
  0
ARC
  5
8E
  8
DETAIL
  6
CONTINUOUS
 62
     5
 10
-0.000031
 20
0.0
 30
0.0
 40
132.49999999999989
 50
133.490633
 51
180.0
  0
ARC
  5
8F
  8
DETAIL
  6
CONTINUOUS
 62
     5
 10
6815.0016779999996
 20
0.0
 30
0.0
 40
6979.9936519999992
 50
179.999908
 51
180.49731
  0
ARC
  5
90
  8
DETAIL
  6
CONTINUOUS
 62
     5
 10
-0.000031
 20
0.0
 30
0.0
 40
132.49999999999989
 50
179.99996299999989
 51
232.24724900000001
  0
LINE
  5
92
  8
DETAIL
  6
CONTINUOUS
 62
     5
 10
-185.0
 20
-175.0
 30
0.0
 11
-185.0
 21
175.0
 31
0.0
  0
LINE
  5
93
  8
BASIS
  6
DASHDOT
 62
     6
 10
0.0
 20
-219.86267519568349
 30
0.0
 11
0.0
 21
218.63637135404539
 31
0.0
  0
ARC
  5
94
  8
DETAIL
  6
CONTINUOUS
 62
     5
 10
-76.728292999999994
 20
1694.5880110000001
 30
0.0
 40
1859.013167999999
 50
268.37332700000002
 51
269.29485699999992
  0
LINE
  5
95
  8
NOTE
  6
DASHDOT
 62
     4
 10
-80.0
 20
-149.0
 30
0.0
 11
-80.0
 21
-165.0
 31
0.0
  0
ARC
  5
96
  8
DETAIL
  6
CONTINUOUS
 62
     5
 10
-99.486816000000005
 20
-156.28265400000001
 30
0.0
 40
7.9999979999999988
 50
269.17982999999992
 51
357.89180199999993
  0
ARC
  5
97
  8
DETAIL
  6
CONTINUOUS
 62
     5
 10
-125.8504639999999
 20
-125.851654
 30
0.0
 40
38.0
 50
181.03826099999989
 51
264.48869200000001
  0
ARC
  5
98
  8
DETAIL
  6
CONTINUOUS
 62
     5
 10
-60.501862000000003
 20
-156.72998000000001
 30
0.0
 40
7.9999979999999988
 50
180.793521
 51
269.50013899999988
  0
LINE
  5
99
  8
NOTE
  6
CONTINUOUS
 62
     4
 10
-165.0
 20
-145.0
 30
0.0
 11
-165.0
 21
-185.0
 31
0.0
  0
LINE
  5
9A
  8
DETAIL
  6
CONTINUOUS
 62
     5
 10
-165.0
 20
-157.92893199999989
 30
0.0
 11
-157.92893199999989
 21
-165.0
 31
0.0
  0
LINE
  5
9B
  8
DETAIL
  6
CONTINUOUS
 62
     5
 10
-172.071068
 20
-165.0
 30
0.0
 11
-165.0
 21
-157.92893199999989
 31
0.0
  0
CIRCLE
  5
9C
  8
FIX
  6
CONTINUOUS
 62
    11
 10
-165.0
 20
-165.0
 30
0.0
 40
5.0
  0
LINE
  5
9D
  8
NOTE
  6
CONTINUOUS
 62
     4
 10
-145.0
 20
-165.0
 30
0.0
 11
-185.0
 21
-165.0
 31
0.0
  0
ARC
  5
9F
  8
DETAIL
  6
CONTINUOUS
 62
     5
 10
-175.0
 20
-175.0
 30
0.0
 40
10.0
 50
180.0
 51
270.0
  0
LINE
  5
A0
  8
DETAIL
  6
CONTINUOUS
 62
     5
 10
-165.0
 20
-172.071068
 30
0.0
 11
-157.92893199999989
 21
-165.0
 31
0.0
  0
LINE
  5
A1
  8
DETAIL
  6
CONTINUOUS
 62
     5
 10
-172.071068
 20
-165.0
 30
0.0
 11
-165.0
 21
-172.071068
 31
0.0
  0
ARC
  5
A2
  8
DETAIL
  6
CONTINUOUS
 62
     5
 10
-0.000031
 20
0.000031
 30
0.0
 40
129.0
 50
186.856818
 51
227.82833600000001
  0
ARC
  5
A3
  8
DETAIL
  6
CONTINUOUS
 62
     5
 10
-107.9944459999999
 20
-124.9991149999999
 30
0.0
 40
6.5
 50
51.436824999999999
 51
179.999999
  0
CIRCLE
  5
A4
  8
FIX
  6
DASHDOT
 62
    11
 10
-157.0
 20
-80.0
 30
0.0
 40
4.0
  0
ARC
  5
A5
  8
DETAIL
  6
CONTINUOUS
 62
     5
 10
-157.0
 20
-80.0
 30
0.0
 40
11.499998
 50
272.111785
 51
89.203125999999997
  0
LINE
  5
A6
  8
NOTE
  6
DASHDOT
 62
     4
 10
-157.0
 20
-72.0
 30
0.0
 11
-157.0
 21
-88.0
 31
0.0
  0
ARC
  5
A7
  8
DETAIL
  6
CONTINUOUS
 62
     5
 10
-156.281464
 20
-99.486755000000002
 30
0.0
 40
7.9999979999999988
 50
92.111710999999985
 51
180.8150499999999
  0
LINE
  5
A8
  8
DETAIL
  6
CONTINUOUS
 62
     5
 10
-138.35000099999991
 20
-132.6000139999999
 30
0.0
 11
-135.47503699999999
 21
-137.60000400000001
 31
0.0
  0
LINE
  5
A9
  8
DETAIL
  6
CONTINUOUS
 62
     5
 10
-135.475019
 20
-127.60001099999999
 30
0.0
 11
-138.35002
 21
-132.6000139999999
 31
0.0
  0
LINE
  5
AA
  8
DETAIL
  6
CONTINUOUS
 62
     5
 10
-129.725021
 20
-137.6000129999999
 30
0.0
 11
-126.8500189999999
 21
-132.60000999999991
 31
0.0
  0
LINE
  5
AB
  8
DETAIL
  6
CONTINUOUS
 62
     5
 10
-126.85003
 20
-132.60001800000001
 30
0.0
 11
-129.725009
 21
-127.600002
 31
0.0
  0
LINE
  5
AC
  8
DETAIL
  6
CONTINUOUS
 62
     5
 10
-135.47500600000001
 20
-137.60000600000001
 30
0.0
 11
-129.72500600000001
 21
-137.60000600000001
 31
0.0
  0
LINE
  5
AD
  8
DETAIL
  6
CONTINUOUS
 62
     5
 10
-129.72500600000001
 20
-127.60000599999999
 30
0.0
 11
-135.47500600000001
 21
-127.60000599999999
 31
0.0
  0
CIRCLE
  5
AE
  8
DETAIL
  6
CONTINUOUS
 62
     5
 10
-132.60000600000001
 20
-132.60000600000001
 30
0.0
 40
4.9000000000000004
  0
ARC
  5
AF
  8
DETAIL
  6
CONTINUOUS
 62
     5
 10
6815.0016779999996
 20
0.0
 30
0.0
 40
6979.9936519999992
 50
180.81772799999999
 51
181.03886199999999
  0
ARC
  5
B0
  8
DETAIL
  6
CONTINUOUS
 62
     5
 10
-121.23732199999991
 20
-14.578592
 30
0.0
 40
6.8893199999999988
 50
137.99845300000001
 51
186.856764
  0
ARC
  5
B1
  8
DETAIL
  6
CONTINUOUS
 62
     5
 10
-156.72879
 20
-60.501892000000012
 30
0.0
 40
7.9999979999999988
 50
180.49457799999999
 51
269.20316200000002
  0
LINE
  5
B2
  8
NOTE
  6
DASHDOT
 62
     4
 10
-165.0
 20
-80.0
 30
0.0
 11
-149.0
 21
-80.0
 31
0.0
  0
ARC
  5
B3
  8
DETAIL
  6
CONTINUOUS
 62
     5
 10
25.818398999999999
 20
-68.30545699999999
 30
0.0
 40
73.453028000000003
 50
182.102023
 51
202.13655199999991
  0
ARC
  5
B4
  8
DETAIL
  6
CONTINUOUS
 62
     5
 10
-34.677658999999998
 20
-77.902330000000006
 30
0.0
 40
8.4640219999999982
 50
190.00001700000001
 51
255.93631300000001
  0
ARC
  5
B5
  8
DETAIL
  6
CONTINUOUS
 62
     5
 10
-35.287370000000003
 20
-79.382696999999993
 30
0.0
 40
5.905130999999999
 50
189.99996200000001
 51
259.34949499999988
  0
ARC
  5
B6
  8
DETAIL
  6
CONTINUOUS
 62
     5
 10
-35.287370000000003
 20
-79.382696999999993
 30
0.0
 40
4.724105999999999
 50
190.00001700000001
 51
259.349605
  0
ARC
  5
B7
  8
DETAIL
  6
CONTINUOUS
 62
     5
 10
-0.000031
 20
0.000031
 30
0.0
 40
129.0
 50
227.82833600000001
 51
254.32679300000001
  0
ARC
  5
B8
  8
DETAIL
  6
CONTINUOUS
 62
     5
 10
-0.000031
 20
0.0
 30
0.0
 40
132.49999999999989
 50
232.24724900000001
 51
270.0
  0
LINE
  5
B9
  8
DETAIL
  6
CONTINUOUS
 62
     5
 10
-93.332165000000003
 20
-93.888372000000004
 30
0.0
 11
-90.582950999999994
 21
-91.623840000000015
 31
0.0
  0
LINE
  5
BA
  8
DETAIL
  6
CONTINUOUS
 62
     5
 10
-95.526476000000002
 20
-91.553623000000002
 30
0.0
 11
-92.813215
 21
-89.371517999999995
 31
0.0
  0
ARC
  5
BB
  8
DETAIL
  6
CONTINUOUS
 62
     5
 10
-107.9944459999999
 20
-124.9991149999999
 30
0.0
 40
6.5
 50
180.00007199999999
 51
209.52244399999989
  0
ARC
  5
BC
  8
DETAIL
  6
CONTINUOUS
 62
     5
 10
-107.9944459999999
 20
-124.9991149999999
 30
0.0
 40
6.5
 50
209.52244399999989
 51
51.436824999999999
  0
CIRCLE
  5
BD
  8
FIX
  6
DASHDOT
 62
    11
 10
-80.0
 20
-157.0
 30
0.0
 40
4.0
  0
LINE
  5
BE
  8
NOTE
  6
DASHDOT
 62
     4
 10
-88.0
 20
-157.0
 30
0.0
 11
-72.0
 21
-157.0
 31
0.0
  0
ARC
  5
BF
  8
DETAIL
  6
CONTINUOUS
 62
     5
 10
-80.0
 20
-157.0
 30
0.0
 40
11.499998
 50
0.7935950000000001
 51
177.8916569999999
  0
LINE
  5
C0
  8
DETAIL
  6
CONTINUOUS
 62
     5
 10
-8.3656330000000008
 20
-88.399128999999988
 30
0.0
 11
-8.3656330000000008
 21
-87.217010000000016
 31
0.0
  0
LINE
  5
C1
  8
DETAIL
  6
CONTINUOUS
 62
     5
 10
-1.476313
 20
-97.237814
 30
0.0
 11
-1.476313
 21
-90.643768999999992
 31
0.0
  0
LINE
  5
C2
  8
DETAIL
  6
CONTINUOUS
 62
     5
 10
-1.9684079999999999
 20
-97.237814
 30
0.0
 11
-1.9684079999999999
 21
-90.643768999999992
 31
0.0
  0
ARC
  5
C3
  8
DETAIL
  6
CONTINUOUS
 62
     5
 10
-0.000031
 20
60.527594999999998
 30
0.0
 40
151.1713629999999
 50
255.93642299999991
 51
270.0
  0
ARC
  5
C4
  8
DETAIL
  6
CONTINUOUS
 62
     5
 10
-33.732695999999997
 20
-120.2236679999999
 30
0.0
 40
4.133591
 50
254.32673799999989
 51
37.290193000000002
  0
ARC
  5
C5
  8
DETAIL
  6
CONTINUOUS
 62
     5
 10
33.531880000000001
 20
-68.999789000000007
 30
0.0
 40
80.414702000000005
 50
199.606323
 51
217.29022900000001
  0
LINE
  5
C6
  8
DETAIL
  6
CONTINUOUS
 62
     5
 10
-41.33591899999999
 20
-10.087932
 30
0.0
 11
-41.33591899999999
 21
-6.6432719999999996
 31
0.0
  0
LINE
  5
C7
  8
DETAIL
  6
CONTINUOUS
 62
     5
 10
-40.351729999999989
 20
-11.07212
 30
0.0
 11
-40.843823999999991
 21
-11.07212
 31
0.0
  0
LINE
  5
C8
  8
DETAIL
  6
CONTINUOUS
 62
     5
 10
-40.351729999999989
 20
-10.087932
 30
0.0
 11
-41.33591899999999
 21
-10.087932
 31
0.0
  0
LINE
  5
C9
  8
DETAIL
  6
CONTINUOUS
 62
     5
 10
-40.351729999999989
 20
-6.6432719999999996
 30
0.0
 11
-41.33591899999999
 21
-6.6432719999999996
 31
0.0
  0
LINE
  5
CA
  8
DETAIL
  6
CONTINUOUS
 62
     5
 10
-40.843823999999991
 20
-4.6256849999999989
 30
0.0
 11
-41.127707999999991
 21
-4.6256849999999989
 31
0.0
  0
ARC
  5
CB
  8
DETAIL
  6
CONTINUOUS
 62
     5
 10
-37.300744999999999
 20
0.0
 30
0.0
 40
6.0035499999999988
 50
227.76823699999991
 51
230.3980169999999
  0
CIRCLE
  5
CC
  8
DETAIL
  6
CONTINUOUS
 62
     5
 10
-30.366007
 20
-36.188690999999992
 30
0.0
 40
2.952566
  0
LINE
  5
CD
  8
DETAIL
  6
CONTINUOUS
 62
     5
 10
-40.105682999999999
 20
-41.992083999999998
 30
0.0
 11
-40.105682999999999
 21
-38.015928000000002
 31
0.0
  0
LINE
  5
CE
  8
DETAIL
  6
CONTINUOUS
 62
     5
 10
-42.074059999999989
 20
-41.992083999999998
 30
0.0
 11
-42.074059999999989
 21
-41.752105999999991
 31
0.0
  0
ARC
  5
CF
  8
DETAIL
  6
CONTINUOUS
 62
     5
 10
-38.383383000000002
 20
-51.790463000000003
 30
0.0
 40
1.968377
 50
101.658186
 51
180.0000189999999
  0
ARC
  5
D0
  8
DETAIL
  6
CONTINUOUS
 62
     5
 10
-38.383383000000002
 20
-66.312158999999994
 30
0.0
 40
1.968377
 50
180.0000189999999
 51
258.34179699999999
  0
LINE
  5
D1
  8
DETAIL
  6
CONTINUOUS
 62
     5
 10
-28.470779999999991
 20
-65.335187000000005
 30
0.0
 11
-28.470779999999991
 21
-80.098015000000004
 31
0.0
  0
ARC
  5
D2
  8
DETAIL
  6
CONTINUOUS
 62
     5
 10
10.36323099999999
 20
-66.991694999999993
 30
0.0
 40
58.195414999999997
 50
137.591814
 51
183.9565179999999
  0
LINE
  5
D3
  8
DETAIL
  6
CONTINUOUS
 62
     5
 10
-46.515097999999988
 20
-59.511156000000007
 30
0.0
 11
-43.013071999999987
 21
-79.372072000000003
 31
0.0
  0
LINE
  5
D4
  8
DETAIL
  6
CONTINUOUS
 62
     5
 10
-40.351759999999992
 20
-51.790463000000003
 30
0.0
 11
-40.351759999999992
 21
-66.312158999999994
 31
0.0
  0
LINE
  5
D5
  8
DETAIL
  6
CONTINUOUS
 62
     5
 10
-45.683267000000001
 20
-54.430922999999993
 30
0.0
 11
-41.102741999999999
 21
-80.408090999999999
 31
0.0
  0
LINE
  5
D6
  8
DETAIL
  6
CONTINUOUS
 62
     5
 10
-44.520170999999998
 20
-54.225852000000003
 30
0.0
 11
-39.939706999999999
 21
-80.203001
 31
0.0
  0
LINE
  5
D7
  8
NOTE
  6
CONTINUOUS
 62
     4
 10
-252.55774700000001
 20
244.40100499999991
 30
0.0
 11
-802.49356
 21
244.40100499999991
 31
0.0
  0
TEXT
  5
D8
  8
NOTE
  6
CONTINUOUS
 62
     4
 10
-791.75170600000001
 20
273.55765000000002
 30
0.0
 40
64.0
  1
4×φ10取付用穴
 41
0.9
  0
LINE
  5
D9
  8
NOTE
  6
CONTINUOUS
 62
     4
 10
-169.04732999999999
 20
168.01672600000001
 30
0.0
 11
-252.55774700000001
 21
244.40100499999991
 31
0.0
  0
LINE
  5
DA
  8
NOTE
  6
DASHDOT
 62
     4
 10
-80.000000999999983
 20
164.99996999999991
 30
0.0
 11
-80.000000999999983
 21
148.99996999999999
 31
0.0
  0
ARC
  5
DB
  8
DETAIL
  6
CONTINUOUS
 62
     5
 10
-0.000031
 20
-6815.0004879999988
 30
0.0
 40
6979.9936519999992
 50
90.817728000000017
 51
91.038862000000009
  0
ARC
  5
DC
  8
DETAIL
  6
CONTINUOUS
 62
     5
 10
-99.486755000000002
 20
156.28143299999999
 30
0.0
 40
7.9999979999999988
 50
2.1117119999999989
 51
90.815051000000011
  0
ARC
  5
DD
  8
DETAIL
  6
CONTINUOUS
 62
     5
 10
-125.851685
 20
125.850433
 30
0.0
 40
38.0
 50
91.038316000000009
 51
178.9607179999999
  0
ARC
  5
DE
  8
DETAIL
  6
CONTINUOUS
 62
     5
 10
-60.501892000000012
 20
156.72875999999999
 30
0.0
 40
7.9999979999999988
 50
90.494578000000004
 51
179.20316199999999
  0
LINE
  5
DF
  8
DETAIL
  6
CONTINUOUS
 62
     5
 10
-172.071068
 20
165.0
 30
0.0
 11
-165.0
 21
157.92893199999989
 31
0.0
  0
LINE
  5
E0
  8
DETAIL
  6
CONTINUOUS
 62
     5
 10
-165.0
 20
157.92893199999989
 30
0.0
 11
-157.92893199999989
 21
165.0
 31
0.0
  0
CIRCLE
  5
E1
  8
FIX
  6
CONTINUOUS
 62
    11
 10
-165.0
 20
165.0
 30
0.0
 40
5.0
  0
LINE
  5
E2
  8
NOTE
  6
CONTINUOUS
 62
     4
 10
-165.0
 20
185.0
 30
0.0
 11
-165.0
 21
145.0
 31
0.0
  0
ARC
  5
E3
  8
DETAIL
  6
CONTINUOUS
 62
     5
 10
-157.00003100000001
 20
79.999968999999993
 30
0.0
 40
11.499998
 50
270.79361299999988
 51
87.891675000000006
  0
CIRCLE
  5
E4
  8
FIX
  6
DASHDOT
 62
    11
 10
-157.00003100000001
 20
79.999968999999993
 30
0.0
 40
4.0
  0
LINE
  5
E5
  8
NOTE
  6
DASHDOT
 62
     4
 10
-157.00003100000001
 20
87.999968999999993
 30
0.0
 11
-157.00003100000001
 21
71.999968999999993
 31
0.0
  0
ARC
  5
E6
  8
DETAIL
  6
CONTINUOUS
 62
     5
 10
-156.72998000000001
 20
60.501831000000003
 30
0.0
 40
7.9999979999999988
 50
90.793521999999996
 51
179.5001389999999
  0
LINE
  5
E7
  8
NOTE
  6
DASHDOT
 62
     4
 10
-165.00003100000001
 20
79.999968999999993
 30
0.0
 11
-149.00003100000001
 21
79.999968999999993
 31
0.0
  0
LINE
  5
E8
  8
DETAIL
  6
CONTINUOUS
 62
     5
 10
-135.47500999999991
 20
137.60000700000001
 30
0.0
 11
-138.35001
 21
132.60000600000001
 31
0.0
  0
LINE
  5
E9
  8
DETAIL
  6
CONTINUOUS
 62
     5
 10
-138.35001199999999
 20
132.6000019999999
 30
0.0
 11
-135.4750479999999
 21
127.60001200000001
 31
0.0
  0
ARC
  5
EA
  8
DETAIL
  6
CONTINUOUS
 62
     5
 10
-156.28265400000001
 20
99.486785999999995
 30
0.0
 40
7.9999979999999988
 50
179.17984799999991
 51
267.89182
  0
ARC
  5
EB
  8
DETAIL
  6
CONTINUOUS
 62
     5
 10
6814.9958189999988
 20
0.0
 30
0.0
 40
6979.9936519999992
 50
178.961264
 51
179.18239800000001
  0
LINE
  5
EC
  8
DETAIL
  6
CONTINUOUS
 62
     5
 10
-126.85004099999991
 20
132.59999799999991
 30
0.0
 11
-129.72502
 21
137.6000139999999
 31
0.0
  0
LINE
  5
ED
  8
DETAIL
  6
CONTINUOUS
 62
     5
 10
-129.72501099999999
 20
127.60000700000001
 30
0.0
 11
-126.85001099999999
 21
132.60000600000001
 31
0.0
  0
CIRCLE
  5
EE
  8
DETAIL
  6
CONTINUOUS
 62
     5
 10
-124.9991459999999
 20
107.9944149999999
 30
0.0
 40
6.5
  0
CIRCLE
  5
EF
  8
DETAIL
  6
CONTINUOUS
 62
     5
 10
-132.60000600000001
 20
132.60000600000001
 30
0.0
 40
4.9000000000000004
  0
LINE
  5
F0
  8
DETAIL
  6
CONTINUOUS
 62
     5
 10
-129.72500600000001
 20
137.60000600000001
 30
0.0
 11
-135.47500600000001
 21
137.60000600000001
 31
0.0
  0
LINE
  5
F1
  8
DETAIL
  6
CONTINUOUS
 62
     5
 10
-135.47500600000001
 20
127.60000599999999
 30
0.0
 11
-129.72500600000001
 21
127.60000599999999
 31
0.0
  0
LINE
  5
F2
  8
DETAIL
  6
CONTINUOUS
 62
     5
 10
-80.052074000000005
 20
85.797595999999999
 30
0.0
 11
-56.663784999999997
 21
52.395664000000011
 31
0.0
  0
LINE
  5
F3
  8
DETAIL
  6
CONTINUOUS
 62
     5
 10
-83.782748999999995
 20
85.546632999999986
 30
0.0
 11
-59.284975000000003
 21
50.560172999999999
 31
0.0
  0
ARC
  5
F4
  8
DETAIL
  6
CONTINUOUS
 62
     5
 10
-72.063517000000004
 20
11.793352999999991
 30
0.0
 40
73.453028000000003
 50
62.102046999999992
 51
82.136576000000005
  0
ARC
  5
F5
  8
DETAIL
  6
CONTINUOUS
 62
     5
 10
-34.359487000000001
 20
-113.8730739999999
 30
0.0
 40
142.72515999999999
 50
87.582657999999995
 51
109.5525039999999
  0
ARC
  5
F6
  8
DETAIL
  6
CONTINUOUS
 62
     5
 10
-63.184916000000001
 20
46.373728
 30
0.0
 40
5.905130999999999
 50
0.000055
 51
34.99991099999999
  0
ARC
  5
F7
  8
DETAIL
  6
CONTINUOUS
 62
     5
 10
-53.244636
 20
41.620981
 30
0.0
 40
4.9209430000000003
 50
117.64416199999999
 51
180.0000189999999
  0
ARC
  5
F8
  8
DETAIL
  6
CONTINUOUS
 62
     5
 10
-64.200012000000001
 20
47.118744
 30
0.0
 40
6.0
 50
0.000091
 51
34.999946999999999
  0
ARC
  5
F9
  8
DETAIL
  6
CONTINUOUS
 62
     5
 10
-39.24604999999999
 20
-93.203055000000006
 30
0.0
 40
121.6270259999999
 50
106.906886
 51
114.4465399999999
  0
LINE
  5
FA
  8
DETAIL
  6
CONTINUOUS
 62
     5
 10
-58.165577999999996
 20
41.620981
 30
0.0
 11
-58.165577999999996
 21
26.852692000000001
 31
0.0
  0
LINE
  5
FB
  8
DETAIL
  6
CONTINUOUS
 62
     5
 10
-58.200012000000001
 20
47.118744
 30
0.0
 11
-58.200012000000001
 21
45.0
 31
0.0
  0
ARC
  5
FC
  8
DETAIL
  6
CONTINUOUS
 62
     5
 10
-37.300744999999999
 20
0.0
 30
0.0
 40
6.0035499999999988
 50
129.60196499999989
 51
147.80605499999999
  0
LINE
  5
FD
  8
DETAIL
  6
CONTINUOUS
 62
     5
 10
-52.949361000000003
 20
27.63624699999999
 30
0.0
 11
-52.949361000000003
 21
41.002468999999998
 31
0.0
  0
LINE
  5
FE
  8
DETAIL
  6
CONTINUOUS
 62
     5
 10
-54.130398999999997
 20
27.476075999999999
 30
0.0
 11
-54.130398999999997
 21
46.373758000000002
 31
0.0
  0
ARC
  5
FF
  8
DETAIL
  6
CONTINUOUS
 62
     5
 10
-69.619135
 20
13.173864999999999
 30
0.0
 40
71.327765999999997
 50
24.331032
 51
50.240970000000011
  0
ARC
  5
100
  8
DETAIL
  6
CONTINUOUS
 62
     5
 10
-73.378031000000007
 20
6.4229959999999986
 30
0.0
 40
78.934425000000005
 50
51.277492000000002
 51
63.085320999999993
  0
ARC
  5
101
  8
DETAIL
  6
CONTINUOUS
 62
     5
 10
-0.000031
 20
-60.035499999999999
 30
0.0
 40
119.08681199999999
 50
96.892644000000004
 51
115.1900479999999
  0
CIRCLE
  5
102
  8
DETAIL
  6
CONTINUOUS
 62
     5
 10
-30.365977000000001
 20
36.188752000000001
 30
0.0
 40
2.952566
  0
ARC
  5
103
  8
DETAIL
  6
CONTINUOUS
 62
     5
 10
-46.256890999999989
 20
41.002468999999998
 30
0.0
 40
6.6924830000000002
 50
114.8120379999999
 51
180.0000189999999
  0
CIRCLE
  5
104
  8
DETAIL
  6
CONTINUOUS
 62
     5
 10
-41.755597999999999
 20
41.755597999999999
 30
0.0
 40
2.952566
  0
ARC
  5
105
  8
DETAIL
  6
CONTINUOUS
 62
     5
 10
-46.256890999999989
 20
41.002499
 30
0.0
 40
7.8735080000000002
 50
114.81209199999989
 51
180.0000189999999
  0
ARC
  5
106
  8
DETAIL
  6
CONTINUOUS
 62
     5
 10
-63.184945999999997
 20
46.373758000000002
 30
0.0
 40
9.0545350000000013
 50
0.000055
 51
34.999966000000001
  0
ARC
  5
107
  8
DETAIL
  6
CONTINUOUS
 62
     5
 10
-0.000031
 20
-59.051310999999998
 30
0.0
 40
118.10262299999999
 50
96.947751999999994
 51
114.81209199999989
  0
ARC
  5
108
  8
DETAIL
  6
CONTINUOUS
 62
     5
 10
-0.000031
 20
-59.051310999999998
 30
0.0
 40
116.92158499999999
 50
96.59072900000001
 51
114.81209199999989
  0
LINE
  5
109
  8
DETAIL
  6
CONTINUOUS
 62
     5
 10
-40.351729999999989
 20
3.198612999999999
 30
0.0
 11
-40.843823999999991
 21
3.198612999999999
 31
0.0
  0
LINE
  5
10A
  8
DETAIL
  6
CONTINUOUS
 62
     5
 10
-40.843823999999991
 20
4.6256859999999991
 30
0.0
 11
-41.127707999999991
 21
4.6256859999999991
 31
0.0
  0
LINE
  5
10B
  8
DETAIL
  6
CONTINUOUS
 62
     5
 10
-57.27978499999999
 20
46.373728
 30
0.0
 11
-57.27978499999999
 21
44.288483999999997
 31
0.0
  0
ARC
  5
10C
  8
DETAIL
  6
CONTINUOUS
 62
     5
 10
-0.000031
 20
-60.035499999999999
 30
0.0
 40
119.677331
 50
97.072722000000013
 51
117.644271
  0
ARC
  5
10D
  8
DETAIL
  6
CONTINUOUS
 62
     5
 10
-64.200012000000001
 20
47.118774000000002
 30
0.0
 40
9.2000010000000003
 50
2.0491890000000001
 51
35.000002000000002
  0
LINE
  5
10E
  8
DETAIL
  6
CONTINUOUS
 62
     5
 10
-91.191243999999998
 20
96.127065000000016
 30
0.0
 11
-89.038207
 21
93.052206999999996
 31
0.0
  0
LINE
  5
10F
  8
DETAIL
  6
CONTINUOUS
 62
     5
 10
-88.821179999999998
 20
98.321174999999997
 30
0.0
 11
-86.797763999999987
 21
95.431438000000014
 31
0.0
  0
ARC
  5
110
  8
DETAIL
  6
CONTINUOUS
 62
     5
 10
-76.521558999999996
 20
5.4604330000000001
 30
0.0
 40
80.414702000000005
 50
94.926460999999989
 51
97.290306999999999
  0
ARC
  5
111
  8
DETAIL
  6
CONTINUOUS
 62
     5
 10
-76.521558999999996
 20
5.4604330000000001
 30
0.0
 40
80.414702000000005
 50
79.606346999999985
 51
94.926460999999989
  0
ARC
  5
112
  8
DETAIL
  6
CONTINUOUS
 62
     5
 10
-0.000031
 20
0.000031
 30
0.0
 40
129.0
 50
133.583856
 51
134.32681699999989
  0
ARC
  5
113
  8
DETAIL
  6
CONTINUOUS
 62
     5
 10
-87.250410000000002
 20
89.325231000000002
 30
0.0
 40
4.133591
 50
134.32676199999989
 51
277.29021699999998
  0
LINE
  5
114
  8
NOTE
  6
DASHDOT
 62
     4
 10
-88.000000999999997
 20
156.99996999999991
 30
0.0
 11
-72.000000999999997
 21
156.99996999999991
 31
0.0
  0
CIRCLE
  5
115
  8
FIX
  6
DASHDOT
 62
    11
 10
-80.0
 20
156.99996899999991
 30
0.0
 40
4.0
  0
ARC
  5
116
  8
DETAIL
  6
CONTINUOUS
 62
     5
 10
-80.0
 20
156.99996899999991
 30
0.0
 40
11.499998
 50
182.11180300000001
 51
359.2031439999999
  0
LINE
  5
117
  8
NOTE
  6
CONTINUOUS
 62
     4
 10
-145.0
 20
165.0
 30
0.0
 11
-185.0
 21
165.0
 31
0.0
  0
LINE
  5
118
  8
NOTE
  6
CONTINUOUS
 62
     4
 10
-190.31262100000001
 20
201.695131
 30
0.0
 11
-168.91749100000001
 21
167.89796599999991
 31
0.0
  0
LINE
  5
119
  8
NOTE
  6
CONTINUOUS
 62
     4
 10
-168.91749100000001
 20
167.89796599999991
 30
0.0
 11
-204.34479999999999
 21
186.469604
 31
0.0
  0
ARC
  5
11B
  8
DETAIL
  6
CONTINUOUS
 62
     5
 10
-175.0
 20
175.0
 30
0.0
 40
10.0
 50
90.0
 51
180.0
  0
LINE
  5
11C
  8
DETAIL
  6
CONTINUOUS
 62
     5
 10
-165.0
 20
172.071068
 30
0.0
 11
-157.92893199999989
 21
165.0
 31
0.0
  0
LINE
  5
11D
  8
DETAIL
  6
CONTINUOUS
 62
     5
 10
-172.071068
 20
165.0
 30
0.0
 11
-165.0
 21
172.071068
 31
0.0
  0
LINE
  5
11E
  8
DETAIL
  6
CONTINUOUS
 62
     5
 10
52.949330000000003
 20
-17.909468
 30
0.0
 11
52.949330000000003
 21
40.327615999999992
 31
0.0
  0
ARC
  5
11F
  8
DETAIL
  6
CONTINUOUS
 62
     5
 10
46.245055999999991
 20
56.512179000000003
 30
0.0
 40
73.453028000000003
 50
302.10199899999998
 51
322.136529
  0
ARC
  5
120
  8
DETAIL
  6
CONTINUOUS
 62
     5
 10
-0.000108
 20
0.000032
 30
0.0
 40
129.00007400000001
 50
306.85684800000001
 51
14.32676
  0
CIRCLE
  5
121
  8
DETAIL
  6
CONTINUOUS
 62
     5
 10
47.241109000000002
 20
-0.00003
 30
0.0
 40
1.722329999999999
  0
LINE
  5
122
  8
DETAIL
  6
CONTINUOUS
 62
     5
 10
58.165517000000001
 20
41.620981
 30
0.0
 11
58.165517000000001
 21
-16.977793999999989
 31
0.0
  0
LINE
  5
123
  8
DETAIL
  6
CONTINUOUS
 62
     5
 10
54.130338000000002
 20
43.310172999999999
 30
0.0
 11
54.130338000000002
 21
-17.699714
 31
0.0
  0
LINE
  5
124
  8
SIZE
  6
CONTINUOUS
 62
    30
 10
107.99996899999989
 20
157.000001
 30
0.0
 11
509.384818
 21
157.000001
 31
0.0
  0
LINE
  5
125
  8
SIZE
  6
CONTINUOUS
 62
    30
 10
107.99996999999991
 20
-157.0
 30
0.0
 11
509.384818
 21
-157.0
 31
0.0
  0
LINE
  5
126
  8
SIZE
  6
CONTINUOUS
 62
    30
 10
479.384818
 20
155.00000099999991
 30
0.0
 11
479.384818
 21
-155.0
 31
0.0
  0
CIRCLE
  5
127
  8
SIZE
  6
CONTINUOUS
 62
    30
 10
479.384818
 20
157.000001
 30
0.0
 40
6.0
  0
CIRCLE
  5
128
  8
SIZE
  6
CONTINUOUS
 62
    30
 10
479.384818
 20
-157.0
 30
0.0
 40
6.0
  0
TEXT
  5
129
  8
SIZE
  6
CONTINUOUS
 62
    30
 10
459.384818
 20
-69.942856142857124
 30
0.0
 40
64.0
  1
314
 50
90.0
 41
0.9
 72
     1
 11
459.384818
 21
0.000001
 31
0.0
  0
LINE
  5
12D
  8
SIZE
  6
CONTINUOUS
 62
    30
 10
176.99996899999991
 20
79.999968999999993
 30
0.0
 11
360.68539800000002
 21
79.999968999999993
 31
0.0
  0
LINE
  5
12E
  8
SIZE
  6
CONTINUOUS
 62
    30
 10
176.99996799999991
 20
-80.0
 30
0.0
 11
360.68539800000002
 21
-80.0
 31
0.0
  0
LINE
  5
12F
  8
SIZE
  6
CONTINUOUS
 62
    30
 10
330.68539800000002
 20
81.999968999999993
 30
0.0
 11
330.68539800000002
 21
83.999968999999993
 31
0.0
  0
LINE
  5
130
  8
SIZE
  6
CONTINUOUS
 62
    30
 10
330.68539800000002
 20
-82.0
 30
0.0
 11
330.68539800000002
 21
-84.0
 31
0.0
  0
LINE
  5
131
  8
SIZE
  6
CONTINUOUS
 62
    30
 10
330.68539800000002
 20
79.999968999999993
 30
0.0
 11
330.68539800000002
 21
-80.0
 31
0.0
  0
CIRCLE
  5
132
  8
SIZE
  6
CONTINUOUS
 62
    30
 10
330.68539800000002
 20
79.999968999999993
 30
0.0
 40
6.0
  0
CIRCLE
  5
133
  8
SIZE
  6
CONTINUOUS
 62
    30
 10
330.68539800000002
 20
-80.0
 30
0.0
 40
6.0
  0
TEXT
  5
134
  8
SIZE
  6
CONTINUOUS
 62
    30
 10
310.68539800000002
 20
-68.57144357142856
 30
0.0
 40
64.0
  1
160
 50
90.0
 41
0.9
 72
     1
 11
310.68539800000002
 21
-0.000015
 31
0.0
  0
ARC
  5
138
  8
DETAIL
  6
CONTINUOUS
 62
     5
 10
-6815.0032040000006
 20
0.0
 30
0.0
 40
6979.9936519999992
 50
359.99987199999998
 51
0.497274
  0
ARC
  5
139
  8
DETAIL
  6
CONTINUOUS
 62
     5
 10
-0.000031
 20
0.0
 30
0.0
 40
132.49999999999989
 50
359.99992700000001
 51
47.905998999999987
  0
ARC
  5
13A
  8
DETAIL
  6
CONTINUOUS
 62
     5
 10
-6815.0032040000006
 20
0.0
 30
0.0
 40
6979.9936519999992
 50
359.50274399999989
 51
0.000145
  0
LINE
  5
13C
  8
SIZE
  6
CONTINUOUS
 62
    30
 10
185.0
 20
185.0
 30
0.0
 11
770.98344399999996
 21
185.0
 31
0.0
  0
LINE
  5
13D
  8
SIZE
  6
CONTINUOUS
 62
    30
 10
187.42035999999999
 20
-185.0
 30
0.0
 11
770.98344399999996
 21
-185.0
 31
0.0
  0
LINE
  5
13E
  8
SIZE
  6
CONTINUOUS
 62
    30
 10
740.98344399999996
 20
183.0
 30
0.0
 11
740.98344399999996
 21
-183.0
 31
0.0
  0
CIRCLE
  5
13F
  8
SIZE
  6
CONTINUOUS
 62
    30
 10
740.98344399999996
 20
185.0
 30
0.0
 40
6.0
  0
CIRCLE
  5
140
  8
SIZE
  6
CONTINUOUS
 62
    30
 10
740.98344399999996
 20
-185.0
 30
0.0
 40
6.0
  0
TEXT
  5
141
  8
SIZE
  6
CONTINUOUS
 62
    30
 10
720.98344399999996
 20
-74.05714285714285
 30
0.0
 40
64.0
  1
370
 50
90.0
 41
0.9
 72
     1
 11
720.98344399999996
 21
0.0
 31
0.0
  0
LINE
  5
145
  8
SIZE
  6
CONTINUOUS
 62
    30
 10
201.23694399999999
 20
165.0
 30
0.0
 11
639.71549299999992
 21
165.0
 31
0.0
  0
LINE
  5
146
  8
SIZE
  6
CONTINUOUS
 62
    30
 10
201.23694399999999
 20
-165.0
 30
0.0
 11
639.71549299999992
 21
-165.0
 31
0.0
  0
LINE
  5
147
  8
SIZE
  6
CONTINUOUS
 62
    30
 10
609.71549299999992
 20
163.0
 30
0.0
 11
609.71549299999992
 21
-163.0
 31
0.0
  0
CIRCLE
  5
148
  8
SIZE
  6
CONTINUOUS
 62
    30
 10
609.71549299999992
 20
165.0
 30
0.0
 40
6.0
  0
CIRCLE
  5
149
  8
SIZE
  6
CONTINUOUS
 62
    30
 10
609.71549299999992
 20
-165.0
 30
0.0
 40
6.0
  0
TEXT
  5
14A
  8
SIZE
  6
CONTINUOUS
 62
    30
 10
589.71549299999992
 20
-74.057142857142864
 30
0.0
 40
64.0
  1
330
 50
90.0
 41
0.9
 72
     1
 11
589.71549299999992
 21
0.0
 31
0.0
  0
LINE
  5
14E
  8
DETAIL
  6
CONTINUOUS
 62
     5
 10
185.0
 20
175.0
 30
0.0
 11
185.0
 21
-175.0
 31
0.0
  0
ARC
  5
14F
  8
DETAIL
  6
CONTINUOUS
 62
     5
 10
60.501862000000003
 20
-156.72879
 30
0.0
 40
7.9999979999999988
 50
270.49455999999998
 51
359.2031439999999
  0
LINE
  5
150
  8
NOTE
  6
DASHDOT
 62
     4
 10
79.999968999999993
 20
-149.0
 30
0.0
 11
79.999968999999993
 21
-165.0
 31
0.0
  0
ARC
  5
151
  8
DETAIL
  6
CONTINUOUS
 62
     5
 10
99.486725000000007
 20
-156.281464
 30
0.0
 40
7.9999979999999988
 50
182.111693
 51
270.81503199999992
  0
ARC
  5
152
  8
DETAIL
  6
CONTINUOUS
 62
     5
 10
125.851624
 20
-125.850433
 30
0.0
 40
38.0
 50
271.03829699999989
 51
358.96069999999992
  0
ARC
  5
153
  8
DETAIL
  6
CONTINUOUS
 62
     5
 10
-0.000031
 20
6815.004394999999
 30
0.0
 40
6979.9936519999992
 50
270.81770999999998
 51
271.03884399999998
  0
LINE
  5
154
  8
NOTE
  6
CONTINUOUS
 62
     4
 10
165.0
 20
-145.0
 30
0.0
 11
165.0
 21
-185.0
 31
0.0
  0
LINE
  5
155
  8
DETAIL
  6
CONTINUOUS
 62
     5
 10
165.0
 20
-157.92893199999989
 30
0.0
 11
172.071068
 21
-165.0
 31
0.0
  0
LINE
  5
156
  8
DETAIL
  6
CONTINUOUS
 62
     5
 10
157.92893199999989
 20
-165.0
 30
0.0
 11
165.0
 21
-157.92893199999989
 31
0.0
  0
CIRCLE
  5
157
  8
FIX
  6
CONTINUOUS
 62
    11
 10
165.0
 20
-165.0
 30
0.0
 40
5.0
  0
LINE
  5
158
  8
NOTE
  6
CONTINUOUS
 62
     4
 10
185.0
 20
-165.0
 30
0.0
 11
145.0
 21
-165.0
 31
0.0
  0
LINE
  5
159
  8
DETAIL
  6
CONTINUOUS
 62
     5
 10
165.0
 20
-172.071068
 30
0.0
 11
172.071068
 21
-165.0
 31
0.0
  0
LINE
  5
15A
  8
DETAIL
  6
CONTINUOUS
 62
     5
 10
157.92893199999989
 20
-165.0
 30
0.0
 11
165.0
 21
-172.071068
 31
0.0
  0
ARC
  5
15C
  8
DETAIL
  6
CONTINUOUS
 62
     5
 10
175.0
 20
-175.0
 30
0.0
 40
10.0
 50
270.0
 51
0.0
  0
ARC
  5
15D
  8
DETAIL
  6
CONTINUOUS
 62
     5
 10
-0.000031
 20
0.0
 30
0.0
 40
132.49999999999989
 50
313.49070999999998
 51
359.99998099999988
  0
LINE
  5
15E
  8
DETAIL
  6
CONTINUOUS
 62
     5
 10
19.68374
 20
-89.356796999999986
 30
0.0
 11
19.68374
 21
-88.761201999999997
 31
0.0
  0
LINE
  5
15F
  8
DETAIL
  6
CONTINUOUS
 62
     5
 10
8.3655720000000002
 20
-88.399128999999988
 30
0.0
 11
8.3655720000000002
 21
-87.217010000000016
 31
0.0
  0
LINE
  5
160
  8
DETAIL
  6
CONTINUOUS
 62
     5
 10
1.4762519999999999
 20
-97.237814
 30
0.0
 11
1.4762519999999999
 21
-90.643768999999992
 31
0.0
  0
LINE
  5
161
  8
DETAIL
  6
CONTINUOUS
 62
     5
 10
1.968346999999999
 20
-97.237814
 30
0.0
 11
1.968346999999999
 21
-90.643768999999992
 31
0.0
  0
ARC
  5
162
  8
DETAIL
  6
CONTINUOUS
 62
     5
 10
-0.000031
 20
108.2607379999999
 30
0.0
 40
196.83770499999989
 50
280.64589799999999
 51
280.65045099999992
  0
LINE
  5
163
  8
DETAIL
  6
CONTINUOUS
 62
     5
 10
88.821147999999994
 20
-98.321147999999994
 30
0.0
 11
86.797705000000008
 21
-95.431374000000005
 31
0.0
  0
LINE
  5
164
  8
DETAIL
  6
CONTINUOUS
 62
     5
 10
91.191278999999994
 20
-96.126974000000004
 30
0.0
 11
89.160888999999997
 21
-93.227275000000006
 31
0.0
  0
ARC
  5
165
  8
DETAIL
  6
CONTINUOUS
 62
     5
 10
73.244104000000007
 20
-97.705248999999995
 30
0.0
 40
6.8893199999999988
 50
257.99842899999999
 51
306.85674
  0
CIRCLE
  5
166
  8
FIX
  6
DASHDOT
 62
    11
 10
79.999968999999993
 20
-157.0
 30
0.0
 40
4.0
  0
LINE
  5
167
  8
NOTE
  6
DASHDOT
 62
     4
 10
71.999968999999993
 20
-157.0
 30
0.0
 11
87.999968999999993
 21
-157.0
 31
0.0
  0
ARC
  5
168
  8
DETAIL
  6
CONTINUOUS
 62
     5
 10
79.999968999999993
 20
-157.0
 30
0.0
 40
11.499998
 50
2.1117669999999991
 51
179.20310799999999
  0
ARC
  5
169
  8
DETAIL
  6
CONTINUOUS
 62
     5
 10
32.503343000000001
 20
96.972320999999994
 30
0.0
 40
116.687034
 50
272.73509899999999
 51
289.20927499999988
  0
LINE
  5
16A
  8
DETAIL
  6
CONTINUOUS
 62
     5
 10
9.9270969999999998
 20
-65.335187000000005
 30
0.0
 11
9.9270969999999998
 21
-80.098015000000004
 31
0.0
  0
ARC
  5
16B
  8
DETAIL
  6
CONTINUOUS
 62
     5
 10
42.251446000000001
 20
60.335760999999998
 30
0.0
 40
78.934425000000005
 50
291.2774609999999
 51
303.08527299999992
  0
CIRCLE
  5
16C
  8
FIX
  6
DASHDOT
 62
    11
 10
156.99996899999991
 20
-80.0
 30
0.0
 40
4.0
  0
ARC
  5
16D
  8
DETAIL
  6
CONTINUOUS
 62
     5
 10
156.99996899999991
 20
-80.0
 30
0.0
 40
11.499998
 50
90.793593999999985
 51
267.89165700000001
  0
LINE
  5
16E
  8
NOTE
  6
DASHDOT
 62
     4
 10
156.999968
 20
-72.0
 30
0.0
 11
156.999968
 21
-88.0
 31
0.0
  0
ARC
  5
16F
  8
DETAIL
  6
CONTINUOUS
 62
     5
 10
156.28262299999989
 20
-99.486785999999995
 30
0.0
 40
7.9999979999999988
 50
359.17981200000003
 51
87.891784000000001
  0
CIRCLE
  5
170
  8
DETAIL
  6
CONTINUOUS
 62
     5
 10
124.999084
 20
-107.9944459999999
 30
0.0
 40
6.5
  0
LINE
  5
171
  8
DETAIL
  6
CONTINUOUS
 62
     5
 10
129.72500600000001
 20
-127.60000599999999
 30
0.0
 11
135.47500600000001
 21
-127.60000599999999
 31
0.0
  0
LINE
  5
172
  8
DETAIL
  6
CONTINUOUS
 62
     5
 10
129.7250019999999
 20
-137.6000139999999
 30
0.0
 11
126.84999999999989
 21
-132.60001199999999
 31
0.0
  0
LINE
  5
173
  8
DETAIL
  6
CONTINUOUS
 62
     5
 10
138.3500129999999
 20
-132.599997
 30
0.0
 11
135.47503399999999
 21
-137.6000129999999
 31
0.0
  0
LINE
  5
174
  8
DETAIL
  6
CONTINUOUS
 62
     5
 10
135.47500600000001
 20
-137.60000600000001
 30
0.0
 11
129.72500600000001
 21
-137.60000600000001
 31
0.0
  0
CIRCLE
  5
175
  8
DETAIL
  6
CONTINUOUS
 62
     5
 10
132.60000600000001
 20
-132.60000600000001
 30
0.0
 40
4.9000000000000004
  0
LINE
  5
176
  8
DETAIL
  6
CONTINUOUS
 62
     5
 10
126.85004099999991
 20
-132.59999999999999
 30
0.0
 11
129.72500500000001
 21
-127.60001099999999
 31
0.0
  0
LINE
  5
177
  8
DETAIL
  6
CONTINUOUS
 62
     5
 10
135.47499999999991
 20
-127.6000129999999
 30
0.0
 11
138.35000099999991
 21
-132.6000149999999
 31
0.0
  0
ARC
  5
178
  8
DETAIL
  6
CONTINUOUS
 62
     5
 10
-6814.9973449999998
 20
0.0
 30
0.0
 40
6979.9936519999992
 50
358.96124600000002
 51
359.18237999999991
  0
ARC
  5
179
  8
DETAIL
  6
CONTINUOUS
 62
     5
 10
156.72995
 20
-60.501862000000003
 30
0.0
 40
7.9999979999999988
 50
270.79350299999987
 51
359.50012099999992
  0
LINE
  5
17A
  8
NOTE
  6
DASHDOT
 62
     4
 10
148.99996899999991
 20
-80.0
 30
0.0
 11
164.99996899999999
 21
-80.0
 31
0.0
  0
LINE
  5
17B
  8
DETAIL
  6
CONTINUOUS
 62
     5
 10
186.19992099999999
 20
-50.0
 30
0.0
 11
186.1999229999999
 21
-50.0
 31
0.0
  0
LINE
  5
17C
  8
NOTE
  6
CONTINUOUS
 62
     4
 10
893.87407599999995
 20
307.53981699999991
 30
0.0
 11
265.05505299999987
 21
307.53981699999991
 31
0.0
  0
TEXT
  5
17D
  8
NOTE
  6
CONTINUOUS
 62
     4
 10
270.03475099999991
 20
340.353093
 30
0.0
 40
64.0
  1
8×φ8ノックアウト
 41
0.9
  0
LINE
  5
17F
  8
NOTE
  6
CONTINUOUS
 62
     4
 10
265.05505299999987
 20
307.53981699999991
 30
0.0
 11
83.102925999999997
 21
159.52421499999991
 31
0.0
  0
LINE
  5
180
  8
NOTE
  6
CONTINUOUS
 62
     4
 10
119.337452
 20
176.46703500000001
 30
0.0
 11
83.102925999999997
 21
159.52421499999991
 31
0.0
  0
LINE
  5
181
  8
NOTE
  6
CONTINUOUS
 62
     4
 10
83.102925999999997
 20
159.52421499999991
 30
0.0
 11
106.01153499999999
 21
192.314391
 31
0.0
  0
ARC
  5
182
  8
DETAIL
  6
CONTINUOUS
 62
     5
 10
60.501831000000003
 20
156.72995
 30
0.0
 40
7.9999979999999988
 50
0.793485
 51
89.500102999999996
  0
LINE
  5
183
  8
NOTE
  6
DASHDOT
 62
     4
 10
79.999968999999993
 20
165.000001
 30
0.0
 11
79.999968999999993
 21
149.00000099999991
 31
0.0
  0
ARC
  5
184
  8
DETAIL
  6
CONTINUOUS
 62
     5
 10
99.486785999999995
 20
156.28262299999989
 30
0.0
 40
7.9999979999999988
 50
89.179794000000001
 51
177.8917659999999
  0
CIRCLE
  5
185
  8
DETAIL
  6
CONTINUOUS
 62
     5
 10
164.98548099999991
 20
164.98550399999999
 30
0.0
 40
5.0
  0
ARC
  5
186
  8
DETAIL
  6
CONTINUOUS
 62
     5
 10
-0.000031
 20
-6814.9946289999998
 30
0.0
 40
6979.9936519999992
 50
88.961228000000006
 51
89.182361999999998
  0
ARC
  5
187
  8
DETAIL
  6
CONTINUOUS
 62
     5
 10
125.850403
 20
125.851654
 30
0.0
 40
38.0
 50
1.038279
 51
88.960682000000006
  0
LINE
  5
188
  8
NOTE
  6
CONTINUOUS
 62
     4
 10
165.0
 20
185.0
 30
0.0
 11
165.0
 21
145.0
 31
0.0
  0
CIRCLE
  5
189
  8
FIX
  6
CONTINUOUS
 62
    11
 10
165.0
 20
165.0
 30
0.0
 40
5.0
  0
LINE
  5
18A
  8
DETAIL
  6
CONTINUOUS
 62
     5
 10
157.92893199999989
 20
165.0
 30
0.0
 11
165.0
 21
157.92893199999989
 31
0.0
  0
LINE
  5
18B
  8
DETAIL
  6
CONTINUOUS
 62
     5
 10
165.0
 20
157.92893199999989
 30
0.0
 11
172.071068
 21
165.0
 31
0.0
  0
ARC
  5
18C
  8
DETAIL
  6
CONTINUOUS
 62
     5
 10
42.989587
 20
63.539419999999993
 30
0.0
 40
80.414702000000005
 50
319.60629900000009
 51
337.2902049999999
  0
LINE
  5
18D
  8
DETAIL
  6
CONTINUOUS
 62
     5
 10
88.821167000000003
 20
98.321132000000006
 30
0.0
 11
57.212477999999997
 21
53.179268000000008
 31
0.0
  0
LINE
  5
18E
  8
DETAIL
  6
CONTINUOUS
 62
     5
 10
91.191293000000002
 20
96.126960999999994
 30
0.0
 11
59.285107999999987
 21
50.560181
 31
0.0
  0
ARC
  5
18F
  8
DETAIL
  6
CONTINUOUS
 62
     5
 10
-57.641677000000001
 20
77.964322999999993
 30
0.0
 40
117.95938599999999
 50
355.58757099999991
 51
17.998460000000001
  0
ARC
  5
190
  8
DETAIL
  6
CONTINUOUS
 62
     5
 10
-36.390695999999998
 20
77.428849999999997
 30
0.0
 40
96.737489999999994
 50
321.42919899999998
 51
354.89394199999992
  0
ARC
  5
191
  8
DETAIL
  6
CONTINUOUS
 62
     5
 10
53.244574999999998
 20
41.620981
 30
0.0
 40
4.9209430000000003
 50
0.0
 51
62.355856999999993
  0
ARC
  5
192
  8
DETAIL
  6
CONTINUOUS
 62
     5
 10
63.184884999999987
 20
46.373728
 30
0.0
 40
5.905130999999999
 50
145.00005300000001
 51
179.999909
  0
ARC
  5
193
  8
DETAIL
  6
CONTINUOUS
 62
     5
 10
64.199981999999991
 20
47.118744
 30
0.0
 40
6.0
 50
145.000089
 51
179.999945
  0
ARC
  5
194
  8
DETAIL
  6
CONTINUOUS
 62
     5
 10
-0.000031
 20
-60.035499999999999
 30
0.0
 40
119.677331
 50
62.355747999999998
 51
62.61762199999999
  0
LINE
  5
195
  8
DETAIL
  6
CONTINUOUS
 62
     5
 10
57.279753999999997
 20
46.373728
 30
0.0
 11
57.279753999999997
 21
44.288483999999997
 31
0.0
  0
ARC
  5
196
  8
DETAIL
  6
CONTINUOUS
 62
     5
 10
-0.000031
 20
0.0
 30
0.0
 40
132.49999999999989
 50
47.905998999999987
 51
89.999962999999994
  0
ARC
  5
197
  8
DETAIL
  6
CONTINUOUS
 62
     5
 10
47.993186000000001
 20
112.283933
 30
0.0
 40
6.8893199999999988
 50
17.998467000000002
 51
66.856787999999995
  0
CIRCLE
  5
198
  8
FIX
  6
DASHDOT
 62
    11
 10
79.999968999999993
 20
157.0
 30
0.0
 40
4.0
  0
LINE
  5
199
  8
NOTE
  6
DASHDOT
 62
     4
 10
71.999968999999993
 20
157.000001
 30
0.0
 11
87.999968999999993
 21
157.000001
 31
0.0
  0
ARC
  5
19A
  8
DETAIL
  6
CONTINUOUS
 62
     5
 10
107.9944149999999
 20
124.9991149999999
 30
0.0
 40
6.5
 50
359.99998099999988
 51
58.562642000000011
  0
ARC
  5
19B
  8
DETAIL
  6
CONTINUOUS
 62
     5
 10
107.9944149999999
 20
124.9991149999999
 30
0.0
 40
6.5
 50
260.47778699999998
 51
359.99998099999988
  0
ARC
  5
19C
  8
DETAIL
  6
CONTINUOUS
 62
     5
 10
107.9944149999999
 20
124.9991149999999
 30
0.0
 40
6.5
 50
58.562642000000011
 51
260.47778699999998
  0
ARC
  5
19D
  8
DETAIL
  6
CONTINUOUS
 62
     5
 10
79.999968999999993
 20
157.0
 30
0.0
 40
11.499998
 50
180.79357599999989
 51
357.89163899999988
  0
CIRCLE
  5
19E
  8
FIX
  6
DASHDOT
 62
    11
 10
156.99996899999991
 20
79.999968999999993
 30
0.0
 40
4.0
  0
ARC
  5
19F
  8
DETAIL
  6
CONTINUOUS
 62
     5
 10
156.99996899999991
 20
79.999968999999993
 30
0.0
 40
11.499998
 50
92.111765999999989
 51
269.20310699999999
  0
LINE
  5
1A0
  8
NOTE
  6
DASHDOT
 62
     4
 10
156.999968
 20
87.999968999999993
 30
0.0
 11
156.999968
 21
71.999968999999993
 31
0.0
  0
ARC
  5
1A1
  8
DETAIL
  6
CONTINUOUS
 62
     5
 10
120.983074
 20
30.898497999999989
 30
0.0
 40
4.133591
 50
14.32672099999999
 51
157.29018599999989
  0
ARC
  5
1A2
  8
DETAIL
  6
CONTINUOUS
 62
     5
 10
156.72875999999999
 20
60.501862000000003
 30
0.0
 40
7.9999979999999988
 50
0.4945420000000001
 51
89.203125999999997
  0
LINE
  5
1A3
  8
NOTE
  6
DASHDOT
 62
     4
 10
148.99996899999991
 20
79.999968999999993
 30
0.0
 11
164.99996899999999
 21
79.999968999999993
 31
0.0
  0
LINE
  5
1A4
  8
DETAIL
  6
CONTINUOUS
 62
     5
 10
129.72499999999999
 20
137.599996
 30
0.0
 11
126.849999
 21
132.5999929999999
 31
0.0
  0
LINE
  5
1A5
  8
DETAIL
  6
CONTINUOUS
 62
     5
 10
138.34999500000001
 20
132.59999799999991
 30
0.0
 11
135.4749929999999
 21
137.59999999999991
 31
0.0
  0
LINE
  5
1A6
  8
DETAIL
  6
CONTINUOUS
 62
     5
 10
135.47500600000001
 20
137.60000600000001
 30
0.0
 11
129.72500600000001
 21
137.60000600000001
 31
0.0
  0
LINE
  5
1A7
  8
DETAIL
  6
CONTINUOUS
 62
     5
 10
129.72500600000001
 20
127.60000599999999
 30
0.0
 11
135.47500600000001
 21
127.60000599999999
 31
0.0
  0
CIRCLE
  5
1A8
  8
DETAIL
  6
CONTINUOUS
 62
     5
 10
132.59997599999991
 20
132.60000600000001
 30
0.0
 40
3.75
  0
CIRCLE
  5
1A9
  8
DETAIL
  6
CONTINUOUS
 62
     5
 10
132.60000600000001
 20
132.60000600000001
 30
0.0
 40
4.9000000000000004
  0
LINE
  5
1AA
  8
DETAIL
  6
CONTINUOUS
 62
     5
 10
126.8499939999999
 20
132.60000099999999
 30
0.0
 11
129.724996
 21
127.599999
 31
0.0
  0
LINE
  5
1AB
  8
DETAIL
  6
CONTINUOUS
 62
     5
 10
135.474998
 20
127.5999939999999
 30
0.0
 11
138.34999999999991
 21
132.599997
 31
0.0
  0
ARC
  5
1AC
  8
DETAIL
  6
CONTINUOUS
 62
     5
 10
156.28143299999999
 20
99.486725000000007
 30
0.0
 40
7.9999979999999988
 50
272.11167499999988
 51
0.815014
  0
ARC
  5
1AD
  8
DETAIL
  6
CONTINUOUS
 62
     5
 10
-6815.0032040000006
 20
0.0
 30
0.0
 40
6979.9936519999992
 50
0.8176919999999999
 51
1.038826
  0
LINE
  5
1AE
  8
NOTE
  6
CONTINUOUS
 62
     4
 10
185.0
 20
165.0
 30
0.0
 11
145.0
 21
165.0
 31
0.0
  0
LINE
  5
1AF
  8
DETAIL
  6
CONTINUOUS
 62
     5
 10
165.0
 20
172.071068
 30
0.0
 11
172.071068
 21
165.0
 31
0.0
  0
LINE
  5
1B0
  8
DETAIL
  6
CONTINUOUS
 62
     5
 10
157.92893199999989
 20
165.0
 30
0.0
 11
165.0
 21
172.071068
 31
0.0
  0
ARC
  5
1B1
  8
DETAIL
  6
CONTINUOUS
 62
     5
 10
-6815.0032040000006
 20
0.0
 30
0.0
 40
6999.9975590000004
 50
1.494918
 51
1.494972999999999
  0
ARC
  5
1B3
  8
DETAIL
  6
CONTINUOUS
 62
     5
 10
175.0
 20
175.0
 30
0.0
 40
10.0
 50
0.0
 51
90.0
  0
LINE
  5
1B6
  8
DETAIL
  6
CONTINUOUS
 62
     5
 10
0.0
 20
6.6433029999999986
 30
0.0
 11
5.498626999999999
 21
4.1410029999999987
 31
0.0
  0
LINE
  5
1B7
  8
DETAIL
  6
CONTINUOUS
 62
     5
 10
0.0
 20
6.6433029999999986
 30
0.0
 11
-5.3337449999999986
 21
4.1410029999999987
 31
0.0
  0
LINE
  5
1B8
  8
DETAIL
  6
CONTINUOUS
 62
     5
 10
-5.3337449999999986
 20
4.1410029999999987
 30
0.0
 11
-5.3337449999999986
 21
-4.7756119999999997
 31
0.0
  0
LINE
  5
1B9
  8
DETAIL
  6
CONTINUOUS
 62
     5
 10
5.5417709999999989
 20
-4.7756119999999997
 30
0.0
 11
0.0
 21
-6.643241999999999
 31
0.0
  0
LINE
  5
1BA
  8
DETAIL
  6
CONTINUOUS
 62
     5
 10
0.0
 20
-6.643241999999999
 30
0.0
 11
-5.3337449999999986
 21
-4.7756119999999997
 31
0.0
  0
LINE
  5
1BB
  8
DETAIL
  6
CONTINUOUS
 62
     5
 10
5.498626999999999
 20
4.1410029999999987
 30
0.0
 11
5.498626999999999
 21
-4.7756119999999997
 31
0.0
  0
TEXT
  5
1C9
  8
ETC
  6
CONTINUOUS
 62
    61
 10
441.93426350492791
 20
488.91811343451349
 30
0.0
 40
50.0
  1
EF-25US1
 41
0.9
  0
TEXT
  5
1CA
  8
ETC
  6
CONTINUOUS
 62
    61
 10
323.6441440844855
 20
554.58635100634365
 30
0.0
 40
64.0
  1
産業扇
 41
0.9
  0
TEXT
  5
1CB
  8
ETC
  6
CONTINUOUS
 62
    61
 10
325.56676216918612
 20
649.80529506885557
 30
0.0
 40
64.0
  1
EF-25US1_3
 41
0.9
  0
LINE
  5
1CC
  8
OUTLINE
  6
CONTINUOUS
 62
     3
 10
185.0
 20
175.0
 30
0.0
 11
185.0
 21
-175.0
 31
0.0
  0
LINE
  5
1CD
  8
OUTLINE
  6
CONTINUOUS
 62
     3
 10
-185.0
 20
-175.0
 30
0.0
 11
-185.0
 21
175.0
 31
0.0
  0
LINE
  5
1CE
  8
OUTLINE
  6
CONTINUOUS
 62
     3
 10
175.0
 20
-185.0
 30
0.0
 11
-175.0
 21
-185.0
 31
0.0
  0
ARC
  5
1CF
  8
OUTLINE
  6
CONTINUOUS
 62
     3
 10
-175.0
 20
-175.0
 30
0.0
 40
10.0
 50
180.0
 51
270.0
  0
ARC
  5
1D0
  8
OUTLINE
  6
CONTINUOUS
 62
     3
 10
175.0
 20
-175.0
 30
0.0
 40
10.0
 50
270.0
 51
0.0
  0
LINE
  5
1D1
  8
OUTLINE
  6
CONTINUOUS
 62
     3
 10
-175.0
 20
185.0
 30
0.0
 11
175.0
 21
185.0
 31
0.0
  0
ARC
  5
1D2
  8
OUTLINE
  6
CONTINUOUS
 62
     3
 10
-175.0
 20
175.0
 30
0.0
 40
10.0
 50
90.0
 51
180.0
  0
ARC
  5
1D3
  8
OUTLINE
  6
CONTINUOUS
 62
     3
 10
175.0
 20
175.0
 30
0.0
 40
10.0
 50
0.0
 51
90.0
  0
ENDSEC
  0
EOF
