  0
SECTION
  2
HEADER
  9
$ACADVER
  1
AC1009
  9
$INSBASE
 10
0.0
 20
0.0
 30
0.0
  9
$EXTMIN
 10
-728.10042399999975
 20
-434.84318499999989
 30
0.0
  9
$EXTMAX
 10
791.08104945852835
 20
559.64746500000001
 30
102.272724
  9
$LIMMIN
 10
-2970.0
 20
-2100.0
  9
$LIMMAX
 10
2970.0
 20
2100.0
  9
$ORTHOMODE
 70
     1
  9
$REGENMODE
 70
     1
  9
$FILLMODE
 70
     1
  9
$QTEXTMODE
 70
     0
  9
$MIRRTEXT
 70
     0
  9
$DRAGMODE
 70
     2
  9
$LTSCALE
 40
20.0
  9
$OSMODE
 70
   167
  9
$ATTMODE
 70
     1
  9
$TEXTSIZE
 40
64.0
  9
$TRACEWID
 40
0.05
  9
$TEXTSTYLE
  7
STANDARD
  9
$CLAYER
  8
OUTLINE
  9
$CELTYPE
  6
CONTINUOUS
  9
$CECOLOR
 62
     3
  9
$DIMSCALE
 40
1.0
  9
$DIMASZ
 40
12.0
  9
$DIMEXO
 40
20.0
  9
$DIMDLI
 40
200.0
  9
$DIMRND
 40
0.0
  9
$DIMDLE
 40
0.0
  9
$DIMEXE
 40
20.0
  9
$DIMTP
 40
0.0
  9
$DIMTM
 40
0.0
  9
$DIMTXT
 40
64.0
  9
$DIMCEN
 40
0.09
  9
$DIMTSZ
 40
0.0
  9
$DIMTOL
 70
     0
  9
$DIMLIM
 70
     0
  9
$DIMTIH
 70
     0
  9
$DIMTOH
 70
     0
  9
$DIMSE1
 70
     0
  9
$DIMSE2
 70
     0
  9
$DIMTAD
 70
     1
  9
$DIMZIN
 70
     8
  9
$DIMBLK
  1
DOT1
  9
$DIMASO
 70
     1
  9
$DIMSHO
 70
     0
  9
$DIMPOST
  1

  9
$DIMAPOST
  1

  9
$DIMALT
 70
     0
  9
$DIMALTD
 70
     2
  9
$DIMALTF
 40
25.399999999999999
  9
$DIMLFAC
 40
1.0
  9
$DIMTOFL
 70
     1
  9
$DIMTVP
 40
0.0
  9
$DIMTIX
 70
     1
  9
$DIMSOXD
 70
     0
  9
$DIMSAH
 70
     1
  9
$DIMBLK1
  1
ORIGIN
  9
$DIMBLK2
  1
ORIGIN
  9
$DIMSTYLE
  2
STANDARD
  9
$DIMCLRD
 70
     7
  9
$DIMCLRE
 70
     7
  9
$DIMCLRT
 70
     7
  9
$DIMTFAC
 40
1.0
  9
$DIMGAP
 40
25.0
  9
$LUNITS
 70
     2
  9
$LUPREC
 70
     4
  9
$SKETCHINC
 40
0.1
  9
$FILLETRAD
 40
2.5
  9
$AUNITS
 70
     1
  9
$AUPREC
 70
     3
  9
$MENU
  1
ACAD
  9
$ELEVATION
 40
0.0
  9
$PELEVATION
 40
0.0
  9
$THICKNESS
 40
50.0
  9
$LIMCHECK
 70
     0
  9
$BLIPMODE
 70
     0
  9
$CHAMFERA
 40
0.0
  9
$CHAMFERB
 40
0.0
  9
$SKPOLY
 70
     0
  9
$TDCREATE
 40
2452997.397177754
  9
$TDUPDATE
 40
2454237.8732759948
  9
$TDINDWG
 40
0.4264412731
  9
$TDUSRTIMER
 40
0.426441088
  9
$USRTIMER
 70
     1
  9
$ANGBASE
 50
0.0
  9
$ANGDIR
 70
     0
  9
$PDMODE
 70
     3
  9
$PDSIZE
 40
-2.0
  9
$PLINEWID
 40
0.0
  9
$COORDS
 70
     2
  9
$SPLFRAME
 70
     0
  9
$SPLINETYPE
 70
     6
  9
$SPLINESEGS
 70
     8
  9
$ATTDIA
 70
     0
  9
$ATTREQ
 70
     1
  9
$HANDLING
 70
 22529
  9
$HANDSEED
  5
5E6
  9
$SURFTAB1
 70
     6
  9
$SURFTAB2
 70
     6
  9
$SURFTYPE
 70
     6
  9
$SURFU
 70
     6
  9
$SURFV
 70
     6
  9
$UCSNAME
  2

  9
$UCSORG
 10
0.0
 20
0.0
 30
0.0
  9
$UCSXDIR
 10
1.0
 20
0.0
 30
0.0
  9
$UCSYDIR
 10
0.0
 20
1.0
 30
0.0
  9
$PUCSNAME
  2

  9
$PUCSORG
 10
0.0
 20
0.0
 30
0.0
  9
$PUCSXDIR
 10
1.0
 20
0.0
 30
0.0
  9
$PUCSYDIR
 10
0.0
 20
1.0
 30
0.0
  9
$USERI1
 70
     0
  9
$USERI2
 70
     0
  9
$USERI3
 70
     0
  9
$USERI4
 70
     0
  9
$USERI5
 70
     0
  9
$USERR1
 40
20.0
  9
$USERR2
 40
0.0
  9
$USERR3
 40
0.0
  9
$USERR4
 40
0.0
  9
$USERR5
 40
0.0
  9
$WORLDVIEW
 70
     1
  9
$SHADEDGE
 70
     3
  9
$SHADEDIF
 70
    70
  9
$TILEMODE
 70
     1
  9
$MAXACTVP
 70
    48
  9
$PLIMCHECK
 70
     0
  9
$PEXTMIN
 10
-1.0000000000000000E+020
 20
-1.0000000000000000E+020
 30
-1.0000000000000000E+020
  9
$PEXTMAX
 10
1.0000000000000000E+020
 20
1.0000000000000000E+020
 30
1.0000000000000000E+020
  9
$PLIMMIN
 10
0.0
 20
0.0
  9
$PLIMMAX
 10
12.0
 20
9.0
  9
$UNITMODE
 70
     0
  9
$VISRETAIN
 70
     0
  9
$PLINEGEN
 70
     0
  9
$PSLTSCALE
 70
     0
  0
ENDSEC
  0
SECTION
  2
TABLES
  0
TABLE
  2
VPORT
 70
     3
  0
VPORT
  2
*ACTIVE
 70
     0
 10
0.0
 20
0.0
 11
1.0
 21
1.0
 12
25.614569220135991
 22
63.396475848909972
 13
0.0
 23
0.0
 14
1.0
 24
1.0
 15
0.0
 25
0.0
 16
0.0
 26
0.0
 36
1.0
 17
0.0
 27
0.0
 37
0.0
 40
1129.241647147767
 41
1.672794117647058
 42
50.0
 43
0.0
 44
0.0
 50
0.0
 51
0.0
 71
     0
 72
  1000
 73
     1
 74
     0
 75
     0
 76
     0
 77
     0
 78
     2
  0
ENDTAB
  0
TABLE
  2
LTYPE
 70
     3
  0
LTYPE
  2
CONTINUOUS
 70
     0
  3
実線
 72
    65
 73
     0
 40
0.0
  0
LTYPE
  2
DASHDOT
 70
     0
  3
____ _ ____ _ ____ _ ____ _ ____ _ ____ _ ____
 72
    65
 73
     4
 40
5.5
 49
4.0
 49
-0.6
 49
0.3
 49
-0.6
  0
LTYPE
  2
DASHED
 70
     0
  3
-- -- -- -- -- -- -- -- -- -- -- -- -- -- --
 72
    65
 73
     2
 40
0.75
 49
0.5
 49
-0.25
  0
ENDTAB
  0
TABLE
  2
LAYER
 70
    12
  0
LAYER
  2
0
 70
     0
 62
     7
  6
CONTINUOUS
  0
LAYER
  2
DETAIL
 70
     0
 62
     5
  6
CONTINUOUS
  0
LAYER
  2
ETC
 70
     0
 62
    61
  6
CONTINUOUS
  0
LAYER
  2
BASIS
 70
     0
 62
     6
  6
DASHDOT
  0
LAYER
  2
OUTLINE
 70
     0
 62
     3
  6
CONTINUOUS
  0
LAYER
  2
SIZE
 70
     0
 62
    30
  6
CONTINUOUS
  0
LAYER
  2
ARRANGE
 70
     0
 62
     1
  6
CONTINUOUS
  0
LAYER
  2
DEFPOINTS
 70
     0
 62
     7
  6
CONTINUOUS
  0
LAYER
  2
FIX
 70
     0
 62
    11
  6
CONTINUOUS
  0
LAYER
  2
NOTE
 70
     0
 62
     4
  6
CONTINUOUS
  0
LAYER
  2
SERVICESPACE
 70
     0
 62
     2
  6
DASHDOT
  0
LAYER
  2
SYMBOLLINE
 70
     0
 62
    15
  6
CONTINUOUS
  0
ENDTAB
  0
TABLE
  2
STYLE
 70
     1
  0
STYLE
  2
STANDARD
 70
     0
 40
64.0
 41
0.9
 50
0.0
 71
     0
 42
64.0
  3
SIMPLEX.shx
  4
BIGFONT.shx
  0
ENDTAB
  0
TABLE
  2
VIEW
 70
     1
  0
VIEW
  2
ALL
 70
     0
 40
4282.6198079999976
 10
0.0
 20
41.309903999999989
 41
5940.0
 11
0.0
 21
0.0
 31
1.0
 12
0.0
 22
0.0
 32
0.0
 42
50.0
 43
0.0
 44
0.0
 50
0.0
 71
     0
  0
ENDTAB
  0
TABLE
  2
UCS
 70
     0
  0
ENDTAB
  0
TABLE
  2
APPID
 70
     2
  0
APPID
  2
ACAD
 70
     0
  0
APPID
  2
AUTOCAD_POSTSCRIPT_FIGURE
 70
     0
  0
ENDTAB
  0
TABLE
  2
DIMSTYLE
 70
     1
  0
DIMSTYLE
  2
STANDARD
 70
     0
  3

  4

  5

  6

  7

 40
1.0
 41
0.18
 42
0.0625
 43
0.38
 44
0.18
 45
0.0
 46
0.0
 47
0.0
 48
0.0
140
0.18
141
0.09
142
0.0
143
25.399999999999999
144
1.0
145
0.0
146
1.0
147
0.09
 71
     0
 72
     0
 73
     1
 74
     1
 75
     0
 76
     0
 77
     0
 78
     0
170
     0
171
     2
172
     0
173
     0
174
     0
175
     0
176
     7
177
     7
178
     7
  0
ENDTAB
  0
ENDSEC
  0
SECTION
  2
BLOCKS
  0
BLOCK
  8
0
  2
$MODEL_SPACE
 70
     0
 10
0.0
 20
0.0
 30
0.0
  3
$MODEL_SPACE
  1

  0
ENDBLK
  5
352
  8
0
  0
BLOCK
 67
     1
  8
0
  2
$PAPER_SPACE
 70
     0
 10
0.0
 20
0.0
 30
0.0
  3
$PAPER_SPACE
  1

  0
ENDBLK
  5
34E
 67
     1
  8
0
  0
BLOCK
  8
0
  2
DOT1
 70
     0
 10
0.0
 20
0.0
 30
0.0
  3
DOT1
  1

  0
CIRCLE
  5
36F
  8
SIZE
  6
CONTINUOUS
 62
     7
 10
0.0
 20
0.0
 30
0.0
 40
3.0
  0
ENDBLK
  5
370
  8
0
  0
BLOCK
  8
0
  2
_ORIGIN
 70
     0
 10
0.0
 20
0.0
 30
0.0
  3
_ORIGIN
  1

  0
CIRCLE
  5
373
  8
0
  6
CONTINUOUS
 62
     7
 10
0.0
 20
0.0
 30
0.0
 40
0.5
  0
LINE
  5
374
  8
0
  6
CONTINUOUS
 62
     7
 10
0.0
 20
0.0
 30
0.0
 11
-1.0
 21
0.0
 31
0.0
  0
ENDBLK
  5
375
  8
0
  0
BLOCK
  8
0
 62
     3
  2
*D4
 70
     1
 10
0.0
 20
0.0
 30
0.0
  3
*D4
  1

  0
LINE
  5
378
  8
OUTLINE
  6
CONTINUOUS
 62
     7
 10
293.28765074019373
 20
-486.99352052998461
 30
0.0
 11
17.192789734762041
 21
-190.88385528948569
 31
0.0
  0
TEXT
  5
379
  8
DETAIL
  6
CONTINUOUS
 62
     7
 10
60.709995245522187
 20
-200.896488536253
 30
0.0
 40
64.0
  1
R2.4423
 50
312.99670149999997
 41
0.9
  0
LINE
  5
37A
  8
OUTLINE
  6
CONTINUOUS
 62
     7
 10
7.3437620000000248
 20
-180.3208469999999
 30
0.0
 11
9.0093146732037308
 21
-182.10713973542701
 31
0.0
  0
INSERT
  5
37B
  8
OUTLINE
  6
CONTINUOUS
 62
     7
  2
_ORIGIN
 10
9.0093146732037308
 20
-182.10713973542701
 30
0.0
 41
12.0
 42
12.0
 43
12.0
 50
132.99670150000011
  0
POINT
  5
37C
  8
DEFPOINTS
  6
CONTINUOUS
 62
     0
 10
9.0093146732037308
 20
-182.10713973542701
 30
0.0
  0
POINT
  5
37D
  8
DEFPOINTS
  6
CONTINUOUS
 62
     0
 10
7.3437620000000248
 20
-180.3208469999999
 30
0.0
  0
ENDBLK
  5
37E
  8
0
 62
     3
  0
BLOCK
  8
0
 62
     3
  2
*D5
 70
     1
 10
0.0
 20
0.0
 30
0.0
  3
*D5
  1

  0
LINE
  5
381
  8
OUTLINE
  6
CONTINUOUS
 62
     7
 10
293.28765074021942
 20
-486.99352052996062
 30
0.0
 11
17.19278973476278
 21
-190.8838552894849
 31
0.0
  0
TEXT
  5
382
  8
DETAIL
  6
CONTINUOUS
 62
     7
 10
60.709995245523778
 20
-200.89648853624871
 30
0.0
 40
64.0
  1
R2.4423
 50
312.99670150000492
 41
0.9
  0
LINE
  5
383
  8
OUTLINE
  6
CONTINUOUS
 62
     7
 10
7.3437620000000132
 20
-180.3208470000003
 30
0.0
 11
9.0093146732037308
 21
-182.10713973542701
 31
0.0
  0
INSERT
  5
384
  8
OUTLINE
  6
CONTINUOUS
 62
     7
  2
_ORIGIN
 10
9.0093146732037308
 20
-182.10713973542701
 30
0.0
 41
12.0
 42
12.0
 43
12.0
 50
132.9967015000048
  0
POINT
  5
385
  8
DEFPOINTS
  6
CONTINUOUS
 62
     0
 10
9.0093146732037308
 20
-182.10713973542701
 30
0.0
  0
POINT
  5
386
  8
DEFPOINTS
  6
CONTINUOUS
 62
     0
 10
7.3437620000000132
 20
-180.3208470000003
 30
0.0
  0
ENDBLK
  5
387
  8
0
 62
     3
  0
BLOCK
  8
0
 62
     3
  2
*D6
 70
     1
 10
0.0
 20
0.0
 30
0.0
  3
*D6
  1

  0
LINE
  5
38A
  8
OUTLINE
  6
CONTINUOUS
 62
     7
 10
323.0487226810925
 20
-456.25999608769757
 30
0.0
 11
18.217877643629681
 21
-189.82527230681481
 31
0.0
  0
TEXT
  5
38B
  8
DETAIL
  6
CONTINUOUS
 62
     7
 10
62.52883936782078
 20
-195.35145282117361
 30
0.0
 40
64.0
  1
R2.4423
 50
318.84520270073881
 41
0.9
  0
LINE
  5
38C
  8
OUTLINE
  6
CONTINUOUS
 62
     7
 10
7.343761999999856
 20
-180.3208469999997
 30
0.0
 11
9.1826655818276937
 21
-181.92812453067
 31
0.0
  0
INSERT
  5
38D
  8
OUTLINE
  6
CONTINUOUS
 62
     7
  2
_ORIGIN
 10
9.1826655818276937
 20
-181.92812453067
 30
0.0
 41
12.0
 42
12.0
 43
12.0
 50
138.8452027007387
  0
POINT
  5
38E
  8
DEFPOINTS
  6
CONTINUOUS
 62
     0
 10
9.1826655818276937
 20
-181.92812453067
 30
0.0
  0
POINT
  5
38F
  8
DEFPOINTS
  6
CONTINUOUS
 62
     0
 10
7.343761999999856
 20
-180.3208469999997
 30
0.0
  0
ENDBLK
  5
390
  8
0
 62
     3
  0
ENDSEC
  0
SECTION
  2
ENTITIES
  0
LINE
  5
391
  8
SIZE
  6
CONTINUOUS
 62
    30
 10
-31.897055000000002
 20
157.0
 30
0.0
 11
-310.80390799999992
 21
157.0
 31
0.0
  0
LINE
  5
392
  8
SIZE
  6
CONTINUOUS
 62
    30
 10
-40.631774999999998
 20
80.0
 30
0.0
 11
-176.5536629999998
 21
80.0
 31
0.0
  0
LINE
  5
393
  8
SIZE
  6
CONTINUOUS
 62
    30
 10
-24.410153000000001
 20
165.0
 30
0.0
 11
-435.29858899999999
 21
165.0
 31
0.0
  0
LINE
  5
394
  8
SIZE
  6
CONTINUOUS
 62
    30
 10
-14.085283999999991
 20
185.0
 30
0.0
 11
-583.68774599999995
 21
185.0
 31
0.0
  0
LINE
  5
395
  8
SIZE
  6
CONTINUOUS
 62
    30
 10
-50.507849999999998
 20
-157.0
 30
0.0
 11
-310.80390799999992
 21
-157.0
 31
0.0
  0
LINE
  5
396
  8
SIZE
  6
CONTINUOUS
 62
    30
 10
-43.76292999999999
 20
-80.0
 30
0.0
 11
-176.5536629999998
 21
-80.0
 31
0.0
  0
LINE
  5
397
  8
NOTE
  6
CONTINUOUS
 62
     4
 10
-95.415644999999984
 20
-320.9651609999998
 30
0.0
 11
-728.10042399999975
 21
-320.9651609999998
 31
0.0
  0
TEXT
  5
398
  8
NOTE
  6
CONTINUOUS
 62
     4
 10
-715.77026799999976
 20
-295.92103399999979
 30
0.0
 40
64.0
  1
8×φ8ノックアウト
 41
0.9
  0
LINE
  5
399
  8
NOTE
  6
CONTINUOUS
 62
     4
 10
-93.458613000000014
 20
-434.84318499999989
 30
0.0
 11
-658.04176399999994
 21
-434.84318499999989
 31
0.0
  0
TEXT
  5
39A
  8
NOTE
  6
CONTINUOUS
 62
     4
 10
-636.99692000000005
 20
-405.68653999999992
 30
0.0
 40
64.0
  1
4×φ10取付用穴
 41
0.9
  0
LINE
  5
39B
  8
SIZE
  6
CONTINUOUS
 62
    30
 10
-42.413946999999993
 20
-165.0
 30
0.0
 11
-435.29858899999999
 21
-165.0
 31
0.0
  0
LINE
  5
39C
  8
SIZE
  6
CONTINUOUS
 62
    30
 10
-28.924106999999999
 20
-185.0
 30
0.0
 11
-583.68774599999995
 21
-185.0
 31
0.0
  0
LINE
  5
39D
  8
NOTE
  6
CONTINUOUS
 62
     4
 10
9.8036030000000007
 20
-168.102699
 30
0.0
 11
116.78940399999991
 21
-359.71223999999978
 31
0.0
  0
LINE
  5
39E
  8
NOTE
  6
CONTINUOUS
 62
     4
 10
-95.415644999999984
 20
-320.9651609999998
 30
0.0
 11
-1.472642
 21
-83.719048999999998
 31
0.0
  0
LINE
  5
39F
  8
NOTE
  6
CONTINUOUS
 62
     4
 10
0.0
 20
-165.0
 30
0.0
 11
-93.458613000000014
 21
-434.84318499999989
 31
0.0
  0
LINE
  5
3A0
  8
NOTE
  6
CONTINUOUS
 62
     4
 10
243.5076149999999
 20
-359.71223999999978
 30
0.0
 11
116.78940399999991
 21
-359.71223999999978
 31
0.0
  0
TEXT
  5
3A1
  8
NOTE
  6
CONTINUOUS
 62
     4
 10
139.07488499999999
 20
-334.90365000000003
 30
0.0
 40
64.0
  1
EL
 41
0.9
  0
ARC
  5
3A2
  8
DETAIL
  6
CONTINUOUS
 62
     5
 39
102.272724
 10
65.679160999999993
 20
39.164710999999983
 30
0.0
 40
3.3074979999999989
 50
119.825757
 51
182.07330200000001
  0
ARC
  5
3A3
  8
DETAIL
  6
CONTINUOUS
 62
     5
 39
102.272724
 10
67.259330000000006
 20
-38.285322999999991
 30
0.0
 40
4.9452290000000003
 50
188.91391100000001
 51
229.29352499999999
  0
LINE
  5
3A4
  8
DETAIL
  6
CONTINUOUS
 62
     5
 39
102.272724
 10
62.373828000000003
 20
39.045053000000003
 30
0.0
 11
62.373828000000003
 21
-39.051586999999991
 31
0.0
  0
LINE
  5
3A5
  8
DETAIL
  6
CONTINUOUS
 62
     5
 39
102.272724
 10
57.951824000000002
 20
133.1760899999999
 30
0.0
 11
57.999997
 21
0.0
 31
0.0
  0
LINE
  5
3A6
  8
DETAIL
  6
CONTINUOUS
 62
     5
 39
50.0
 10
131.79920000000001
 20
6.9746050000000004
 30
0.0
 11
131.90331
 21
69.684450999999996
 31
0.0
  0
LINE
  5
3A7
  8
DETAIL
  6
CONTINUOUS
 62
     5
 39
50.0
 10
131.622907
 20
55.861505000000008
 30
0.0
 11
106.061632
 21
55.861505000000008
 31
0.0
  0
ARC
  5
3A8
  8
DETAIL
  6
CONTINUOUS
 62
     5
 39
50.0
 10
130.03592800000001
 20
69.763296999999994
 30
0.0
 40
1.8690450000000001
 50
357.58224000000001
 51
53.537382999999991
  0
LINE
  5
3A9
  8
DETAIL
  6
CONTINUOUS
 62
     5
 39
50.0
 10
106.09303199999989
 20
-67.190639000000004
 30
0.0
 11
131.63011299999999
 21
-67.190639000000004
 31
0.0
  0
ARC
  5
3AA
  8
DETAIL
  6
CONTINUOUS
 62
     5
 39
50.0
 10
127.24768299999999
 20
-58.544480000000007
 30
0.0
 40
4.5805749999999987
 50
16.914051999999991
 51
86.272492999999983
  0
ARC
  5
3AB
  8
DETAIL
  6
CONTINUOUS
 62
     5
 39
50.0
 10
130.75878399999991
 20
-90.818707000000003
 30
0.0
 40
2.3707790000000002
 50
296.264363
 51
7.4491039999999984
  0
CIRCLE
  5
3AC
  8
ARRANGE
  6
CONTINUOUS
 62
     1
 39
50.0
 10
0.0
 20
0.0
 30
0.0
 40
40.0
  0
LINE
  5
3AD
  8
SIZE
  6
CONTINUOUS
 62
    30
 39
50.0
 10
44.0
 20
274.19392599999992
 30
0.0
 11
139.70867200000001
 21
274.19392599999992
 31
0.0
  0
ARC
  5
3AE
  8
DETAIL
  6
CONTINUOUS
 62
     5
 39
50.0
 10
-0.5376250000000002
 20
179.789884
 30
0.0
 40
5.237781
 50
35.76034099999999
 51
84.108570999999984
  0
ARC
  5
3AF
  8
DETAIL
  6
CONTINUOUS
 62
     5
 39
50.0
 10
3.8121299999999989
 20
170.083471
 30
0.0
 40
9.3575769999999991
 50
48.603290999999999
 51
90.589791000000005
  0
ARC
  5
3B0
  8
DETAIL
  6
CONTINUOUS
 62
     5
 39
50.0
 10
2.0058790000000002
 20
-181.58055999999999
 30
0.0
 40
3.0292560000000002
 50
274.52453999999989
 51
307.3421419999998
  0
LINE
  5
3B1
  8
DETAIL
  6
CONTINUOUS
 62
     5
 10
62.090912000000003
 20
-0.000001
 30
0.0
 11
62.090912000000003
 21
128.46682300000001
 31
0.0
  0
LINE
  5
3B2
  8
DETAIL
  6
CONTINUOUS
 62
     5
 10
20.025331999999992
 20
146.22792799999991
 30
0.0
 11
20.082330999999989
 21
119.76271
 31
0.0
  0
LINE
  5
3B3
  8
DETAIL
  6
CONTINUOUS
 62
     5
 10
23.150512999999989
 20
151.05501199999981
 30
0.0
 11
23.150512999999989
 21
119.76271
 31
0.0
  0
LINE
  5
3B4
  8
DETAIL
  6
CONTINUOUS
 62
     5
 10
19.971499999999981
 20
166.193522
 30
0.0
 11
20.028500000000001
 21
-166.193522
 31
0.0
  0
LINE
  5
3B5
  8
DETAIL
  6
CONTINUOUS
 62
     5
 10
0.0
 20
-185.0
 30
0.0
 11
0.0
 21
185.0
 31
0.0
  0
LINE
  5
3B6
  8
DETAIL
  6
CONTINUOUS
 62
     5
 10
3.712669
 20
182.85082299999991
 30
0.0
 11
4.433643
 21
-182.9136499999999
 31
0.0
  0
LINE
  5
3B7
  8
DETAIL
  6
CONTINUOUS
 62
     5
 10
10.0
 20
0.0
 30
0.0
 11
10.000004000000001
 21
177.103048
 31
0.0
  0
ARC
  5
3B8
  8
DETAIL
  6
CONTINUOUS
 62
     5
 10
49.579123000000003
 20
79.200967000000006
 30
0.0
 40
50.829808
 50
22.113893999999991
 51
75.750157999999999
  0
LINE
  5
3B9
  8
DETAIL
  6
CONTINUOUS
 62
     5
 10
106.06819899999979
 20
4.09091
 30
0.0
 11
66.368483999999995
 21
4.09091
 31
0.0
  0
LINE
  5
3BA
  8
DETAIL
  6
CONTINUOUS
 62
     5
 10
70.170496999999997
 20
36.818224999999991
 30
0.0
 11
82.954588000000001
 21
36.818224999999991
 31
0.0
  0
LINE
  5
3BB
  8
DETAIL
  6
CONTINUOUS
 62
     5
 10
70.170496999999997
 20
25.568179999999991
 30
0.0
 11
82.954588000000001
 21
25.568179999999991
 31
0.0
  0
LINE
  5
3BC
  8
DETAIL
  6
CONTINUOUS
 62
     5
 10
80.607640000000004
 20
42.03410499999999
 30
0.0
 11
64.034130000000005
 21
42.03410499999999
 31
0.0
  0
LINE
  5
3BD
  8
DETAIL
  6
CONTINUOUS
 62
     5
 10
81.046079000000006
 20
40.397742000000001
 30
0.0
 11
64.034130000000005
 21
40.397742000000001
 31
0.0
  0
ARC
  5
3BE
  8
DETAIL
  6
CONTINUOUS
 62
     5
 10
97.786703000000017
 20
30.392638000000002
 30
0.0
 40
55.879942999999997
 50
100.0154919999999
 51
129.701975
  0
LINE
  5
3BF
  8
DETAIL
  6
CONTINUOUS
 62
     5
 10
80.607499000000004
 20
-42.034106000000001
 30
0.0
 11
64.034130000000005
 21
-42.034106000000001
 31
0.0
  0
ARC
  5
3C0
  8
DETAIL
  6
CONTINUOUS
 62
     5
 10
-2453.2173299999999
 20
-1696.9543510000001
 30
0.0
 40
2998.1531140000002
 50
31.720148999999999
 51
32.970321999999982
  0
ARC
  5
3C1
  8
DETAIL
  6
CONTINUOUS
 62
     5
 10
-2453.2173299999999
 20
-1696.9543510000001
 30
0.0
 40
2997.2797049999999
 50
31.716229999999999
 51
32.944575
  0
ARC
  5
3C2
  8
DETAIL
  6
CONTINUOUS
 62
     5
 10
-410.70192900000001
 20
-313.35643499999992
 30
0.0
 40
543.46022600000003
 50
20.801082999999998
 51
29.545113999999991
  0
CIRCLE
  5
3C3
  8
ARRANGE
  6
CONTINUOUS
 62
     1
 10
0.0
 20
0.0
 30
0.0
 40
40.0
  0
LINE
  5
3C4
  8
DETAIL
  6
DASHDOT
 62
     5
 10
18.607810999999991
 20
0.0
 30
0.0
 11
110.540351
 21
0.0
 31
0.0
  0
LINE
  5
3C5
  8
DETAIL
  6
DASHDOT
 62
     5
 10
108.47998
 20
0.0
 30
0.0
 11
11.89988999999999
 21
0.0
 31
0.0
  0
POINT
  5
3C6
  8
ARRANGE
  6
CONTINUOUS
 62
     1
 10
0.0
 20
0.0
 30
0.0
  0
LINE
  5
3C7
  8
BASIS
  6
DASHDOT
 62
     6
 10
-39.838391999999999
 20
0.0
 30
0.0
 11
159.83839299999991
 21
0.0
 31
0.0
  0
LINE
  5
3C8
  8
DETAIL
  6
CONTINUOUS
 62
     5
 10
97.272769999999994
 20
-56.250017000000007
 30
0.0
 11
97.272769999999994
 21
-0.000001
 31
0.0
  0
LINE
  5
3C9
  8
DETAIL
  6
CONTINUOUS
 62
     5
 10
95.636313000000001
 20
-56.250017000000007
 30
0.0
 11
95.636313000000001
 21
-0.000003
 31
0.0
  0
LINE
  5
3CA
  8
DETAIL
  6
CONTINUOUS
 62
     5
 10
100.16593
 20
-43.159098
 30
0.0
 11
100.16593
 21
-44.386370999999997
 31
0.0
  0
ARC
  5
3CB
  8
DETAIL
  6
CONTINUOUS
 62
     5
 10
93.999972999999997
 20
-44.181848999999993
 30
0.0
 40
1.636363999999999
 50
0.0
 51
90.0
  0
ARC
  5
3CC
  8
DETAIL
  6
DASHED
 62
     5
 10
100.85230899999991
 20
-44.488661999999998
 30
0.0
 40
1.9431830000000001
 50
90.0
 51
179.99996399999989
  0
LINE
  5
3CD
  8
DETAIL
  6
CONTINUOUS
 62
     5
 10
133.109555
 20
-90.511346000000003
 30
0.0
 11
132.954579
 21
-6.5126850000000003
 31
0.0
  0
LINE
  5
3CE
  8
DETAIL
  6
CONTINUOUS
 62
     5
 10
100.1363819999999
 20
-83.863634999999988
 30
0.0
 11
100.1363819999999
 21
-0.000001
 31
0.0
  0
LINE
  5
3CF
  8
DETAIL
  6
CONTINUOUS
 62
     5
 10
98.909109000000015
 20
-86.931815999999998
 30
0.0
 11
98.909109000000015
 21
-0.000001
 31
0.0
  0
LINE
  5
3D0
  8
DETAIL
  6
CONTINUOUS
 62
     5
 10
106.06819899999979
 20
-91.618542000000005
 30
0.0
 11
106.06819899999979
 21
99.665324999999996
 31
0.0
  0
LINE
  5
3D1
  8
DETAIL
  6
CONTINUOUS
 62
     5
 10
127.545472
 20
45.102260999999991
 30
0.0
 11
127.545472
 21
-53.973593999999991
 31
0.0
  0
LINE
  5
3D2
  8
DETAIL
  6
DASHDOT
 62
     5
 10
104.487894
 20
-61.363634999999981
 30
0.0
 11
93.375107000000014
 21
-61.363634999999981
 31
0.0
  0
LINE
  5
3D3
  8
DETAIL
  6
CONTINUOUS
 62
     5
 10
100.1363819999999
 20
-80.795453000000023
 30
0.0
 11
106.06819899999979
 21
-80.795453000000023
 31
0.0
  0
LINE
  5
3D4
  8
DETAIL
  6
CONTINUOUS
 62
     5
 10
100.1363819999999
 20
-81.409088999999966
 30
0.0
 11
106.06819899999979
 21
-81.409088999999966
 31
0.0
  0
LINE
  5
3D5
  8
DETAIL
  6
CONTINUOUS
 62
     5
 10
106.06819899999979
 20
-44.386370999999997
 30
0.0
 11
100.16593
 21
-44.386370999999997
 31
0.0
  0
LINE
  5
3D6
  8
DETAIL
  6
DASHED
 62
     5
 10
106.06819899999979
 20
-45.000006999999997
 30
0.0
 11
100.1363819999999
 21
-45.000006999999997
 31
0.0
  0
LINE
  5
3D7
  8
DETAIL
  6
CONTINUOUS
 62
     5
 10
100.1363819999999
 20
-51.545453999999992
 30
0.0
 11
100.1363819999999
 21
-44.386363000000003
 31
0.0
  0
LINE
  5
3D8
  8
DETAIL
  6
CONTINUOUS
 62
     5
 10
100.1363819999999
 20
-81.409088999999966
 30
0.0
 11
100.1363819999999
 21
-67.490359999999995
 31
0.0
  0
LINE
  5
3D9
  8
DETAIL
  6
CONTINUOUS
 62
     5
 10
100.136387
 20
-80.590896000000001
 30
0.0
 11
100.136387
 21
-66.579504
 31
0.0
  0
LINE
  5
3DA
  8
DETAIL
  6
CONTINUOUS
 62
     5
 10
98.909109000000015
 20
-80.590896000000001
 30
0.0
 11
98.909109000000015
 21
-66.374961999999996
 31
0.0
  0
LINE
  5
3DB
  8
DETAIL
  6
DASHED
 62
     5
 10
90.420473000000001
 20
-76.704543999999999
 30
0.0
 11
99.011384000000007
 21
-76.704543999999999
 31
0.0
  0
LINE
  5
3DC
  8
DETAIL
  6
DASHED
 62
     5
 10
90.420473000000001
 20
-80.795453000000023
 30
0.0
 11
99.011384000000007
 21
-80.795453000000023
 31
0.0
  0
LINE
  5
3DD
  8
DETAIL
  6
CONTINUOUS
 62
     5
 10
89.909109999999998
 20
-80.795453000000023
 30
0.0
 11
100.1363819999999
 21
-80.795453000000023
 31
0.0
  0
LINE
  5
3DE
  8
DETAIL
  6
CONTINUOUS
 62
     5
 10
89.909109999999998
 20
-81.409088999999966
 30
0.0
 11
100.1363819999999
 21
-81.409088999999966
 31
0.0
  0
LINE
  5
3DF
  8
DETAIL
  6
CONTINUOUS
 62
     5
 10
90.420473000000001
 20
-76.704543999999999
 30
0.0
 11
90.420473000000001
 21
-80.795453000000023
 31
0.0
  0
LINE
  5
3E0
  8
DETAIL
  6
DASHED
 62
     5
 10
99.011384000000007
 20
-76.704543999999999
 30
0.0
 11
100.6477459999999
 21
-76.704543999999999
 31
0.0
  0
LINE
  5
3E1
  8
DETAIL
  6
CONTINUOUS
 62
     5
 10
100.1363819999999
 20
-72.613635000000002
 30
0.0
 11
98.909109000000015
 21
-72.613635000000002
 31
0.0
  0
ARC
  5
3E2
  8
DETAIL
  6
CONTINUOUS
 62
     5
 10
98.907634000000002
 20
-83.035700999999989
 30
0.0
 40
2.099912999999999
 50
129.23040900000001
 51
151.15844899999991
  0
LINE
  5
3E3
  8
DETAIL
  6
CONTINUOUS
 62
     5
 10
100.1363819999999
 20
-66.477271000000002
 30
0.0
 11
100.1363819999999
 21
-56.249999000000003
 31
0.0
  0
LINE
  5
3E4
  8
DETAIL
  6
CONTINUOUS
 62
     5
 10
100.750018
 20
-66.477271000000002
 30
0.0
 11
100.750018
 21
-56.249999000000003
 31
0.0
  0
LINE
  5
3E5
  8
DETAIL
  6
CONTINUOUS
 62
     5
 10
100.1363819999999
 20
-55.236910999999999
 30
0.0
 11
100.1363819999999
 21
-51.545453999999992
 31
0.0
  0
LINE
  5
3E6
  8
DETAIL
  6
CONTINUOUS
 62
     5
 10
100.6477459999999
 20
-55.227271999999999
 30
0.0
 11
100.1363819999999
 21
-55.227271999999999
 31
0.0
  0
ARC
  5
3E7
  8
DETAIL
  6
CONTINUOUS
 62
     5
 10
100.6477459999999
 20
-55.738634999999981
 30
0.0
 40
0.5113640000000002
 50
270.0
 51
90.0
  0
LINE
  5
3E8
  8
DETAIL
  6
CONTINUOUS
 62
     5
 10
100.6477459999999
 20
-56.249999000000003
 30
0.0
 11
100.1363819999999
 21
-56.249999000000003
 31
0.0
  0
LINE
  5
3E9
  8
DETAIL
  6
CONTINUOUS
 62
     5
 10
95.636313000000001
 20
-56.250017000000007
 30
0.0
 11
98.909109000000015
 21
-56.250017000000007
 31
0.0
  0
LINE
  5
3EA
  8
DETAIL
  6
CONTINUOUS
 62
     5
 10
92.568200000000004
 20
-63.511361999999998
 30
0.0
 11
92.568200000000004
 21
-59.420454000000007
 31
0.0
  0
LINE
  5
3EB
  8
DETAIL
  6
DASHED
 62
     5
 10
98.909109000000015
 20
-62.999999000000003
 30
0.0
 11
92.568200000000004
 21
-62.999999000000003
 31
0.0
  0
LINE
  5
3EC
  8
DETAIL
  6
DASHED
 62
     5
 10
98.909109000000015
 20
-59.931817000000002
 30
0.0
 11
92.568200000000004
 21
-59.931817000000002
 31
0.0
  0
LINE
  5
3ED
  8
DETAIL
  6
CONTINUOUS
 62
     5
 10
98.909109000000015
 20
-63.511361999999998
 30
0.0
 11
92.568200000000004
 21
-63.511361999999998
 31
0.0
  0
LINE
  5
3EE
  8
DETAIL
  6
CONTINUOUS
 62
     5
 10
98.909109000000015
 20
-59.420454000000007
 30
0.0
 11
92.568200000000004
 21
-59.420454000000007
 31
0.0
  0
LINE
  5
3EF
  8
DETAIL
  6
DASHED
 62
     5
 10
100.1363819999999
 20
-45.000006999999997
 30
0.0
 11
100.1363819999999
 21
-46.22728
 31
0.0
  0
LINE
  5
3F0
  8
DETAIL
  6
CONTINUOUS
 62
     5
 10
100.1363819999999
 20
-44.488636
 30
0.0
 11
98.909109000000015
 21
-44.488636
 31
0.0
  0
ARC
  5
3F1
  8
DETAIL
  6
CONTINUOUS
 62
     5
 10
104.022746
 20
-86.931815999999998
 30
0.0
 40
5.1136359999999987
 50
180.0
 51
270.0
  0
LINE
  5
3F2
  8
DETAIL
  6
CONTINUOUS
 62
     5
 10
98.909109000000015
 20
-83.863634999999988
 30
0.0
 11
104.022746
 21
-83.863634999999988
 31
0.0
  0
LINE
  5
3F3
  8
DETAIL
  6
CONTINUOUS
 62
     5
 10
98.909109000000015
 20
-85.500008999999977
 30
0.0
 11
98.909109000000015
 21
-86.829510999999982
 31
0.0
  0
LINE
  5
3F4
  8
DETAIL
  6
CONTINUOUS
 62
     5
 10
97.031323
 20
-86.931815999999998
 30
0.0
 11
92.940414000000004
 21
-86.931815999999998
 31
0.0
  0
LINE
  5
3F5
  8
DETAIL
  6
CONTINUOUS
 62
     5
 10
96.519959999999998
 20
-82.124998000000005
 30
0.0
 11
96.519959999999998
 21
-86.931815999999998
 31
0.0
  0
LINE
  5
3F6
  8
DETAIL
  6
CONTINUOUS
 62
     5
 10
106.06819899999979
 20
-99.665327000000005
 30
0.0
 11
106.06819899999979
 21
-91.618542000000005
 31
0.0
  0
LINE
  5
3F7
  8
DETAIL
  6
CONTINUOUS
 62
     5
 10
102.795473
 20
-86.931815999999998
 30
0.0
 11
102.795473
 21
-83.863634999999988
 31
0.0
  0
LINE
  5
3F8
  8
DETAIL
  6
CONTINUOUS
 62
     5
 10
104.022746
 20
-86.931815999999998
 30
0.0
 11
104.022746
 21
-83.863634999999988
 31
0.0
  0
ARC
  5
3F9
  8
DETAIL
  6
CONTINUOUS
 62
     5
 10
107.909109
 20
-86.931815999999998
 30
0.0
 40
5.1136359999999987
 50
180.0
 51
248.89978600000001
  0
ARC
  5
3FA
  8
DETAIL
  6
CONTINUOUS
 62
     5
 10
107.909109
 20
-86.931815999999998
 30
0.0
 40
3.8863639999999999
 50
180.0
 51
241.72626199999991
  0
LINE
  5
3FB
  8
DETAIL
  6
CONTINUOUS
 62
     5
 10
131.6363799999998
 20
-99.665327000000005
 30
0.0
 11
131.636381
 21
-92.045453000000023
 31
0.0
  0
LINE
  5
3FC
  8
DETAIL
  6
DASHED
 62
     5
 10
131.636381
 20
-90.818179999999998
 30
0.0
 11
131.636381
 21
-92.045453000000023
 31
0.0
  0
LINE
  5
3FD
  8
DETAIL
  6
CONTINUOUS
 62
     5
 10
131.636381
 20
-90.818179999999998
 30
0.0
 11
131.63011299999999
 21
-57.211821999999998
 31
0.0
  0
LINE
  5
3FE
  8
DETAIL
  6
DASHDOT
 62
     5
 10
95.022745999999984
 20
-73.759068999999982
 30
0.0
 11
95.022745999999984
 21
-88.151568000000026
 31
0.0
  0
LINE
  5
3FF
  8
DETAIL
  6
CONTINUOUS
 62
     5
 10
97.031323
 20
-81.639854999999983
 30
0.0
 11
97.031323
 21
-86.931815999999998
 31
0.0
  0
LINE
  5
400
  8
DETAIL
  6
CONTINUOUS
 62
     5
 10
93.451778000000004
 20
-81.899762999999993
 30
0.0
 11
93.451778000000004
 21
-86.931815999999998
 31
0.0
  0
LINE
  5
401
  8
DETAIL
  6
CONTINUOUS
 62
     5
 10
92.940414000000004
 20
-81.511362000000005
 30
0.0
 11
92.940414000000004
 21
-86.931815999999998
 31
0.0
  0
LINE
  5
402
  8
DETAIL
  6
CONTINUOUS
 62
     5
 10
82.954588000000001
 20
4.09091
 30
0.0
 11
82.954588000000001
 21
40.909098
 31
0.0
  0
LINE
  5
403
  8
DETAIL
  6
CONTINUOUS
 62
     5
 10
81.046079000000006
 20
40.397742000000001
 30
0.0
 11
81.046079000000006
 21
36.818224999999991
 31
0.0
  0
LINE
  5
404
  8
DETAIL
  6
CONTINUOUS
 62
     5
 10
81.931852000000006
 20
40.909098
 30
0.0
 11
81.931852000000006
 21
36.818224999999991
 31
0.0
  0
LINE
  5
405
  8
DETAIL
  6
CONTINUOUS
 62
     5
 10
103.409137
 20
4.09091
 30
0.0
 11
103.409137
 21
40.909098
 31
0.0
  0
LINE
  5
406
  8
DETAIL
  6
CONTINUOUS
 62
     5
 10
105.317505
 20
40.397742000000001
 30
0.0
 11
105.317505
 21
36.81794399999999
 31
0.0
  0
LINE
  5
407
  8
DETAIL
  6
CONTINUOUS
 62
     5
 10
104.4318719999999
 20
40.909098
 30
0.0
 11
104.4318719999999
 21
36.81794399999999
 31
0.0
  0
LINE
  5
408
  8
DETAIL
  6
CONTINUOUS
 62
     5
 10
133.869337
 20
6.0553809999999979
 30
0.0
 11
131.79920000000001
 21
6.9746050000000004
 31
0.0
  0
ARC
  5
409
  8
DETAIL
  6
CONTINUOUS
 62
     5
 10
132.954576
 20
4.2258519999999979
 30
0.0
 40
2.045455
 50
359.99992799999978
 51
63.434954999999988
  0
LINE
  5
40A
  8
DETAIL
  6
CONTINUOUS
 62
     5
 10
135.0
 20
-4.2258519999999979
 30
0.0
 11
135.0
 21
0.0
 31
0.0
  0
LINE
  5
40B
  8
DETAIL
  6
CONTINUOUS
 62
     5
 10
133.869326
 20
-6.0553249999999981
 30
0.0
 11
132.954579
 21
-6.5126850000000003
 31
0.0
  0
ARC
  5
40C
  8
DETAIL
  6
CONTINUOUS
 62
     5
 10
132.954576
 20
-4.2258519999999979
 30
0.0
 40
2.045455
 50
296.565065
 51
359.99998299999982
  0
LINE
  5
40D
  8
DETAIL
  6
CONTINUOUS
 62
     5
 10
135.0
 20
4.2258519999999979
 30
0.0
 11
135.0
 21
0.0
 31
0.0
  0
LINE
  5
40E
  8
DETAIL
  6
CONTINUOUS
 62
     5
 10
82.954588000000001
 20
22.244323999999992
 30
0.0
 11
103.409137
 21
22.244323999999992
 31
0.0
  0
LINE
  5
40F
  8
DETAIL
  6
CONTINUOUS
 62
     5
 10
82.954588000000001
 20
22.755689
 30
0.0
 11
103.409137
 21
22.755689
 31
0.0
  0
LINE
  5
410
  8
DETAIL
  6
CONTINUOUS
 62
     5
 10
78.352311999999984
 20
20.710234
 30
0.0
 11
78.352311999999984
 21
4.09091
 31
0.0
  0
LINE
  5
411
  8
DETAIL
  6
CONTINUOUS
 62
     5
 10
78.35233599999998
 20
14.573926999999991
 30
0.0
 11
82.954614000000007
 21
14.06256799999999
 31
0.0
  0
LINE
  5
412
  8
DETAIL
  6
CONTINUOUS
 62
     5
 10
78.352331000000007
 20
20.710217
 30
0.0
 11
82.954611
 21
21.221562999999978
 31
0.0
  0
LINE
  5
413
  8
DETAIL
  6
CONTINUOUS
 62
     5
 10
94.000007999999994
 20
29.749991999999999
 30
0.0
 11
94.000007999999994
 21
23.049994999999999
 31
0.0
  0
LINE
  5
414
  8
DETAIL
  6
CONTINUOUS
 62
     5
 10
103.4091639999999
 20
14.062472
 30
0.0
 11
106.06819899999979
 21
14.357919000000001
 31
0.0
  0
LINE
  5
415
  8
DETAIL
  6
CONTINUOUS
 62
     5
 10
106.06819899999979
 20
20.926189999999998
 30
0.0
 11
103.4091539999999
 21
21.221637000000001
 31
0.0
  0
LINE
  5
416
  8
DETAIL
  6
CONTINUOUS
 62
     5
 10
106.06819899999979
 20
25.568179999999991
 30
0.0
 11
103.409137
 21
25.568179999999991
 31
0.0
  0
LINE
  5
417
  8
DETAIL
  6
CONTINUOUS
 62
     5
 10
106.06819899999979
 20
36.81794399999999
 30
0.0
 11
103.409137
 21
36.81794399999999
 31
0.0
  0
ARC
  5
418
  8
DETAIL
  6
CONTINUOUS
 62
     5
 10
93.500007999999994
 20
29.749991999999999
 30
0.0
 40
0.8
 50
359.99998099999982
 51
51.317889000000001
  0
LINE
  5
419
  8
DETAIL
  6
CONTINUOUS
 62
     5
 10
80.607499000000004
 20
-42.034106000000001
 30
0.0
 11
80.607499000000004
 21
-0.000003
 31
0.0
  0
LINE
  5
41A
  8
DETAIL
  6
CONTINUOUS
 62
     5
 10
81.493413000000004
 20
-42.545485999999983
 30
0.0
 11
81.493413000000004
 21
-0.000003
 31
0.0
  0
LINE
  5
41B
  8
DETAIL
  6
CONTINUOUS
 62
     5
 10
81.493413000000004
 20
-42.545485999999983
 30
0.0
 11
93.999972999999997
 21
-42.545485999999983
 31
0.0
  0
LINE
  5
41C
  8
DETAIL
  6
CONTINUOUS
 62
     5
 10
81.493459999999985
 20
-42.545453000000002
 30
0.0
 11
80.607615999999993
 21
-42.034120000000001
 31
0.0
  0
LINE
  5
41D
  8
DETAIL
  6
CONTINUOUS
 62
     5
 10
104.4318719999999
 20
40.909098
 30
0.0
 11
100.54544899999991
 21
40.909098
 31
0.0
  0
LINE
  5
41E
  8
DETAIL
  6
CONTINUOUS
 62
     5
 10
104.870312
 20
42.545484000000002
 30
0.0
 11
100.54544899999991
 21
42.545484000000002
 31
0.0
  0
LINE
  5
41F
  8
DETAIL
  6
CONTINUOUS
 62
     5
 10
102.386481
 20
47.400817000000004
 30
0.0
 11
95.636454999999984
 21
46.810223000000001
 31
0.0
  0
LINE
  5
420
  8
DETAIL
  6
CONTINUOUS
 62
     5
 10
102.39034700000001
 20
47.912458000000001
 30
0.0
 11
95.636471999999998
 21
47.32153799999999
 31
0.0
  0
LINE
  5
421
  8
DETAIL
  6
CONTINUOUS
 62
     5
 10
102.3951969999999
 20
50.263770000000001
 30
0.0
 11
95.636425000000003
 21
50.855113000000003
 31
0.0
  0
LINE
  5
422
  8
DETAIL
  6
CONTINUOUS
 62
     5
 10
102.3865519999999
 20
50.775844999999997
 30
0.0
 11
95.636456999999993
 21
51.366461999999999
 31
0.0
  0
ARC
  5
423
  8
DETAIL
  6
CONTINUOUS
 62
     5
 10
104.0226939999999
 20
56.249992000000013
 30
0.0
 40
5.1136359999999987
 50
90.0
 51
180.0000189999999
  0
LINE
  5
424
  8
DETAIL
  6
CONTINUOUS
 62
     5
 10
100.1363819999999
 20
42.59743799999999
 30
0.0
 11
100.1363819999999
 21
56.249997999999998
 31
0.0
  0
LINE
  5
425
  8
DETAIL
  6
CONTINUOUS
 62
     5
 10
98.909109000000015
 20
44.172825000000003
 30
0.0
 11
98.909109000000015
 21
56.249997999999998
 31
0.0
  0
LINE
  5
426
  8
DETAIL
  6
CONTINUOUS
 62
     5
 10
95.636430000000004
 20
56.250016000000002
 30
0.0
 11
95.636430000000004
 21
44.181846999999998
 31
0.0
  0
LINE
  5
427
  8
DETAIL
  6
CONTINUOUS
 62
     5
 10
97.272769999999994
 20
56.250016000000002
 30
0.0
 11
97.272769999999994
 21
51.223275999999998
 31
0.0
  0
LINE
  5
428
  8
DETAIL
  6
CONTINUOUS
 62
     5
 10
81.493413000000004
 20
42.545484000000002
 30
0.0
 11
94.000090999999998
 21
42.545484000000002
 31
0.0
  0
LINE
  5
429
  8
DETAIL
  6
CONTINUOUS
 62
     5
 10
81.931852000000006
 20
40.909098
 30
0.0
 11
100.54544899999991
 21
40.909098
 31
0.0
  0
LINE
  5
42A
  8
DETAIL
  6
CONTINUOUS
 62
     5
 10
81.493419000000003
 20
42.545479
 30
0.0
 11
80.607642999999982
 21
42.034074999999987
 31
0.0
  0
LINE
  5
42B
  8
DETAIL
  6
CONTINUOUS
 62
     5
 10
81.931922999999969
 20
40.909126000000001
 30
0.0
 11
81.046095999999977
 21
40.397765999999983
 31
0.0
  0
ARC
  5
42C
  8
DETAIL
  6
CONTINUOUS
 62
     5
 10
94.000090999999998
 20
44.181846999999998
 30
0.0
 40
1.636363999999999
 50
270.0
 51
359.99992799999978
  0
ARC
  5
42D
  8
DETAIL
  6
CONTINUOUS
 62
     5
 10
94.000090999999998
 20
44.181846999999998
 30
0.0
 40
3.2727289999999991
 50
270.0
 51
359.99992799999978
  0
ARC
  5
42E
  8
DETAIL
  6
CONTINUOUS
 62
     5
 10
100.54544899999991
 20
44.181846999999998
 30
0.0
 40
3.2727289999999991
 50
180.0000189999999
 51
270.0
  0
ARC
  5
42F
  8
DETAIL
  6
CONTINUOUS
 62
     5
 10
100.54544899999991
 20
44.181846999999998
 30
0.0
 40
1.636363999999999
 50
180.0000189999999
 51
270.0
  0
LINE
  5
430
  8
DETAIL
  6
CONTINUOUS
 62
     5
 10
97.272769999999994
 20
44.181846999999998
 30
0.0
 11
97.272769999999994
 21
46.953400000000002
 31
0.0
  0
ARC
  5
431
  8
DETAIL
  6
CONTINUOUS
 62
     5
 10
102.181859
 20
49.088338
 30
0.0
 40
9.2045490000000001
 50
163.39845199999999
 51
196.60153099999991
  0
LINE
  5
432
  8
DETAIL
  6
CONTINUOUS
 62
     5
 10
95.636406999999963
 20
52.667876999999997
 30
0.0
 11
94.635113000000004
 21
52.667876999999997
 31
0.0
  0
LINE
  5
433
  8
DETAIL
  6
CONTINUOUS
 62
     5
 10
95.636406999999963
 20
45.508797999999992
 30
0.0
 11
94.635113000000004
 21
45.508797999999992
 31
0.0
  0
ARC
  5
434
  8
DETAIL
  6
CONTINUOUS
 62
     5
 10
94.635113000000004
 20
51.338304999999998
 30
0.0
 40
1.3295449999999991
 50
90.0
 51
163.39845199999999
  0
ARC
  5
435
  8
DETAIL
  6
CONTINUOUS
 62
     5
 10
94.635113000000004
 20
46.838324
 30
0.0
 40
1.3295449999999991
 50
196.60153099999991
 51
270.0
  0
LINE
  5
436
  8
DETAIL
  6
CONTINUOUS
 62
     5
 10
98.909109000000015
 20
44.181846999999998
 30
0.0
 11
98.909109000000015
 21
47.096541999999999
 31
0.0
  0
LINE
  5
437
  8
DETAIL
  6
CONTINUOUS
 62
     5
 10
104.43187399999999
 20
40.909038000000002
 30
0.0
 11
105.317528
 21
40.397705999999992
 31
0.0
  0
LINE
  5
438
  8
DETAIL
  6
CONTINUOUS
 62
     5
 10
104.8703359999999
 20
42.545558
 30
0.0
 11
105.7561109999999
 21
42.034153999999987
 31
0.0
  0
LINE
  5
439
  8
DETAIL
  6
CONTINUOUS
 62
     5
 10
102.3863079999999
 20
50.775848000000003
 30
0.0
 11
102.3863079999999
 21
47.400756999999999
 31
0.0
  0
LINE
  5
43A
  8
DETAIL
  6
CONTINUOUS
 62
     5
 10
106.06819899999979
 20
42.03410499999999
 30
0.0
 11
105.756061
 21
42.03410499999999
 31
0.0
  0
LINE
  5
43B
  8
DETAIL
  6
CONTINUOUS
 62
     5
 10
106.06819899999979
 20
40.397742000000001
 30
0.0
 11
105.317505
 21
40.397742000000001
 31
0.0
  0
LINE
  5
43C
  8
DETAIL
  6
CONTINUOUS
 62
     5
 10
104.0226939999999
 20
61.363624000000002
 30
0.0
 11
106.06819899999979
 21
61.363624000000002
 31
0.0
  0
LINE
  5
43D
  8
DETAIL
  6
CONTINUOUS
 62
     5
 10
127.545472
 20
45.102260999999991
 30
0.0
 11
129.095417
 21
45.102260999999991
 31
0.0
  0
ARC
  5
43E
  8
DETAIL
  6
CONTINUOUS
 62
     5
 10
129.095417
 20
47.147715999999981
 30
0.0
 40
2.0454539999999981
 50
270.0
 51
0.0
  0
LINE
  5
43F
  8
DETAIL
  6
CONTINUOUS
 62
     5
 10
131.14087000000001
 20
99.665324999999996
 30
0.0
 11
131.140871
 21
47.147715999999981
 31
0.0
  0
ARC
  5
440
  8
DETAIL
  6
CONTINUOUS
 62
     5
 10
-255.42419599999999
 20
115.409351
 30
0.0
 40
362.66220600000003
 50
332.42530699999992
 51
334.34168599999998
  0
LINE
  5
441
  8
DETAIL
  6
CONTINUOUS
 62
     5
 10
62.090912000000003
 20
-0.000001
 30
0.0
 11
62.090912000000003
 21
-133.17609099999979
 31
0.0
  0
LINE
  5
442
  8
DETAIL
  6
CONTINUOUS
 62
     5
 10
57.999997
 20
0.0
 30
0.0
 11
57.999997
 21
-133.17609099999979
 31
0.0
  0
LINE
  5
443
  8
DETAIL
  6
CONTINUOUS
 62
     5
 10
9.7840900000000008
 20
-180.2223339999999
 30
0.0
 11
10.0
 21
0.0
 31
0.0
  0
TEXT
  5
444
  8
SIZE
  6
CONTINUOUS
 62
    30
 10
-167.90912299999999
 20
-68.571429000000009
 30
0.0
 40
64.0
  1
160
 50
90.0
 41
0.9
  0
LINE
  5
445
  8
SIZE
  6
CONTINUOUS
 62
    30
 10
-146.553663
 20
80.0
 30
0.0
 11
-146.553663
 21
-80.0
 31
0.0
  0
LINE
  5
446
  8
DETAIL
  6
CONTINUOUS
 62
     5
 10
23.085384999999999
 20
-151.049261
 30
0.0
 11
23.085384999999999
 21
-119.756958
 31
0.0
  0
LINE
  5
447
  8
DETAIL
  6
CONTINUOUS
 62
     5
 10
20.017203999999989
 20
-150.7636429999998
 30
0.0
 11
20.017203999999989
 21
-119.756958
 31
0.0
  0
LINE
  5
448
  8
NOTE
  6
CONTINUOUS
 62
     4
 10
17.471682999999999
 20
-168.7937559999998
 30
0.0
 11
12.784098999999991
 21
-168.74709300000001
 31
0.0
  0
LINE
  5
449
  8
NOTE
  6
CONTINUOUS
 62
     4
 10
17.471682999999999
 20
-168.7937559999998
 30
0.0
 11
12.784098999999991
 21
-168.74709300000001
 31
0.0
  0
LINE
  5
44A
  8
NOTE
  6
CONTINUOUS
 62
     4
 10
-20.0
 20
-165.0
 30
0.0
 11
20.0
 21
-165.0
 31
0.0
  0
LINE
  5
44B
  8
DETAIL
  6
DASHED
 62
     5
 10
62.090912000000003
 20
-133.17609099999979
 30
0.0
 11
62.090912000000003
 21
-133.17609099999979
 31
0.0
  0
ARC
  5
44C
  8
DETAIL
  6
CONTINUOUS
 62
     5
 10
60.045466000000012
 20
-156.477273
 30
0.0
 40
2.0454539999999981
 50
270.0
 51
359.99998299999982
  0
LINE
  5
44D
  8
DETAIL
  6
CONTINUOUS
 62
     5
 10
62.090912000000003
 20
-155.880156
 30
0.0
 11
62.090912000000003
 21
-156.477273
 31
0.0
  0
LINE
  5
44E
  8
DETAIL
  6
CONTINUOUS
 62
     5
 10
25.130839999999999
 20
-155.8772789999999
 30
0.0
 11
65.159109000000001
 21
-155.880156
 31
0.0
  0
LINE
  5
44F
  8
DETAIL
  6
CONTINUOUS
 62
     5
 10
26.153566999999988
 20
-154.1174419999999
 30
0.0
 11
65.159109000000001
 21
-154.12031899999999
 31
0.0
  0
ARC
  5
450
  8
DETAIL
  6
CONTINUOUS
 62
     5
 10
60.045466000000012
 20
-156.477273
 30
0.0
 40
2.0454539999999981
 50
180.0000189999999
 51
270.0
  0
LINE
  5
451
  8
DETAIL
  6
CONTINUOUS
 62
     5
 10
26.153566999999988
 20
-133.173215
 30
0.0
 11
65.159109000000001
 21
-133.17609099999979
 31
0.0
  0
LINE
  5
452
  8
DETAIL
  6
DASHED
 62
     5
 10
57.999997
 20
-155.880156
 30
0.0
 11
57.999997
 21
-155.880156
 31
0.0
  0
ARC
  5
453
  8
DETAIL
  6
CONTINUOUS
 62
     5
 10
25.130839999999999
 20
-150.7636429999998
 30
0.0
 40
5.1136359999999987
 50
180.0
 51
270.0
  0
LINE
  5
454
  8
DETAIL
  6
CONTINUOUS
 62
     5
 10
20.017203999999989
 20
-140.19887199999999
 30
0.0
 11
23.085384999999999
 21
-140.19887199999999
 31
0.0
  0
LINE
  5
455
  8
DETAIL
  6
CONTINUOUS
 62
     5
 10
20.017203999999989
 20
-137.35011
 30
0.0
 11
23.085384999999999
 21
-137.35011
 31
0.0
  0
ARC
  5
456
  8
DETAIL
  6
CONTINUOUS
 62
     5
 10
26.153566999999988
 20
-151.049261
 30
0.0
 40
3.0681820000000002
 50
180.0
 51
270.0
  0
LINE
  5
457
  8
DETAIL
  6
CONTINUOUS
 62
     5
 10
57.999997
 20
-155.880156
 30
0.0
 11
57.999997
 21
-156.477273
 31
0.0
  0
ARC
  5
458
  8
DETAIL
  6
CONTINUOUS
 62
     5
 10
26.153566999999988
 20
-130.10503299999999
 30
0.0
 40
3.0681820000000002
 50
180.0
 51
270.0
  0
ARC
  5
459
  8
DETAIL
  6
CONTINUOUS
 62
     5
 10
17.471682999999999
 20
-166.23693899999981
 30
0.0
 40
2.5568169999999979
 50
270.0
 51
0.000037
  0
CIRCLE
  5
45A
  8
FIX
  6
CONTINUOUS
 62
    11
 10
0.0
 20
-157.0
 30
0.0
 40
4.0
  0
ARC
  5
45B
  8
DETAIL
  6
CONTINUOUS
 62
     5
 10
13.088352
 20
-172.0384489999999
 30
0.0
 40
3.3053809999999979
 50
95.281421000000009
 51
175.1660479999999
  0
LINE
  5
45C
  8
DETAIL
  6
CONTINUOUS
 62
     5
 10
7.0749820000000003
 20
-182.7483279999999
 30
0.0
 11
4.3978449999999993
 21
-182.77915899999991
 31
0.0
  0
ARC
  5
45D
  8
DETAIL
  6
CONTINUOUS
 62
     5
 10
7.343761999999999
 20
-180.3208469999999
 30
0.0
 40
2.442315999999999
 50
263.68170900000001
 51
2.3116939999999979
  0
ARC
  5
45E
  8
DETAIL
  6
CONTINUOUS
 62
     5
 10
2.0650430000000002
 20
-182.31298000000001
 30
0.0
 40
2.4435769999999981
 50
316.69768399999992
 51
345.769946
  0
ARC
  5
45F
  8
NOTE
  6
CONTINUOUS
 62
     4
 10
7.343761999999999
 20
-180.3208469999999
 30
0.0
 40
2.442315999999999
 50
263.68170900000001
 51
2.3116939999999979
  0
LINE
  5
460
  8
DETAIL
  6
CONTINUOUS
 62
     5
 10
0.0
 20
-185.0
 30
0.0
 11
2.2448450000000002
 21
-184.60037500000001
 31
0.0
  0
CIRCLE
  5
461
  8
FIX
  6
CONTINUOUS
 62
    11
 10
0.0
 20
-165.0
 30
0.0
 40
5.0
  0
LINE
  5
462
  8
DETAIL
  6
CONTINUOUS
 62
     5
 10
17.522742000000001
 20
-93.576660000000004
 30
0.0
 11
12.409115999999999
 21
-93.576660000000004
 31
0.0
  0
ARC
  5
463
  8
DETAIL
  6
CONTINUOUS
 62
     5
 10
-383.02603099999988
 20
-312.99584800000002
 30
0.0
 40
516.55381799999986
 50
29.061157000000001
 51
30.491451999999999
  0
LINE
  5
464
  8
DETAIL
  6
CONTINUOUS
 62
     5
 10
62.090912000000003
 20
-49.449461999999997
 30
0.0
 11
68.494197
 21
-62.083468999999987
 31
0.0
  0
ARC
  5
465
  8
DETAIL
  6
CONTINUOUS
 62
     5
 10
-383.02603099999988
 20
-312.99584800000002
 30
0.0
 40
514.04256799999985
 50
29.035492999999988
 51
30.012699999999992
  0
LINE
  5
466
  8
DETAIL
  6
CONTINUOUS
 62
     5
 10
66.410933
 20
-63.504348999999991
 30
0.0
 11
68.494214999999997
 21
-62.083441999999991
 31
0.0
  0
LINE
  5
467
  8
DETAIL
  6
CONTINUOUS
 62
     5
 10
20.017203999999989
 20
-119.756958
 30
0.0
 11
23.085384999999999
 21
-119.756958
 31
0.0
  0
ARC
  5
468
  8
DETAIL
  6
CONTINUOUS
 62
     5
 10
17.511623999999991
 20
-96.160325999999998
 30
0.0
 40
2.5836830000000002
 50
14.19833399999999
 51
89.753442000000007
  0
ARC
  5
469
  8
DETAIL
  6
CONTINUOUS
 62
     5
 10
12.409115999999999
 20
-91.019835999999998
 30
0.0
 40
2.5568169999999979
 50
190.25302400000001
 51
270.0
  0
CIRCLE
  5
46A
  8
FIX
  6
CONTINUOUS
 62
    11
 10
0.0
 20
-80.0
 30
0.0
 40
4.0
  0
CIRCLE
  5
46B
  8
SIZE
  6
CONTINUOUS
 62
    30
 10
-146.553663
 20
-80.0
 30
0.0
 40
6.0
  0
LINE
  5
46C
  8
SIZE
  6
CONTINUOUS
 62
    30
 10
-146.553663
 20
-82.0
 30
0.0
 11
-146.553663
 21
-84.0
 31
0.0
  0
ARC
  5
46D
  8
DETAIL
  6
CONTINUOUS
 62
     5
 10
70.170496999999997
 20
31.193214000000001
 30
0.0
 40
5.6250020000000003
 50
90.0
 51
180.0000189999999
  0
LINE
  5
46E
  8
DETAIL
  6
CONTINUOUS
 62
     5
 10
70.068248999999994
 20
12.886355999999999
 30
0.0
 11
70.068248999999994
 21
4.09091
 31
0.0
  0
LINE
  5
46F
  8
DETAIL
  6
CONTINUOUS
 62
     5
 10
70.068273000000005
 20
12.886359000000001
 30
0.0
 11
68.431910000000002
 21
11.249983
 31
0.0
  0
LINE
  5
470
  8
DETAIL
  6
CONTINUOUS
 62
     5
 10
67.511398999999997
 20
7.6704249999999989
 30
0.0
 11
68.534110999999996
 21
7.6704249999999989
 31
0.0
  0
LINE
  5
471
  8
DETAIL
  6
CONTINUOUS
 62
     5
 10
67.511398999999997
 20
3.5795460000000001
 30
0.0
 11
67.000018999999995
 21
3.5795460000000001
 31
0.0
  0
LINE
  5
472
  8
DETAIL
  6
CONTINUOUS
 62
     5
 10
68.431910000000002
 20
11.250000999999999
 30
0.0
 11
68.431910000000002
 21
7.6704249999999989
 31
0.0
  0
ARC
  5
473
  8
DETAIL
  6
CONTINUOUS
 62
     5
 10
70.170496999999997
 20
31.193190999999999
 30
0.0
 40
5.6250020000000003
 50
180.0000189999999
 51
270.0
  0
LINE
  5
474
  8
DETAIL
  6
CONTINUOUS
 62
     5
 10
64.545485999999997
 20
31.193190999999999
 30
0.0
 11
64.545485999999997
 21
12.886355999999999
 31
0.0
  0
LINE
  5
475
  8
DETAIL
  6
CONTINUOUS
 62
     5
 10
62.500038000000004
 20
12.886355999999999
 30
0.0
 11
70.068248999999994
 21
12.886355999999999
 31
0.0
  0
LINE
  5
476
  8
DETAIL
  6
CONTINUOUS
 62
     5
 10
68.431910000000002
 20
11.250000999999999
 30
0.0
 11
62.090912000000003
 21
11.250000999999999
 31
0.0
  0
LINE
  5
477
  8
DETAIL
  6
CONTINUOUS
 62
     5
 10
67.000018999999995
 20
4.09091
 30
0.0
 11
67.000018999999995
 21
-0.000001
 31
0.0
  0
LINE
  5
478
  8
DETAIL
  6
CONTINUOUS
 62
     5
 10
68.534110999999996
 20
-0.000001
 30
0.0
 11
68.534110999999996
 21
7.6704249999999989
 31
0.0
  0
LINE
  5
479
  8
DETAIL
  6
CONTINUOUS
 62
     5
 10
67.511398999999997
 20
-0.000003
 30
0.0
 11
67.511398999999997
 21
11.250000999999999
 31
0.0
  0
LINE
  5
47A
  8
DETAIL
  6
CONTINUOUS
 62
     5
 10
20.082330999999989
 20
119.76271
 30
0.0
 11
23.150512999999989
 21
119.76271
 31
0.0
  0
CIRCLE
  5
47B
  8
FIX
  6
CONTINUOUS
 62
    11
 10
0.0
 20
80.0
 30
0.0
 40
4.0
  0
CIRCLE
  5
47C
  8
SIZE
  6
CONTINUOUS
 62
    30
 10
-146.553663
 20
80.0
 30
0.0
 40
6.0
  0
LINE
  5
47D
  8
SIZE
  6
CONTINUOUS
 62
    30
 10
-146.553663
 20
82.0
 30
0.0
 11
-146.553663
 21
84.0
 31
0.0
  0
LINE
  5
47E
  8
DETAIL
  6
CONTINUOUS
 62
     5
 10
17.414683
 20
168.7069239999999
 30
0.0
 11
12.784098999999991
 21
168.75284600000001
 31
0.0
  0
LINE
  5
47F
  8
NOTE
  6
CONTINUOUS
 62
     4
 10
-20.0
 20
165.0
 30
0.0
 11
20.0
 21
165.0
 31
0.0
  0
LINE
  5
480
  8
DETAIL
  6
CONTINUOUS
 62
     5
 10
12.727107
 20
148.78475299999991
 30
0.0
 11
17.840731999999988
 21
148.78475299999991
 31
0.0
  0
ARC
  5
481
  8
DETAIL
  6
CONTINUOUS
 62
     5
 10
60.045456999999992
 20
155.5850309999999
 30
0.0
 40
1.5340910000000001
 50
359.07102200000003
 51
200.71718799999999
  0
ARC
  5
482
  8
DETAIL
  6
CONTINUOUS
 62
     5
 10
60.168751
 20
155.40051800000001
 30
0.0
 40
2.2333729999999981
 50
93.164625000000001
 51
175.26102899999981
  0
LINE
  5
483
  8
DETAIL
  6
CONTINUOUS
 62
     5
 10
26.218693999999999
 20
154.12319399999981
 30
0.0
 11
65.159109000000001
 21
154.120317
 31
0.0
  0
LINE
  5
484
  8
DETAIL
  6
CONTINUOUS
 62
     5
 10
26.218693999999999
 20
133.178966
 30
0.0
 11
65.159109000000001
 21
133.1760899999999
 31
0.0
  0
ARC
  5
485
  8
DETAIL
  6
CONTINUOUS
 62
     5
 10
17.414683
 20
166.15010599999991
 30
0.0
 40
2.5568169999999979
 50
0.0
 51
90.0
  0
LINE
  5
486
  8
DETAIL
  6
CONTINUOUS
 62
     5
 10
58.594997999999997
 20
155.02677700000001
 30
0.0
 11
58.960799000000002
 21
155.392484
 31
0.0
  0
LINE
  5
487
  8
DETAIL
  6
CONTINUOUS
 62
     5
 10
57.943013000000001
 20
155.5850309999999
 30
0.0
 11
26.161695000000002
 21
155.58790799999991
 31
0.0
  0
LINE
  5
488
  8
DETAIL
  6
CONTINUOUS
 62
     5
 10
57.943013000000001
 20
155.5850309999999
 30
0.0
 11
27.261202000000001
 21
155.5850309999999
 31
0.0
  0
LINE
  5
489
  8
DETAIL
  6
CONTINUOUS
 62
     5
 10
20.025331999999992
 20
149.45154399999981
 30
0.0
 11
20.025331999999992
 21
146.22792799999991
 31
0.0
  0
ARC
  5
48A
  8
DETAIL
  6
CONTINUOUS
 62
     5
 10
26.161695000000002
 20
149.45154399999981
 30
0.0
 40
6.1363629999999993
 50
90.0
 51
180.0
  0
LINE
  5
48B
  8
DETAIL
  6
CONTINUOUS
 62
     5
 10
20.025331999999992
 20
149.45154399999981
 30
0.0
 11
20.025331999999992
 21
146.22792799999991
 31
0.0
  0
ARC
  5
48C
  8
DETAIL
  6
CONTINUOUS
 62
     5
 10
26.161695000000002
 20
149.45154399999981
 30
0.0
 40
6.1363629999999993
 50
90.0
 51
180.0
  0
ARC
  5
48D
  8
DETAIL
  6
CONTINUOUS
 62
     5
 10
17.840731999999988
 20
146.22792799999991
 30
0.0
 40
2.5568169999999979
 50
33.424846000000002
 51
90.0
  0
LINE
  5
48E
  8
DETAIL
  6
CONTINUOUS
 62
     5
 10
20.082330999999989
 20
140.20462399999991
 30
0.0
 11
23.150512999999989
 21
140.20462399999991
 31
0.0
  0
LINE
  5
48F
  8
DETAIL
  6
CONTINUOUS
 62
     5
 10
20.082330999999989
 20
137.355861
 30
0.0
 11
23.150512999999989
 21
137.355861
 31
0.0
  0
ARC
  5
490
  8
DETAIL
  6
CONTINUOUS
 62
     5
 10
26.218693999999999
 20
151.05501199999981
 30
0.0
 40
3.0681820000000002
 50
90.0
 51
180.0
  0
ARC
  5
491
  8
DETAIL
  6
CONTINUOUS
 62
     5
 10
26.218693999999999
 20
130.110784
 30
0.0
 40
3.0681820000000002
 50
90.0
 51
180.0
  0
LINE
  5
492
  8
DETAIL
  6
CONTINUOUS
 62
     5
 10
62.090912000000003
 20
128.46682300000001
 30
0.0
 11
62.090912000000003
 21
133.1760899999999
 31
0.0
  0
LINE
  5
493
  8
DETAIL
  6
CONTINUOUS
 62
     5
 10
62.090912000000003
 20
155.5850309999999
 30
0.0
 11
65.102109999999996
 21
155.5850309999999
 31
0.0
  0
LINE
  5
494
  8
DETAIL
  6
CONTINUOUS
 62
     5
 10
62.090912000000003
 20
155.5850309999999
 30
0.0
 11
65.102109999999996
 21
155.5850309999999
 31
0.0
  0
ARC
  5
495
  8
DETAIL
  6
CONTINUOUS
 62
     5
 10
60.045456999999992
 20
155.5850309999999
 30
0.0
 40
2.0454539999999981
 50
0.0
 51
90.0
  0
ARC
  5
496
  8
DETAIL
  6
CONTINUOUS
 62
     5
 10
12.784098999999991
 20
171.30967100000001
 30
0.0
 40
2.5568169999999979
 50
180.0000189999999
 51
270.0
  0
ARC
  5
497
  8
DETAIL
  6
CONTINUOUS
 62
     5
 10
12.814366
 20
151.5522389999999
 30
0.0
 40
2.7688540000000001
 50
184.1865249999999
 51
268.19405399999982
  0
CIRCLE
  5
498
  8
FIX
  6
CONTINUOUS
 62
    11
 10
0.0
 20
157.0
 30
0.0
 40
4.0
  0
CIRCLE
  5
499
  8
FIX
  6
CONTINUOUS
 62
    11
 10
0.0
 20
165.0
 30
0.0
 40
5.0
  0
LINE
  5
49A
  8
SIZE
  6
CONTINUOUS
 62
    30
 10
-405.29858899999999
 20
163.0
 30
0.0
 11
-405.29858899999999
 21
-163.0
 31
0.0
  0
LINE
  5
49B
  8
SIZE
  6
CONTINUOUS
 62
    30
 10
-280.80390799999992
 20
155.0
 30
0.0
 11
-280.80390799999992
 21
-155.0
 31
0.0
  0
LINE
  5
49C
  8
SIZE
  6
CONTINUOUS
 62
    30
 10
-553.68774599999995
 20
183.0
 30
0.0
 11
-553.68774599999995
 21
-183.0
 31
0.0
  0
TEXT
  5
49D
  8
SIZE
  6
CONTINUOUS
 62
    30
 10
-416.22473600000001
 20
-74.057143000000025
 30
0.0
 40
64.0
  1
330
 50
90.0
 41
0.9
  0
TEXT
  5
49E
  8
SIZE
  6
CONTINUOUS
 62
    30
 10
-296.43428999999992
 20
-69.942856999999975
 30
0.0
 40
64.0
  1
314
 50
90.0
 41
0.9
  0
CIRCLE
  5
49F
  8
SIZE
  6
CONTINUOUS
 62
    30
 10
-280.80390799999992
 20
-157.0
 30
0.0
 40
6.0
  0
TEXT
  5
4A0
  8
SIZE
  6
CONTINUOUS
 62
    30
 10
-575.94532900000002
 20
-74.057143000000025
 30
0.0
 40
64.0
  1
370
 50
90.0
 41
0.9
  0
CIRCLE
  5
4A1
  8
SIZE
  6
CONTINUOUS
 62
    30
 10
-405.29858899999999
 20
-165.0
 30
0.0
 40
6.0
  0
CIRCLE
  5
4A2
  8
SIZE
  6
CONTINUOUS
 62
    30
 10
-553.68774599999995
 20
-185.0
 30
0.0
 40
6.0
  0
CIRCLE
  5
4A3
  8
SIZE
  6
CONTINUOUS
 62
    30
 10
-280.80390799999992
 20
157.0
 30
0.0
 40
6.0
  0
CIRCLE
  5
4A4
  8
SIZE
  6
CONTINUOUS
 62
    30
 10
-405.29858899999999
 20
165.0
 30
0.0
 40
6.0
  0
CIRCLE
  5
4A5
  8
SIZE
  6
CONTINUOUS
 62
    30
 10
-553.68774599999995
 20
185.0
 30
0.0
 40
6.0
  0
LINE
  5
4A6
  8
NOTE
  6
CONTINUOUS
 62
     4
 10
-26.986352
 20
-114.52571399999999
 30
0.0
 11
-1.472642
 21
-83.719048999999998
 31
0.0
  0
LINE
  5
4A7
  8
NOTE
  6
CONTINUOUS
 62
     4
 10
-1.472642
 20
-83.719048999999998
 30
0.0
 11
-8.1648300000000003
 21
-123.155258
 31
0.0
  0
LINE
  5
4A8
  8
NOTE
  6
CONTINUOUS
 62
     4
 10
-22.604842000000001
 20
-198.0003199999999
 30
0.0
 11
0.0
 21
-165.0
 31
0.0
  0
LINE
  5
4A9
  8
NOTE
  6
CONTINUOUS
 62
     4
 10
0.0
 20
-165.0
 30
0.0
 11
-3.0762070000000001
 21
-204.88153600000001
 31
0.0
  0
LINE
  5
4AA
  8
SIZE
  6
CONTINUOUS
 62
    30
 10
0.0
 20
235.0182299999999
 30
0.0
 11
0.0
 21
490.64746499999978
 31
0.0
  0
LINE
  5
4AB
  8
SIZE
  6
CONTINUOUS
 62
    30
 10
135.0
 20
143.716532
 30
0.0
 11
135.0
 21
490.64746499999978
 31
0.0
  0
LINE
  5
4AC
  8
SIZE
  6
CONTINUOUS
 62
    30
 10
-12.0
 20
470.64746500000001
 30
0.0
 11
-24.0
 21
470.64746500000001
 31
0.0
  0
LINE
  5
4AD
  8
SIZE
  6
CONTINUOUS
 62
    30
 10
147.0
 20
470.64746500000001
 30
0.0
 11
159.0
 21
470.64746500000001
 31
0.0
  0
LINE
  5
4AE
  8
SIZE
  6
CONTINUOUS
 62
    30
 10
0.0
 20
470.64746500000001
 30
0.0
 11
135.0
 21
470.64746500000001
 31
0.0
  0
LINE
  5
4AF
  8
SIZE
  6
CONTINUOUS
 62
    30
 10
10.0
 20
204.22819699999991
 30
0.0
 11
10.0
 21
294.19392599999992
 31
0.0
  0
LINE
  5
4B0
  8
SIZE
  6
CONTINUOUS
 62
    30
 10
0.0
 20
195.67540799999981
 30
0.0
 11
0.0
 21
294.19392599999992
 31
0.0
  0
LINE
  5
4B1
  8
SIZE
  6
CONTINUOUS
 62
    30
 10
22.0
 20
274.19392599999992
 30
0.0
 11
34.0
 21
274.19392599999992
 31
0.0
  0
LINE
  5
4B2
  8
SIZE
  6
CONTINUOUS
 62
    30
 10
-12.0
 20
274.19392599999992
 30
0.0
 11
-24.0
 21
274.19392599999992
 31
0.0
  0
LINE
  5
4B3
  8
SIZE
  6
CONTINUOUS
 62
    30
 10
-172.08228199999991
 20
274.19392599999992
 30
0.0
 11
0.0
 21
274.19392599999992
 31
0.0
  0
LINE
  5
4B4
  8
SIZE
  6
CONTINUOUS
 62
    30
 10
10.0
 20
274.19392599999992
 30
0.0
 11
0.0
 21
274.19392599999992
 31
0.0
  0
LINE
  5
4B5
  8
SIZE
  6
CONTINUOUS
 62
    30
 10
10.0
 20
274.19392599999992
 30
0.0
 11
0.0
 21
274.19392599999992
 31
0.0
  0
LINE
  5
4B6
  8
SIZE
  6
CONTINUOUS
 62
    30
 10
60.0
 20
170.3342989999999
 30
0.0
 11
60.0
 21
419.94522000000001
 31
0.0
  0
LINE
  5
4B7
  8
SIZE
  6
CONTINUOUS
 62
    30
 10
0.0
 20
224.55567400000001
 30
0.0
 11
0.0
 21
419.94522000000001
 31
0.0
  0
LINE
  5
4B8
  8
SIZE
  6
CONTINUOUS
 62
    30
 10
72.0
 20
399.94522000000001
 30
0.0
 11
84.0
 21
399.94522000000001
 31
0.0
  0
LINE
  5
4B9
  8
SIZE
  6
CONTINUOUS
 62
    30
 10
-12.0
 20
399.94522000000001
 30
0.0
 11
-24.0
 21
399.94522000000001
 31
0.0
  0
LINE
  5
4BA
  8
SIZE
  6
CONTINUOUS
 62
    30
 10
-169.74251999999979
 20
399.94522000000001
 30
0.0
 11
0.0
 21
399.94522000000001
 31
0.0
  0
LINE
  5
4BB
  8
SIZE
  6
CONTINUOUS
 62
    30
 10
60.0
 20
399.94522000000001
 30
0.0
 11
0.0
 21
399.94522000000001
 31
0.0
  0
LINE
  5
4BC
  8
SIZE
  6
CONTINUOUS
 62
    30
 10
60.0
 20
399.94522000000001
 30
0.0
 11
0.0
 21
399.94522000000001
 31
0.0
  0
LINE
  5
4BD
  8
DETAIL
  6
CONTINUOUS
 62
     5
 10
131.14087000000001
 20
99.665324999999996
 30
0.0
 11
129.863528
 21
110.6322939999998
 31
0.0
  0
LINE
  5
4BE
  8
DETAIL
  6
CONTINUOUS
 62
     5
 10
129.863528
 20
110.6322939999998
 30
0.0
 11
126.0805889999998
 21
121.177809
 31
0.0
  0
LINE
  5
4BF
  8
DETAIL
  6
CONTINUOUS
 62
     5
 10
126.0805889999998
 20
121.177809
 30
0.0
 11
119.93743000000001
 21
130.89661100000001
 31
0.0
  0
LINE
  5
4C0
  8
DETAIL
  6
CONTINUOUS
 62
     5
 10
119.93743000000001
 20
130.89661100000001
 30
0.0
 11
111.67012800000001
 21
139.415212
 31
0.0
  0
LINE
  5
4C1
  8
DETAIL
  6
CONTINUOUS
 62
     5
 10
111.67012800000001
 20
139.415212
 30
0.0
 11
101.5963919999999
 21
146.40624700000001
 31
0.0
  0
LINE
  5
4C2
  8
DETAIL
  6
CONTINUOUS
 62
     5
 10
101.5963919999999
 20
146.40624700000001
 30
0.0
 11
90.103348999999994
 21
151.601055
 31
0.0
  0
LINE
  5
4C3
  8
DETAIL
  6
CONTINUOUS
 62
     5
 10
90.103348999999994
 20
151.601055
 30
0.0
 11
77.632671000000002
 21
154.80000200000001
 31
0.0
  0
LINE
  5
4C4
  8
DETAIL
  6
CONTINUOUS
 62
     5
 10
77.632671000000002
 20
154.80000200000001
 30
0.0
 11
64.663599000000005
 21
155.880154
 31
0.0
  0
LINE
  5
4C5
  8
DETAIL
  6
CONTINUOUS
 62
     5
 10
131.14087000000001
 20
99.665324999999996
 30
0.0
 11
129.863528
 21
110.6322939999998
 31
0.0
  0
LINE
  5
4C6
  8
DETAIL
  6
CONTINUOUS
 62
     5
 10
129.863528
 20
110.6322939999998
 30
0.0
 11
126.0805889999998
 21
121.177809
 31
0.0
  0
LINE
  5
4C7
  8
DETAIL
  6
CONTINUOUS
 62
     5
 10
126.0805889999998
 20
121.177809
 30
0.0
 11
119.93743000000001
 21
130.89661100000001
 31
0.0
  0
LINE
  5
4C8
  8
DETAIL
  6
CONTINUOUS
 62
     5
 10
119.93743000000001
 20
130.89661100000001
 30
0.0
 11
111.67012800000001
 21
139.415212
 31
0.0
  0
LINE
  5
4C9
  8
DETAIL
  6
CONTINUOUS
 62
     5
 10
111.67012800000001
 20
139.415212
 30
0.0
 11
101.5963919999999
 21
146.40624700000001
 31
0.0
  0
LINE
  5
4CA
  8
DETAIL
  6
CONTINUOUS
 62
     5
 10
101.5963919999999
 20
146.40624700000001
 30
0.0
 11
90.103348999999994
 21
151.601055
 31
0.0
  0
LINE
  5
4CB
  8
DETAIL
  6
CONTINUOUS
 62
     5
 10
90.103348999999994
 20
151.601055
 30
0.0
 11
77.632671000000002
 21
154.80000200000001
 31
0.0
  0
LINE
  5
4CC
  8
DETAIL
  6
CONTINUOUS
 62
     5
 10
77.632671000000002
 20
154.80000200000001
 30
0.0
 11
64.663599000000005
 21
155.880154
 31
0.0
  0
LINE
  5
4CD
  8
DETAIL
  6
CONTINUOUS
 62
     5
 10
65.159109000000001
 20
133.1760899999999
 30
0.0
 11
73.140077000000005
 21
132.53218999999979
 31
0.0
  0
LINE
  5
4CE
  8
DETAIL
  6
CONTINUOUS
 62
     5
 10
73.140077000000005
 20
132.53218999999979
 30
0.0
 11
80.814339999999987
 21
130.625235
 31
0.0
  0
LINE
  5
4CF
  8
DETAIL
  6
CONTINUOUS
 62
     5
 10
80.814339999999987
 20
130.625235
 30
0.0
 11
87.886981999999975
 21
127.528507
 31
0.0
  0
LINE
  5
4D0
  8
DETAIL
  6
CONTINUOUS
 62
     5
 10
87.886981999999975
 20
127.528507
 30
0.0
 11
94.086204000000009
 21
123.3610139999999
 31
0.0
  0
LINE
  5
4D1
  8
DETAIL
  6
CONTINUOUS
 62
     5
 10
94.086204000000009
 20
123.3610139999999
 30
0.0
 11
99.173773999999995
 21
118.28290800000001
 31
0.0
  0
LINE
  5
4D2
  8
DETAIL
  6
CONTINUOUS
 62
     5
 10
99.173773999999995
 20
118.28290800000001
 30
0.0
 11
102.95417999999999
 21
112.4893399999999
 31
0.0
  0
LINE
  5
4D3
  8
DETAIL
  6
CONTINUOUS
 62
     5
 10
102.95417999999999
 20
112.4893399999999
 30
0.0
 11
105.28214199999979
 21
106.2029509999999
 31
0.0
  0
LINE
  5
4D4
  8
DETAIL
  6
CONTINUOUS
 62
     5
 10
105.28214199999979
 20
106.2029509999999
 30
0.0
 11
106.06819899999979
 21
99.665324999999996
 31
0.0
  0
LINE
  5
4D5
  8
DETAIL
  6
CONTINUOUS
 62
     5
 10
64.663599000000005
 20
154.120317
 30
0.0
 11
77.632671000000002
 21
153.07398000000001
 31
0.0
  0
LINE
  5
4D6
  8
DETAIL
  6
CONTINUOUS
 62
     5
 10
77.632671000000002
 20
153.07398000000001
 30
0.0
 11
90.103348999999994
 21
149.9751779999998
 31
0.0
  0
LINE
  5
4D7
  8
DETAIL
  6
CONTINUOUS
 62
     5
 10
90.103348999999994
 20
149.9751779999998
 30
0.0
 11
101.5963919999999
 21
144.94299699999991
 31
0.0
  0
LINE
  5
4D8
  8
DETAIL
  6
CONTINUOUS
 62
     5
 10
101.5963919999999
 20
144.94299699999991
 30
0.0
 11
111.67012800000001
 21
138.17081999999999
 31
0.0
  0
LINE
  5
4D9
  8
DETAIL
  6
CONTINUOUS
 62
     5
 10
111.67012800000001
 20
138.17081999999999
 30
0.0
 11
119.93743000000001
 21
129.91889799999981
 31
0.0
  0
LINE
  5
4DA
  8
DETAIL
  6
CONTINUOUS
 62
     5
 10
119.93743000000001
 20
129.91889799999981
 30
0.0
 11
126.0805889999998
 21
120.50434899999991
 31
0.0
  0
LINE
  5
4DB
  8
DETAIL
  6
CONTINUOUS
 62
     5
 10
126.0805889999998
 20
120.50434899999991
 30
0.0
 11
129.863528
 21
110.2889669999999
 31
0.0
  0
LINE
  5
4DC
  8
DETAIL
  6
CONTINUOUS
 62
     5
 10
129.863528
 20
110.2889669999999
 30
0.0
 11
131.14087000000001
 21
99.665324999999996
 31
0.0
  0
ARC
  5
4DD
  8
DETAIL
  6
CONTINUOUS
 62
     5
 10
97.068200000000004
 20
-61.363634999999981
 30
0.0
 40
6.2386369999999989
 50
309.60198300000002
 51
50.398035
  0
POINT
  5
4DE
  8
DETAIL
  6
CONTINUOUS
 62
     5
 10
100.750018
 20
-61.363634999999981
 30
0.0
 50
180.0
  0
LINE
  5
4DF
  8
DETAIL
  6
CONTINUOUS
 62
     5
 10
100.750018
 20
-56.556817000000002
 30
0.0
 11
100.750018
 21
-66.170452999999995
 31
0.0
  0
LINE
  5
4E0
  8
DETAIL
  6
CONTINUOUS
 62
     5
 10
100.750018
 20
-66.170452999999995
 30
0.0
 11
101.045019
 21
-66.170452999999995
 31
0.0
  0
LINE
  5
4E1
  8
DETAIL
  6
CONTINUOUS
 62
     5
 10
100.750018
 20
-56.556817000000002
 30
0.0
 11
101.045019
 21
-56.556817000000002
 31
0.0
  0
LINE
  5
4E2
  8
DETAIL
  6
CONTINUOUS
 62
     5
 10
101.045019
 20
-66.170452999999995
 30
0.0
 11
101.045019
 21
-56.556817000000002
 31
0.0
  0
LINE
  5
4E3
  8
DETAIL
  6
CONTINUOUS
 62
     5
 10
65.159109000000001
 20
-155.880156
 30
0.0
 11
78.128181000000012
 21
-154.8000039999998
 31
0.0
  0
LINE
  5
4E4
  8
DETAIL
  6
CONTINUOUS
 62
     5
 10
78.128181000000012
 20
-154.8000039999998
 30
0.0
 11
90.598859000000004
 21
-151.60105699999991
 31
0.0
  0
LINE
  5
4E5
  8
DETAIL
  6
CONTINUOUS
 62
     5
 10
90.598859000000004
 20
-151.60105699999991
 30
0.0
 11
102.091902
 21
-146.406249
 31
0.0
  0
LINE
  5
4E6
  8
DETAIL
  6
CONTINUOUS
 62
     5
 10
102.091902
 20
-146.406249
 30
0.0
 11
112.1656379999999
 21
-139.41521299999991
 31
0.0
  0
LINE
  5
4E7
  8
DETAIL
  6
CONTINUOUS
 62
     5
 10
112.1656379999999
 20
-139.41521299999991
 30
0.0
 11
120.43293899999991
 21
-130.896612
 31
0.0
  0
LINE
  5
4E8
  8
DETAIL
  6
CONTINUOUS
 62
     5
 10
120.43293899999991
 20
-130.896612
 30
0.0
 11
126.5760989999999
 21
-121.17780999999989
 31
0.0
  0
LINE
  5
4E9
  8
DETAIL
  6
CONTINUOUS
 62
     5
 10
126.5760989999999
 20
-121.17780999999989
 30
0.0
 11
130.3590369999998
 21
-110.6322959999999
 31
0.0
  0
LINE
  5
4EA
  8
DETAIL
  6
CONTINUOUS
 62
     5
 10
130.3590369999998
 20
-110.6322959999999
 30
0.0
 11
131.6363799999998
 21
-99.665327000000005
 31
0.0
  0
LINE
  5
4EB
  8
DETAIL
  6
CONTINUOUS
 62
     5
 10
65.159109000000001
 20
-154.12031899999999
 30
0.0
 11
78.128181000000012
 21
-153.0739819999998
 31
0.0
  0
LINE
  5
4EC
  8
DETAIL
  6
CONTINUOUS
 62
     5
 10
78.128181000000012
 20
-153.0739819999998
 30
0.0
 11
90.598859000000004
 21
-149.97517899999991
 31
0.0
  0
LINE
  5
4ED
  8
DETAIL
  6
CONTINUOUS
 62
     5
 10
90.598859000000004
 20
-149.97517899999991
 30
0.0
 11
102.091902
 21
-144.94299799999979
 31
0.0
  0
LINE
  5
4EE
  8
DETAIL
  6
CONTINUOUS
 62
     5
 10
102.091902
 20
-144.94299799999979
 30
0.0
 11
112.1656379999999
 21
-138.17082099999999
 31
0.0
  0
LINE
  5
4EF
  8
DETAIL
  6
CONTINUOUS
 62
     5
 10
112.1656379999999
 20
-138.17082099999999
 30
0.0
 11
120.43293899999991
 21
-129.91889900000001
 31
0.0
  0
LINE
  5
4F0
  8
DETAIL
  6
CONTINUOUS
 62
     5
 10
120.43293899999991
 20
-129.91889900000001
 30
0.0
 11
126.5760989999999
 21
-120.50435
 31
0.0
  0
LINE
  5
4F1
  8
DETAIL
  6
CONTINUOUS
 62
     5
 10
126.5760989999999
 20
-120.50435
 30
0.0
 11
130.3590369999998
 21
-110.28896899999999
 31
0.0
  0
LINE
  5
4F2
  8
DETAIL
  6
CONTINUOUS
 62
     5
 10
130.3590369999998
 20
-110.28896899999999
 30
0.0
 11
131.6363799999998
 21
-99.665327000000005
 31
0.0
  0
LINE
  5
4F3
  8
DETAIL
  6
CONTINUOUS
 62
     5
 10
65.159109000000001
 20
-133.17609099999979
 30
0.0
 11
73.140077000000005
 21
-132.5321909999999
 31
0.0
  0
LINE
  5
4F4
  8
DETAIL
  6
CONTINUOUS
 62
     5
 10
73.140077000000005
 20
-132.5321909999999
 30
0.0
 11
80.814339999999987
 21
-130.625236
 31
0.0
  0
LINE
  5
4F5
  8
DETAIL
  6
CONTINUOUS
 62
     5
 10
80.814339999999987
 20
-130.625236
 30
0.0
 11
87.886981999999975
 21
-127.528509
 31
0.0
  0
LINE
  5
4F6
  8
DETAIL
  6
CONTINUOUS
 62
     5
 10
87.886981999999975
 20
-127.528509
 30
0.0
 11
94.086204000000009
 21
-123.36101499999999
 31
0.0
  0
LINE
  5
4F7
  8
DETAIL
  6
CONTINUOUS
 62
     5
 10
94.086204000000009
 20
-123.36101499999999
 30
0.0
 11
99.173773999999995
 21
-118.28291
 31
0.0
  0
LINE
  5
4F8
  8
DETAIL
  6
CONTINUOUS
 62
     5
 10
99.173773999999995
 20
-118.28291
 30
0.0
 11
102.95417999999999
 21
-112.489341
 31
0.0
  0
LINE
  5
4F9
  8
DETAIL
  6
CONTINUOUS
 62
     5
 10
102.95417999999999
 20
-112.489341
 30
0.0
 11
105.28214199999979
 21
-106.202952
 31
0.0
  0
LINE
  5
4FA
  8
DETAIL
  6
CONTINUOUS
 62
     5
 10
105.28214199999979
 20
-106.202952
 30
0.0
 11
106.06819899999979
 21
-99.665327000000005
 31
0.0
  0
LINE
  5
4FB
  8
NOTE
  6
CONTINUOUS
 62
     4
 10
20.524498000000001
 20
-206.639206
 30
0.0
 11
9.8036030000000007
 21
-168.102699
 31
0.0
  0
LINE
  5
4FC
  8
NOTE
  6
CONTINUOUS
 62
     4
 10
9.8036030000000007
 20
-168.102699
 30
0.0
 11
38.35642399999999
 21
-196.11584500000001
 31
0.0
  0
LINE
  5
4FD
  8
NOTE
  6
CONTINUOUS
 62
     4
 10
29.803602999999999
 20
-168.102699
 30
0.0
 11
-10.19639699999999
 21
-168.102699
 31
0.0
  0
LINE
  5
4FE
  8
NOTE
  6
CONTINUOUS
 62
     4
 10
9.8036030000000007
 20
-148.1026989999998
 30
0.0
 11
9.8036030000000007
 21
-188.102699
 31
0.0
  0
LINE
  5
4FF
  8
NOTE
  6
CONTINUOUS
 62
     4
 10
0.0
 20
-177.0
 30
0.0
 11
0.0
 21
-137.0
 31
0.0
  0
LINE
  5
500
  8
NOTE
  6
CONTINUOUS
 62
     4
 10
20.0
 20
-157.0
 30
0.0
 11
-20.0
 21
-157.0
 31
0.0
  0
LINE
  5
501
  8
NOTE
  6
CONTINUOUS
 62
     4
 10
0.0
 20
-100.0
 30
0.0
 11
0.0
 21
-60.0
 31
0.0
  0
LINE
  5
502
  8
NOTE
  6
CONTINUOUS
 62
     4
 10
20.0
 20
-80.0
 30
0.0
 11
-20.0
 21
-80.0
 31
0.0
  0
LINE
  5
503
  8
DETAIL
  6
CONTINUOUS
 62
     5
 10
96.669757000000004
 20
98.335794000000007
 30
0.0
 11
99.054215000000013
 21
93.169865999999985
 31
0.0
  0
LINE
  5
504
  8
DETAIL
  6
CONTINUOUS
 62
     5
 10
99.054215000000013
 20
93.169865999999985
 30
0.0
 11
99.585416000000023
 21
91.012998999999979
 31
0.0
  0
LINE
  5
505
  8
DETAIL
  6
CONTINUOUS
 62
     5
 10
99.585416000000023
 20
91.012998999999979
 30
0.0
 11
99.522918999999959
 21
89.238827000000001
 31
0.0
  0
LINE
  5
506
  8
DETAIL
  6
CONTINUOUS
 62
     5
 10
99.522918999999959
 20
89.238827000000001
 30
0.0
 11
99.522918999999959
 21
89.238827000000001
 31
0.0
  0
LINE
  5
507
  8
DETAIL
  6
CONTINUOUS
 62
     5
 10
99.522918999999959
 20
89.238827000000001
 30
0.0
 11
99.013952000000003
 21
88.166733999999977
 31
0.0
  0
LINE
  5
508
  8
DETAIL
  6
CONTINUOUS
 62
     5
 10
99.013952000000003
 20
88.166733999999977
 30
0.0
 11
98.135845000000003
 21
87.332587000000004
 31
0.0
  0
LINE
  5
509
  8
DETAIL
  6
CONTINUOUS
 62
     5
 10
98.135845000000003
 20
87.332587000000004
 30
0.0
 11
95.483146000000005
 21
86.242163000000005
 31
0.0
  0
LINE
  5
50A
  8
DETAIL
  6
CONTINUOUS
 62
     5
 10
95.483146000000005
 20
86.242163000000005
 30
0.0
 11
91.986698000000004
 21
85.695618999999979
 31
0.0
  0
LINE
  5
50B
  8
DETAIL
  6
CONTINUOUS
 62
     5
 10
91.986698000000004
 20
85.695618999999979
 30
0.0
 11
88.068374000000006
 21
85.421013000000002
 31
0.0
  0
LINE
  5
50C
  8
NOTE
  6
CONTINUOUS
 62
     4
 10
0.0
 20
60.0
 30
0.0
 11
0.0
 21
100.0
 31
0.0
  0
LINE
  5
50D
  8
NOTE
  6
CONTINUOUS
 62
     4
 10
20.0
 20
80.0
 30
0.0
 11
-20.0
 21
80.0
 31
0.0
  0
LINE
  5
50E
  8
SIZE
  6
CONTINUOUS
 62
    30
 10
10.0
 20
190.54373799999999
 30
0.0
 11
10.0
 21
294.19392599999992
 31
0.0
  0
LINE
  5
50F
  8
SIZE
  6
CONTINUOUS
 62
    30
 10
20.0
 20
192.02284900000001
 30
0.0
 11
20.0
 21
294.19392599999992
 31
0.0
  0
LINE
  5
510
  8
SIZE
  6
CONTINUOUS
 62
    30
 10
-2.0
 20
274.19392599999992
 30
0.0
 11
-14.0
 21
274.19392599999992
 31
0.0
  0
LINE
  5
511
  8
SIZE
  6
CONTINUOUS
 62
    30
 10
32.0
 20
274.19392599999992
 30
0.0
 11
44.0
 21
274.19392599999992
 31
0.0
  0
LINE
  5
512
  8
SIZE
  6
CONTINUOUS
 62
    30
 10
10.0
 20
274.19392599999992
 30
0.0
 11
20.0
 21
274.19392599999992
 31
0.0
  0
LINE
  5
513
  8
SIZE
  6
CONTINUOUS
 62
    30
 10
10.0
 20
274.19392599999992
 30
0.0
 11
20.0
 21
274.19392599999992
 31
0.0
  0
LINE
  5
514
  8
NOTE
  6
CONTINUOUS
 62
     4
 10
0.0
 20
137.0
 30
0.0
 11
0.0
 21
177.0
 31
0.0
  0
LINE
  5
515
  8
NOTE
  6
CONTINUOUS
 62
     4
 10
20.0
 20
157.0
 30
0.0
 11
-20.0
 21
157.0
 31
0.0
  0
TEXT
  5
516
  8
SIZE
  6
CONTINUOUS
 62
    30
 10
-144.74251999999979
 20
424.94522000000001
 30
0.0
 40
64.0
  1
60
 41
0.9
  0
TEXT
  5
517
  8
SIZE
  6
CONTINUOUS
 62
    30
 10
-147.08228199999991
 20
299.19392599999992
 30
0.0
 40
64.0
  1
10
 41
0.9
  0
CIRCLE
  5
518
  8
SIZE
  6
CONTINUOUS
 62
    30
 10
20.0
 20
274.19392599999992
 30
0.0
 40
6.0
  0
LINE
  5
519
  8
SIZE
  6
CONTINUOUS
 62
    30
 10
20.0
 20
274.19392599999992
 30
0.0
 11
32.0
 21
274.19392599999992
 31
0.0
  0
CIRCLE
  5
51A
  8
SIZE
  6
CONTINUOUS
 62
    30
 10
10.0
 20
274.19392599999992
 30
0.0
 40
6.0
  0
LINE
  5
51B
  8
SIZE
  6
CONTINUOUS
 62
    30
 10
10.0
 20
274.19392599999992
 30
0.0
 11
-2.0
 21
274.19392599999992
 31
0.0
  0
CIRCLE
  5
51C
  8
SIZE
  6
CONTINUOUS
 62
    30
 10
0.0
 20
274.19392599999992
 30
0.0
 40
6.0
  0
LINE
  5
51D
  8
SIZE
  6
CONTINUOUS
 62
    30
 10
0.0
 20
274.19392599999992
 30
0.0
 11
-12.0
 21
274.19392599999992
 31
0.0
  0
CIRCLE
  5
51E
  8
SIZE
  6
CONTINUOUS
 62
    30
 10
10.0
 20
274.19392599999992
 30
0.0
 40
6.0
  0
LINE
  5
51F
  8
SIZE
  6
CONTINUOUS
 62
    30
 10
10.0
 20
274.19392599999992
 30
0.0
 11
22.0
 21
274.19392599999992
 31
0.0
  0
TEXT
  5
520
  8
SIZE
  6
CONTINUOUS
 62
    30
 10
58.975696999999997
 20
299.19392599999992
 30
0.0
 40
64.0
  1
10
 41
0.9
  0
CIRCLE
  5
521
  8
SIZE
  6
CONTINUOUS
 62
    30
 10
0.0
 20
399.94522000000001
 30
0.0
 40
6.0
  0
LINE
  5
522
  8
SIZE
  6
CONTINUOUS
 62
    30
 10
0.0
 20
399.94522000000001
 30
0.0
 11
-12.0
 21
399.94522000000001
 31
0.0
  0
CIRCLE
  5
523
  8
SIZE
  6
CONTINUOUS
 62
    30
 10
60.0
 20
399.94522000000001
 30
0.0
 40
6.0
  0
LINE
  5
524
  8
SIZE
  6
CONTINUOUS
 62
    30
 10
60.0
 20
399.94522000000001
 30
0.0
 11
72.0
 21
399.94522000000001
 31
0.0
  0
TEXT
  5
525
  8
SIZE
  6
CONTINUOUS
 62
    30
 10
-1.071429
 20
495.64746500000001
 30
0.0
 40
64.0
  1
135
 41
0.9
  0
CIRCLE
  5
526
  8
SIZE
  6
CONTINUOUS
 62
    30
 10
0.0
 20
470.64746500000001
 30
0.0
 40
6.0
  0
LINE
  5
527
  8
SIZE
  6
CONTINUOUS
 62
    30
 10
0.0
 20
470.64746500000001
 30
0.0
 11
-12.0
 21
470.64746500000001
 31
0.0
  0
CIRCLE
  5
528
  8
SIZE
  6
CONTINUOUS
 62
    30
 10
135.0
 20
470.64746500000001
 30
0.0
 40
6.0
  0
LINE
  5
529
  8
SIZE
  6
CONTINUOUS
 62
    30
 10
135.0
 20
470.64746500000001
 30
0.0
 11
147.0
 21
470.64746500000001
 31
0.0
  0
TEXT
  5
52A
  8
ETC
  6
CONTINUOUS
 62
    61
 10
361.61997936569878
 20
331.89024928559121
 30
0.0
 40
50.0
  1
EF-25US1
 41
0.9
  0
TEXT
  5
52B
  8
ETC
  6
CONTINUOUS
 62
    61
 10
243.3298599452564
 20
397.55848685742143
 30
0.0
 40
64.0
  1
産業扇
 41
0.9
  0
TEXT
  5
52C
  8
ETC
  6
CONTINUOUS
 62
    61
 10
245.2524780299569
 20
492.77743091993341
 30
0.0
 40
64.0
  1
EF-25US1_5
 41
0.9
  0
LINE
  5
52D
  8
BASIS
  6
CONTINUOUS
 62
     6
 39
50.0
 10
60.0
 20
0.0
 30
0.0
 11
60.0
 21
15.942328
 31
0.0
  0
LINE
  5
52E
  8
OUTLINE
  6
CONTINUOUS
 62
     3
 10
10.0
 20
0.0
 30
0.0
 11
10.00000399999999
 21
177.103048
 31
0.0
  0
LINE
  5
530
  8
OUTLINE
  6
CONTINUOUS
 62
     3
 10
19.971499999999981
 20
166.193522
 30
0.0
 11
20.028500000000001
 21
-166.193522
 31
0.0
  0
LINE
  5
531
  8
OUTLINE
  6
CONTINUOUS
 62
     3
 10
127.545472
 20
45.102260999999991
 30
0.0
 11
127.545472
 21
-53.973593999999991
 31
0.0
  0
LINE
  5
532
  8
OUTLINE
  6
CONTINUOUS
 62
     3
 10
135.0
 20
4.2258519999999979
 30
0.0
 11
135.0
 21
0.0
 31
0.0
  0
LINE
  5
533
  8
BASIS
  6
DASHDOT
 62
     6
 10
60.0
 20
-116.292524
 30
0.0
 11
60.0
 21
116.292524
 31
0.0
  0
LINE
  5
534
  8
OUTLINE
  6
CONTINUOUS
 62
     3
 10
0.0
 20
-185.0
 30
0.0
 11
0.0
 21
185.0
 31
0.0
  0
ARC
  5
535
  8
OUTLINE
  6
CONTINUOUS
 62
     3
 39
50.0
 10
130.75878399999991
 20
-90.818707000000003
 30
0.0
 40
2.3707790000000002
 50
296.264363
 51
7.4491039999999984
  0
ARC
  5
536
  8
OUTLINE
  6
CONTINUOUS
 62
     3
 39
50.0
 10
127.24768299999999
 20
-58.544480000000007
 30
0.0
 40
4.5805749999999987
 50
16.914051999999991
 51
86.272492999999983
  0
ARC
  5
537
  8
OUTLINE
  6
CONTINUOUS
 62
     3
 39
50.0
 10
2.0058789999999922
 20
-181.58055999999999
 30
0.0
 40
3.0292560000000002
 50
274.52453999999989
 51
307.3421419999998
  0
LINE
  5
538
  8
OUTLINE
  6
CONTINUOUS
 62
     3
 10
26.15356700000001
 20
-154.1174419999999
 30
0.0
 11
65.159109000000001
 21
-154.12031899999999
 31
0.0
  0
LINE
  5
539
  8
OUTLINE
  6
CONTINUOUS
 62
     3
 10
25.13083999999996
 20
-155.8772789999999
 30
0.0
 11
65.159109000000001
 21
-155.880156
 31
0.0
  0
LINE
  5
53A
  8
OUTLINE
  6
CONTINUOUS
 62
     3
 10
9.7840583537684882
 20
-180.24874944024759
 30
0.0
 11
10.0
 21
0.0
 31
0.0
  0
ARC
  5
53B
  8
OUTLINE
  6
CONTINUOUS
 62
     3
 10
17.471682999999981
 20
-166.23693899999981
 30
0.0
 40
2.5568169999999979
 50
270.0
 51
0.000037
  0
ARC
  5
53C
  8
OUTLINE
  6
CONTINUOUS
 62
     3
 10
2.0650430000000011
 20
-182.31298000000001
 30
0.0
 40
2.4435769999999981
 50
316.69768399999992
 51
345.769946
  0
LINE
  5
53D
  8
OUTLINE
  6
CONTINUOUS
 62
     3
 10
7.3128492569457171
 20
-182.74558862379359
 30
0.0
 11
4.3978450000000171
 21
-182.77915899999991
 31
0.0
  0
ARC
  5
53E
  8
OUTLINE
  6
CONTINUOUS
 62
     3
 10
13.088351999999979
 20
-172.0384489999999
 30
0.0
 40
3.3053809999999979
 50
95.281421000000009
 51
175.1660479999999
  0
LINE
  5
53F
  8
OUTLINE
  6
CONTINUOUS
 62
     3
 10
0.0
 20
-185.0
 30
0.0
 11
2.2448449999999962
 21
-184.60037500000001
 31
0.0
  0
LINE
  5
540
  8
OUTLINE
  6
CONTINUOUS
 62
     3
 10
20.017203999999989
 20
-150.7636429999998
 30
0.0
 11
20.017203999999989
 21
-119.756958
 31
0.0
  0
LINE
  5
541
  8
OUTLINE
  6
CONTINUOUS
 62
     3
 10
23.08538499999996
 20
-151.049261
 30
0.0
 11
23.08538499999996
 21
-119.756958
 31
0.0
  0
ARC
  5
542
  8
OUTLINE
  6
CONTINUOUS
 62
     3
 10
26.15356700000001
 20
-151.049261
 30
0.0
 40
3.0681820000000002
 50
180.0
 51
270.0
  0
LINE
  5
543
  8
OUTLINE
  6
CONTINUOUS
 62
     3
 10
20.017203999999989
 20
-137.35011
 30
0.0
 11
23.08538499999996
 21
-137.35011
 31
0.0
  0
LINE
  5
544
  8
OUTLINE
  6
CONTINUOUS
 62
     3
 10
20.017203999999989
 20
-140.19887199999999
 30
0.0
 11
23.08538499999996
 21
-140.19887199999999
 31
0.0
  0
ARC
  5
545
  8
OUTLINE
  6
CONTINUOUS
 62
     3
 10
25.13083999999996
 20
-150.7636429999998
 30
0.0
 40
5.1136359999999987
 50
180.0
 51
270.0
  0
LINE
  5
546
  8
OUTLINE
  6
CONTINUOUS
 62
     3
 10
17.52274199999999
 20
-93.576660000000004
 30
0.0
 11
12.40911599999998
 21
-93.576660000000004
 31
0.0
  0
ARC
  5
547
  8
OUTLINE
  6
CONTINUOUS
 62
     3
 10
17.51162399999998
 20
-96.160325999999998
 30
0.0
 40
2.5836830000000002
 50
14.19833399999999
 51
89.753442000000007
  0
LINE
  5
548
  8
OUTLINE
  6
CONTINUOUS
 62
     3
 10
20.017203999999989
 20
-119.756958
 30
0.0
 11
23.08538499999996
 21
-119.756958
 31
0.0
  0
ARC
  5
549
  8
OUTLINE
  6
CONTINUOUS
 62
     3
 10
12.40911599999998
 20
-91.019835999999998
 30
0.0
 40
2.5568169999999979
 50
190.25302400000001
 51
270.0
  0
LINE
  5
54A
  8
OUTLINE
  6
CONTINUOUS
 62
     3
 10
133.109555
 20
-90.511346000000003
 30
0.0
 11
132.95457899999991
 21
-6.5126850000000003
 31
0.0
  0
LINE
  5
54B
  8
OUTLINE
  6
CONTINUOUS
 62
     3
 10
131.636381
 20
-90.818179999999998
 30
0.0
 11
131.63011299999999
 21
-57.211821999999998
 31
0.0
  0
LINE
  5
54C
  8
OUTLINE
  6
CONTINUOUS
 62
     3
 10
90.598859000000004
 20
-149.97517899999991
 30
0.0
 11
102.091902
 21
-144.94299799999979
 31
0.0
  0
LINE
  5
54D
  8
OUTLINE
  6
CONTINUOUS
 62
     3
 10
90.598859000000004
 20
-151.60105699999991
 30
0.0
 11
102.091902
 21
-146.406249
 31
0.0
  0
LINE
  5
54E
  8
OUTLINE
  6
CONTINUOUS
 62
     3
 10
62.090912000000003
 20
-155.880156
 30
0.0
 11
62.090912000000003
 21
-156.477273
 31
0.0
  0
ARC
  5
54F
  8
OUTLINE
  6
CONTINUOUS
 62
     3
 10
60.045466000000019
 20
-156.477273
 30
0.0
 40
2.0454539999999981
 50
270.0
 51
359.99998299999982
  0
LINE
  5
550
  8
OUTLINE
  6
CONTINUOUS
 62
     3
 10
65.159109000000001
 20
-154.12031899999999
 30
0.0
 11
78.128181000000026
 21
-153.0739819999998
 31
0.0
  0
LINE
  5
551
  8
OUTLINE
  6
CONTINUOUS
 62
     3
 10
78.128181000000026
 20
-153.0739819999998
 30
0.0
 11
90.598859000000004
 21
-149.97517899999991
 31
0.0
  0
LINE
  5
552
  8
OUTLINE
  6
CONTINUOUS
 62
     3
 10
65.159109000000001
 20
-155.880156
 30
0.0
 11
78.128181000000026
 21
-154.8000039999998
 31
0.0
  0
LINE
  5
553
  8
OUTLINE
  6
CONTINUOUS
 62
     3
 10
78.128181000000026
 20
-154.8000039999998
 30
0.0
 11
90.598859000000004
 21
-151.60105699999991
 31
0.0
  0
LINE
  5
554
  8
OUTLINE
  6
CONTINUOUS
 62
     3
 10
57.999997
 20
-155.880156
 30
0.0
 11
57.999997
 21
-156.477273
 31
0.0
  0
LINE
  5
555
  8
OUTLINE
  6
DASHED
 62
     3
 10
57.999997
 20
-155.880156
 30
0.0
 11
57.999997
 21
-155.880156
 31
0.0
  0
ARC
  5
556
  8
OUTLINE
  6
CONTINUOUS
 62
     3
 10
60.045466000000019
 20
-156.477273
 30
0.0
 40
2.0454539999999981
 50
180.0000189999999
 51
270.0
  0
LINE
  5
557
  8
OUTLINE
  6
DASHED
 62
     3
 10
131.636381
 20
-90.818179999999998
 30
0.0
 11
131.636381
 21
-92.045453000000023
 31
0.0
  0
LINE
  5
558
  8
OUTLINE
  6
CONTINUOUS
 62
     3
 10
131.63637999999989
 20
-99.665327000000005
 30
0.0
 11
131.636381
 21
-92.045453000000023
 31
0.0
  0
LINE
  5
559
  8
OUTLINE
  6
CONTINUOUS
 62
     3
 10
120.43293899999991
 20
-129.91889900000001
 30
0.0
 11
126.5760989999999
 21
-120.50435
 31
0.0
  0
LINE
  5
55A
  8
OUTLINE
  6
CONTINUOUS
 62
     3
 10
126.5760989999999
 20
-120.50435
 30
0.0
 11
130.3590369999998
 21
-110.28896899999999
 31
0.0
  0
LINE
  5
55B
  8
OUTLINE
  6
CONTINUOUS
 62
     3
 10
130.3590369999998
 20
-110.28896899999999
 30
0.0
 11
131.63637999999989
 21
-99.665327000000005
 31
0.0
  0
LINE
  5
55C
  8
OUTLINE
  6
CONTINUOUS
 62
     3
 10
120.43293899999991
 20
-130.896612
 30
0.0
 11
126.5760989999999
 21
-121.17780999999989
 31
0.0
  0
LINE
  5
55D
  8
OUTLINE
  6
CONTINUOUS
 62
     3
 10
126.5760989999999
 20
-121.17780999999989
 30
0.0
 11
130.3590369999998
 21
-110.6322959999999
 31
0.0
  0
LINE
  5
55E
  8
OUTLINE
  6
CONTINUOUS
 62
     3
 10
130.3590369999998
 20
-110.6322959999999
 30
0.0
 11
131.63637999999989
 21
-99.665327000000005
 31
0.0
  0
LINE
  5
55F
  8
OUTLINE
  6
CONTINUOUS
 62
     3
 10
102.091902
 20
-144.94299799999979
 30
0.0
 11
112.1656379999999
 21
-138.17082099999999
 31
0.0
  0
LINE
  5
560
  8
OUTLINE
  6
CONTINUOUS
 62
     3
 10
102.091902
 20
-146.406249
 30
0.0
 11
112.1656379999999
 21
-139.41521299999991
 31
0.0
  0
LINE
  5
561
  8
OUTLINE
  6
CONTINUOUS
 62
     3
 10
112.1656379999999
 20
-138.17082099999999
 30
0.0
 11
120.43293899999991
 21
-129.91889900000001
 31
0.0
  0
LINE
  5
562
  8
OUTLINE
  6
CONTINUOUS
 62
     3
 10
112.1656379999999
 20
-139.41521299999991
 30
0.0
 11
120.43293899999991
 21
-130.896612
 31
0.0
  0
LINE
  5
563
  8
OUTLINE
  6
CONTINUOUS
 62
     3
 10
133.869326
 20
-6.0553249999999981
 30
0.0
 11
132.95457899999991
 21
-6.5126850000000003
 31
0.0
  0
ARC
  5
564
  8
OUTLINE
  6
CONTINUOUS
 62
     3
 10
132.9545759999998
 20
-4.2258519999999979
 30
0.0
 40
2.045455
 50
296.565065
 51
359.99998299999982
  0
LINE
  5
565
  8
OUTLINE
  6
CONTINUOUS
 62
     3
 10
135.0
 20
-4.2258519999999979
 30
0.0
 11
135.0
 21
0.0
 31
0.0
  0
LINE
  5
566
  8
OUTLINE
  6
CONTINUOUS
 62
     3
 39
50.0
 10
131.79920000000001
 20
6.9746050000000004
 30
0.0
 11
131.90331
 21
69.684450999999996
 31
0.0
  0
ARC
  5
567
  8
OUTLINE
  6
CONTINUOUS
 62
     3
 39
50.0
 10
130.03592800000001
 20
69.763296999999994
 30
0.0
 40
1.8690450000000001
 50
357.58224000000001
 51
53.537382999999991
  0
ARC
  5
568
  8
OUTLINE
  6
CONTINUOUS
 62
     3
 39
50.0
 10
3.8121300000000242
 20
170.083471
 30
0.0
 40
9.3575769999999991
 50
48.603290999999999
 51
90.589791000000005
  0
ARC
  5
569
  8
OUTLINE
  6
CONTINUOUS
 62
     3
 39
50.0
 10
-0.5376249999999914
 20
179.789884
 30
0.0
 40
5.237781
 50
35.76034099999999
 51
84.108570999999984
  0
LINE
  5
56A
  8
OUTLINE
  6
CONTINUOUS
 62
     3
 10
57.943013000000001
 20
155.5850309999999
 30
0.0
 11
27.261202000000011
 21
155.5850309999999
 31
0.0
  0
LINE
  5
56B
  8
OUTLINE
  6
CONTINUOUS
 62
     3
 10
57.943013000000001
 20
155.5850309999999
 30
0.0
 11
26.161695000000009
 21
155.58790799999991
 31
0.0
  0
LINE
  5
56C
  8
OUTLINE
  6
CONTINUOUS
 62
     3
 10
26.218694000000031
 20
154.12319399999981
 30
0.0
 11
65.159109000000001
 21
154.120317
 31
0.0
  0
LINE
  5
56D
  8
OUTLINE
  6
CONTINUOUS
 62
     3
 10
23.150512999999989
 20
151.05501199999981
 30
0.0
 11
23.150512999999989
 21
119.76271
 31
0.0
  0
LINE
  5
56E
  8
OUTLINE
  6
CONTINUOUS
 62
     3
 10
20.025331999999992
 20
146.22792799999991
 30
0.0
 11
20.082331
 21
119.76271
 31
0.0
  0
LINE
  5
56F
  8
OUTLINE
  6
CONTINUOUS
 62
     3
 10
20.082331
 20
119.76271
 30
0.0
 11
23.150512999999989
 21
119.76271
 31
0.0
  0
LINE
  5
570
  8
OUTLINE
  6
CONTINUOUS
 62
     3
 10
12.72710699999999
 20
148.78475299999991
 30
0.0
 11
17.840731999999988
 21
148.78475299999991
 31
0.0
  0
ARC
  5
571
  8
OUTLINE
  6
CONTINUOUS
 62
     3
 10
26.218694000000031
 20
151.05501199999981
 30
0.0
 40
3.0681820000000002
 50
90.0
 51
180.0
  0
LINE
  5
572
  8
OUTLINE
  6
CONTINUOUS
 62
     3
 10
20.082331
 20
137.355861
 30
0.0
 11
23.150512999999989
 21
137.355861
 31
0.0
  0
LINE
  5
573
  8
OUTLINE
  6
CONTINUOUS
 62
     3
 10
20.082331
 20
140.20462399999991
 30
0.0
 11
23.150512999999989
 21
140.20462399999991
 31
0.0
  0
ARC
  5
574
  8
OUTLINE
  6
CONTINUOUS
 62
     3
 10
17.840731999999988
 20
146.22792799999991
 30
0.0
 40
2.5568169999999979
 50
33.424846000000002
 51
90.0
  0
ARC
  5
575
  8
OUTLINE
  6
CONTINUOUS
 62
     3
 10
26.161695000000009
 20
149.45154399999981
 30
0.0
 40
6.1363629999999993
 50
90.0
 51
180.0
  0
LINE
  5
576
  8
OUTLINE
  6
CONTINUOUS
 62
     3
 10
20.025331999999992
 20
149.45154399999981
 30
0.0
 11
20.025331999999992
 21
146.22792799999991
 31
0.0
  0
ARC
  5
577
  8
OUTLINE
  6
CONTINUOUS
 62
     3
 10
26.161695000000009
 20
149.45154399999981
 30
0.0
 40
6.1363629999999993
 50
90.0
 51
180.0
  0
LINE
  5
578
  8
OUTLINE
  6
CONTINUOUS
 62
     3
 10
20.025331999999992
 20
149.45154399999981
 30
0.0
 11
20.025331999999992
 21
146.22792799999991
 31
0.0
  0
ARC
  5
579
  8
OUTLINE
  6
CONTINUOUS
 62
     3
 10
12.814366
 20
151.5522389999999
 30
0.0
 40
2.7688540000000001
 50
184.1865249999999
 51
268.19405399999982
  0
LINE
  5
57A
  8
OUTLINE
  6
CONTINUOUS
 62
     3
 10
17.414683000000011
 20
168.7069239999999
 30
0.0
 11
12.78409900000001
 21
168.75284600000001
 31
0.0
  0
ARC
  5
57B
  8
OUTLINE
  6
CONTINUOUS
 62
     3
 10
17.414683000000011
 20
166.15010599999991
 30
0.0
 40
2.5568169999999979
 50
0.0
 51
90.0
  0
ARC
  5
57C
  8
OUTLINE
  6
CONTINUOUS
 62
     3
 10
12.78409900000001
 20
171.30967100000001
 30
0.0
 40
2.5568169999999979
 50
180.0000189999999
 51
270.0
  0
LINE
  5
57D
  8
OUTLINE
  6
CONTINUOUS
 62
     3
 10
131.14087000000001
 20
99.665324999999996
 30
0.0
 11
131.140871
 21
47.147715999999981
 31
0.0
  0
LINE
  5
57E
  8
OUTLINE
  6
CONTINUOUS
 62
     3
 10
133.8693369999998
 20
6.0553809999999979
 30
0.0
 11
131.79920000000001
 21
6.9746050000000004
 31
0.0
  0
ARC
  5
57F
  8
OUTLINE
  6
CONTINUOUS
 62
     3
 10
132.9545759999998
 20
4.2258519999999979
 30
0.0
 40
2.045455
 50
359.99992799999978
 51
63.434954999999988
  0
ARC
  5
580
  8
OUTLINE
  6
CONTINUOUS
 62
     3
 10
129.095417
 20
47.147715999999981
 30
0.0
 40
2.0454539999999981
 50
270.0
 51
0.0
  0
LINE
  5
581
  8
OUTLINE
  6
CONTINUOUS
 62
     3
 10
127.545472
 20
45.102260999999991
 30
0.0
 11
129.095417
 21
45.102260999999991
 31
0.0
  0
LINE
  5
582
  8
OUTLINE
  6
CONTINUOUS
 62
     3
 10
101.5963919999999
 20
146.40624700000001
 30
0.0
 11
90.10334899999998
 21
151.601055
 31
0.0
  0
LINE
  5
583
  8
OUTLINE
  6
CONTINUOUS
 62
     3
 10
101.5963919999999
 20
146.40624700000001
 30
0.0
 11
90.10334899999998
 21
151.601055
 31
0.0
  0
LINE
  5
584
  8
OUTLINE
  6
CONTINUOUS
 62
     3
 10
90.10334899999998
 20
149.9751779999998
 30
0.0
 11
101.5963919999999
 21
144.94299699999991
 31
0.0
  0
ARC
  5
585
  8
OUTLINE
  6
CONTINUOUS
 62
     3
 10
60.045456999999999
 20
155.5850309999999
 30
0.0
 40
1.5340910000000001
 50
359.07102200000003
 51
200.71718799999999
  0
LINE
  5
586
  8
OUTLINE
  6
CONTINUOUS
 62
     3
 10
58.594997999999983
 20
155.02677700000001
 30
0.0
 11
58.960799000000009
 21
155.392484
 31
0.0
  0
ARC
  5
587
  8
OUTLINE
  6
CONTINUOUS
 62
     3
 10
60.045456999999999
 20
155.5850309999999
 30
0.0
 40
2.0454539999999981
 50
0.0
 51
90.0
  0
LINE
  5
588
  8
OUTLINE
  6
CONTINUOUS
 62
     3
 10
62.090912000000003
 20
155.5850309999999
 30
0.0
 11
65.102109999999982
 21
155.5850309999999
 31
0.0
  0
LINE
  5
589
  8
OUTLINE
  6
CONTINUOUS
 62
     3
 10
62.090912000000003
 20
155.5850309999999
 30
0.0
 11
65.102109999999982
 21
155.5850309999999
 31
0.0
  0
LINE
  5
58A
  8
OUTLINE
  6
CONTINUOUS
 62
     3
 10
90.10334899999998
 20
151.601055
 30
0.0
 11
77.632671000000016
 21
154.80000200000001
 31
0.0
  0
LINE
  5
58B
  8
OUTLINE
  6
CONTINUOUS
 62
     3
 10
77.632671000000016
 20
154.80000200000001
 30
0.0
 11
64.663598999999977
 21
155.880154
 31
0.0
  0
LINE
  5
58C
  8
OUTLINE
  6
CONTINUOUS
 62
     3
 10
90.10334899999998
 20
151.601055
 30
0.0
 11
77.632671000000016
 21
154.80000200000001
 31
0.0
  0
LINE
  5
58D
  8
OUTLINE
  6
CONTINUOUS
 62
     3
 10
77.632671000000016
 20
154.80000200000001
 30
0.0
 11
64.663598999999977
 21
155.880154
 31
0.0
  0
LINE
  5
58E
  8
OUTLINE
  6
CONTINUOUS
 62
     3
 10
64.663598999999977
 20
154.120317
 30
0.0
 11
77.632671000000016
 21
153.07398000000001
 31
0.0
  0
LINE
  5
58F
  8
OUTLINE
  6
CONTINUOUS
 62
     3
 10
77.632671000000016
 20
153.07398000000001
 30
0.0
 11
90.10334899999998
 21
149.9751779999998
 31
0.0
  0
ARC
  5
590
  8
OUTLINE
  6
CONTINUOUS
 62
     3
 10
60.168751
 20
155.40051800000001
 30
0.0
 40
2.2333729999999981
 50
93.164625000000001
 51
175.26102899999981
  0
LINE
  5
591
  8
OUTLINE
  6
CONTINUOUS
 62
     3
 10
131.14087000000001
 20
99.665324999999996
 30
0.0
 11
129.8635279999998
 21
110.6322939999998
 31
0.0
  0
LINE
  5
592
  8
OUTLINE
  6
CONTINUOUS
 62
     3
 10
129.8635279999998
 20
110.6322939999998
 30
0.0
 11
126.0805889999998
 21
121.177809
 31
0.0
  0
LINE
  5
593
  8
OUTLINE
  6
CONTINUOUS
 62
     3
 10
126.0805889999998
 20
121.177809
 30
0.0
 11
119.93743000000001
 21
130.89661100000001
 31
0.0
  0
LINE
  5
594
  8
OUTLINE
  6
CONTINUOUS
 62
     3
 10
131.14087000000001
 20
99.665324999999996
 30
0.0
 11
129.8635279999998
 21
110.6322939999998
 31
0.0
  0
LINE
  5
595
  8
OUTLINE
  6
CONTINUOUS
 62
     3
 10
129.8635279999998
 20
110.6322939999998
 30
0.0
 11
126.0805889999998
 21
121.177809
 31
0.0
  0
LINE
  5
596
  8
OUTLINE
  6
CONTINUOUS
 62
     3
 10
126.0805889999998
 20
121.177809
 30
0.0
 11
119.93743000000001
 21
130.89661100000001
 31
0.0
  0
LINE
  5
597
  8
OUTLINE
  6
CONTINUOUS
 62
     3
 10
119.93743000000001
 20
129.91889799999981
 30
0.0
 11
126.0805889999998
 21
120.50434899999991
 31
0.0
  0
LINE
  5
598
  8
OUTLINE
  6
CONTINUOUS
 62
     3
 10
126.0805889999998
 20
120.50434899999991
 30
0.0
 11
129.8635279999998
 21
110.2889669999999
 31
0.0
  0
LINE
  5
599
  8
OUTLINE
  6
CONTINUOUS
 62
     3
 10
129.8635279999998
 20
110.2889669999999
 30
0.0
 11
131.14087000000001
 21
99.665324999999996
 31
0.0
  0
LINE
  5
59A
  8
OUTLINE
  6
CONTINUOUS
 62
     3
 10
111.67012799999991
 20
139.415212
 30
0.0
 11
101.5963919999999
 21
146.40624700000001
 31
0.0
  0
LINE
  5
59B
  8
OUTLINE
  6
CONTINUOUS
 62
     3
 10
111.67012799999991
 20
139.415212
 30
0.0
 11
101.5963919999999
 21
146.40624700000001
 31
0.0
  0
LINE
  5
59C
  8
OUTLINE
  6
CONTINUOUS
 62
     3
 10
101.5963919999999
 20
144.94299699999991
 30
0.0
 11
111.67012799999991
 21
138.17081999999999
 31
0.0
  0
LINE
  5
59D
  8
OUTLINE
  6
CONTINUOUS
 62
     3
 10
119.93743000000001
 20
130.89661100000001
 30
0.0
 11
111.67012799999991
 21
139.415212
 31
0.0
  0
LINE
  5
59E
  8
OUTLINE
  6
CONTINUOUS
 62
     3
 10
119.93743000000001
 20
130.89661100000001
 30
0.0
 11
111.67012799999991
 21
139.415212
 31
0.0
  0
LINE
  5
59F
  8
OUTLINE
  6
CONTINUOUS
 62
     3
 10
111.67012799999991
 20
138.17081999999999
 30
0.0
 11
119.93743000000001
 21
129.91889799999981
 31
0.0
  0
LINE
  5
5A0
  8
DETAIL
  6
CONTINUOUS
 62
     5
 39
50.0
 10
12.78409926743123
 20
-168.7471006699252
 30
0.0
 11
17.471682999999999
 21
-168.7937559999998
 31
0.0
  0
LINE
  5
5A1
  8
OUTLINE
  6
CONTINUOUS
 62
     3
 39
50.0
 10
12.784099267431211
 20
-168.7471006699252
 30
0.0
 11
17.471682999999981
 21
-168.7937559999998
 31
0.0
  0
ARC
  5
5A2
  8
OUTLINE
  6
CONTINUOUS
 62
     3
 10
7.2840601478321121
 20
-180.24575439185011
 30
0.0
 40
2.5
 50
270.65981236276662
 51
359.93135853053423
  0
LINE
  5
5A4
  8
OUTLINE
  6
CONTINUOUS
 62
     3
 39
50.0
 10
3.7158067232073821
 20
179.44055222959699
 30
0.0
 11
3.7126694000281741
 21
182.8508229600333
 31
0.0
  0
ENDSEC
  0
EOF
