  0
SECTION
  2
HEADER
  9
$ACADVER
  1
AC1009
  9
$INSBASE
 10
0.0
 20
0.0
 30
0.0
  9
$EXTMIN
 10
-565.57615524574237
 20
-269.80589629361202
 30
-0.0046804354453229
  9
$EXTMAX
 10
972.08405691441465
 20
742.12647304186419
 30
102.277406340525
  9
$LIMMIN
 10
-2970.0
 20
-2100.0
  9
$LIMMAX
 10
2970.0
 20
2100.0
  9
$ORTHOMODE
 70
     1
  9
$REGENMODE
 70
     1
  9
$FILLMODE
 70
     1
  9
$QTEXTMODE
 70
     0
  9
$MIRRTEXT
 70
     0
  9
$DRAGMODE
 70
     2
  9
$LTSCALE
 40
20.0
  9
$OSMODE
 70
    37
  9
$ATTMODE
 70
     1
  9
$TEXTSIZE
 40
64.0
  9
$TRACEWID
 40
0.05
  9
$TEXTSTYLE
  7
STANDARD
  9
$CLAYER
  8
SIZE
  9
$CELTYPE
  6
CONTINUOUS
  9
$CECOLOR
 62
     7
  9
$DIMSCALE
 40
1.0
  9
$DIMASZ
 40
12.0
  9
$DIMEXO
 40
20.0
  9
$DIMDLI
 40
200.0
  9
$DIMRND
 40
0.0
  9
$DIMDLE
 40
0.0
  9
$DIMEXE
 40
20.0
  9
$DIMTP
 40
0.0
  9
$DIMTM
 40
0.0
  9
$DIMTXT
 40
64.0
  9
$DIMCEN
 40
0.09
  9
$DIMTSZ
 40
0.0
  9
$DIMTOL
 70
     0
  9
$DIMLIM
 70
     0
  9
$DIMTIH
 70
     0
  9
$DIMTOH
 70
     0
  9
$DIMSE1
 70
     0
  9
$DIMSE2
 70
     0
  9
$DIMTAD
 70
     1
  9
$DIMZIN
 70
     8
  9
$DIMBLK
  1
DOT1
  9
$DIMASO
 70
     1
  9
$DIMSHO
 70
     0
  9
$DIMPOST
  1

  9
$DIMAPOST
  1

  9
$DIMALT
 70
     0
  9
$DIMALTD
 70
     2
  9
$DIMALTF
 40
25.399999999999999
  9
$DIMLFAC
 40
1.0
  9
$DIMTOFL
 70
     1
  9
$DIMTVP
 40
0.0
  9
$DIMTIX
 70
     1
  9
$DIMSOXD
 70
     0
  9
$DIMSAH
 70
     1
  9
$DIMBLK1
  1
ORIGIN
  9
$DIMBLK2
  1
ORIGIN
  9
$DIMSTYLE
  2
STANDARD
  9
$DIMCLRD
 70
     7
  9
$DIMCLRE
 70
     7
  9
$DIMCLRT
 70
     7
  9
$DIMTFAC
 40
1.0
  9
$DIMGAP
 40
25.0
  9
$LUNITS
 70
     2
  9
$LUPREC
 70
     4
  9
$SKETCHINC
 40
0.1
  9
$FILLETRAD
 40
8.0
  9
$AUNITS
 70
     1
  9
$AUPREC
 70
     3
  9
$MENU
  1
ACAD
  9
$ELEVATION
 40
0.0
  9
$PELEVATION
 40
0.0
  9
$THICKNESS
 40
50.0
  9
$LIMCHECK
 70
     0
  9
$BLIPMODE
 70
     0
  9
$CHAMFERA
 40
0.0
  9
$CHAMFERB
 40
0.0
  9
$SKPOLY
 70
     0
  9
$TDCREATE
 40
2452997.3946624431
  9
$TDUPDATE
 40
2454942.4868927659
  9
$TDINDWG
 40
0.9991592477
  9
$TDUSRTIMER
 40
0.9991592477
  9
$USRTIMER
 70
     1
  9
$ANGBASE
 50
0.0
  9
$ANGDIR
 70
     0
  9
$PDMODE
 70
     3
  9
$PDSIZE
 40
-2.0
  9
$PLINEWID
 40
0.0
  9
$COORDS
 70
     0
  9
$SPLFRAME
 70
     0
  9
$SPLINETYPE
 70
     6
  9
$SPLINESEGS
 70
     8
  9
$ATTDIA
 70
     0
  9
$ATTREQ
 70
     1
  9
$HANDLING
 70
     1
  9
$HANDSEED
  5
329
  9
$SURFTAB1
 70
     6
  9
$SURFTAB2
 70
     6
  9
$SURFTYPE
 70
     6
  9
$SURFU
 70
     6
  9
$SURFV
 70
     6
  9
$UCSNAME
  2

  9
$UCSORG
 10
0.0
 20
0.0
 30
0.0
  9
$UCSXDIR
 10
1.0
 20
0.0
 30
0.0
  9
$UCSYDIR
 10
0.0
 20
1.0
 30
0.0
  9
$PUCSNAME
  2

  9
$PUCSORG
 10
0.0
 20
0.0
 30
0.0
  9
$PUCSXDIR
 10
1.0
 20
0.0
 30
0.0
  9
$PUCSYDIR
 10
0.0
 20
1.0
 30
0.0
  9
$USERI1
 70
     0
  9
$USERI2
 70
     0
  9
$USERI3
 70
     0
  9
$USERI4
 70
     0
  9
$USERI5
 70
     0
  9
$USERR1
 40
20.0
  9
$USERR2
 40
0.0
  9
$USERR3
 40
0.0
  9
$USERR4
 40
0.0
  9
$USERR5
 40
0.0
  9
$WORLDVIEW
 70
     1
  9
$SHADEDGE
 70
     3
  9
$SHADEDIF
 70
    70
  9
$TILEMODE
 70
     1
  9
$MAXACTVP
 70
    48
  9
$PLIMCHECK
 70
     0
  9
$PEXTMIN
 10
-1.0000000000000000E+020
 20
-1.0000000000000000E+020
 30
-1.0000000000000000E+020
  9
$PEXTMAX
 10
1.0000000000000000E+020
 20
1.0000000000000000E+020
 30
1.0000000000000000E+020
  9
$PLIMMIN
 10
0.0
 20
0.0
  9
$PLIMMAX
 10
12.0
 20
9.0
  9
$UNITMODE
 70
     0
  9
$VISRETAIN
 70
     0
  9
$PLINEGEN
 70
     0
  9
$PSLTSCALE
 70
     0
  0
ENDSEC
  0
SECTION
  2
TABLES
  0
TABLE
  2
VPORT
 70
     1
  0
VPORT
  2
*ACTIVE
 70
     0
 10
0.0
 20
0.0
 11
1.0
 21
1.0
 12
230.00317456599649
 22
191.51111976642451
 13
0.0
 23
0.0
 14
1.0
 24
1.0
 15
0.0
 25
0.0
 16
0.0
 26
0.0
 36
1.0
 17
0.0
 27
0.0
 37
0.0
 40
1327.065595735354
 41
1.3098995695839311
 42
50.0
 43
0.0
 44
0.0
 50
0.0
 51
0.0
 71
     0
 72
  1000
 73
     1
 74
     0
 75
     0
 76
     0
 77
     0
 78
     1
  0
ENDTAB
  0
TABLE
  2
LTYPE
 70
     5
  0
LTYPE
  2
CONTINUOUS
 70
     0
  3
実線
 72
    65
 73
     0
 40
0.0
  0
LTYPE
  2
DASHDOT
 70
     0
  3
____ _ ____ _ ____ _ ____ _ ____ _ ____ _ ____
 72
    65
 73
     4
 40
5.5
 49
4.0
 49
-0.6
 49
0.3
 49
-0.6
  0
LTYPE
  2
DASHED
 70
     0
  3
-- -- -- -- -- -- -- -- -- -- -- -- -- -- --
 72
    65
 73
     2
 40
0.75
 49
0.5
 49
-0.25
  0
ENDTAB
  0
TABLE
  2
LAYER
 70
    12
  0
LAYER
  2
0
 70
     0
 62
     7
  6
CONTINUOUS
  0
LAYER
  2
ARRANGE
 70
     0
 62
     1
  6
CONTINUOUS
  0
LAYER
  2
BASIS
 70
     0
 62
     6
  6
DASHDOT
  0
LAYER
  2
OUTLINE
 70
     0
 62
     3
  6
CONTINUOUS
  0
LAYER
  2
DETAIL
 70
     0
 62
     5
  6
CONTINUOUS
  0
LAYER
  2
SIZE
 70
     0
 62
    30
  6
CONTINUOUS
  0
LAYER
  2
DEFPOINTS
 70
     0
 62
     7
  6
CONTINUOUS
  0
LAYER
  2
ETC
 70
     0
 62
    61
  6
CONTINUOUS
  0
LAYER
  2
FIX
 70
     0
 62
    11
  6
CONTINUOUS
  0
LAYER
  2
NOTE
 70
     0
 62
     4
  6
CONTINUOUS
  0
LAYER
  2
SERVICESPACE
 70
     0
 62
     2
  6
DASHDOT
  0
LAYER
  2
SYMBOLLINE
 70
     0
 62
    15
  6
CONTINUOUS
  0
ENDTAB
  0
TABLE
  2
STYLE
 70
     2
  0
STYLE
  2
STANDARD
 70
     0
 40
64.0
 41
0.9
 50
0.0
 71
     0
 42
64.0
  3
SIMPLEX.shx
  4
BIGFONT.shx
  0
STYLE
  2
ANNOTATIVE
 70
     0
 40
0.0
 41
1.0
 50
0.0
 71
     0
 42
0.2
  3
txt
  4

  0
ENDTAB
  0
TABLE
  2
VIEW
 70
     1
  0
VIEW
  2
ALL
 70
     0
 40
4282.6198079999976
 10
0.0
 20
41.309903999999989
 41
5940.0
 11
0.0
 21
0.0
 31
1.0
 12
0.0
 22
0.0
 32
0.0
 42
50.0
 43
0.0
 44
0.0
 50
0.0
 71
     0
  0
ENDTAB
  0
TABLE
  2
UCS
 70
     0
  0
ENDTAB
  0
TABLE
  2
APPID
 70
     5
  0
APPID
  2
ACAD
 70
     0
  0
APPID
  2
ACADANNOTATIVE
 70
     0
  0
APPID
  2
ACAD_MLEADERVER
 70
     0
  0
APPID
  2
AUTOCAD_POSTSCRIPT_FIGURE
 70
     0
  0
APPID
  2
ACAD_EXEMPT_FROM_CAD_STANDARDS
 70
     0
  0
ENDTAB
  0
TABLE
  2
DIMSTYLE
 70
     3
  0
DIMSTYLE
  2
STANDARD
 70
     0
  3

  4

  5

  6

  7

 40
1.0
 41
0.18
 42
0.0625
 43
0.38
 44
0.18
 45
0.0
 46
0.0
 47
0.0
 48
0.0
140
0.18
141
0.09
142
0.0
143
25.399999999999999
144
1.0
145
0.0
146
1.0
147
0.09
 71
     0
 72
     0
 73
     1
 74
     1
 75
     0
 76
     0
 77
     0
 78
     0
170
     0
171
     2
172
     0
173
     0
174
     0
175
     0
176
     7
177
     7
178
     7
  0
DIMSTYLE
  2
ANNOTATIVE
 70
     0
  3

  4

  5

  6

  7

 40
1.0
 41
0.18
 42
0.0625
 43
0.38
 44
0.18
 45
0.0
 46
0.0
 47
0.0
 48
0.0
140
0.18
141
0.09
142
0.0
143
25.399999999999999
144
1.0
145
0.0
146
1.0
147
0.09
 71
     0
 72
     0
 73
     1
 74
     1
 75
     0
 76
     0
 77
     0
 78
     0
170
     0
171
     2
172
     0
173
     0
174
     0
175
     0
176
     0
177
     0
178
     0
  0
ENDTAB
  0
ENDSEC
  0
SECTION
  2
BLOCKS
  0
BLOCK
  8
0
  2
$MODEL_SPACE
 70
     0
 10
0.0
 20
0.0
 30
0.0
  3
$MODEL_SPACE
  1

  0
ENDBLK
  5
2BA
  8
0
  0
BLOCK
 67
     1
  8
0
  2
$PAPER_SPACE
 70
     0
 10
0.0
 20
0.0
 30
0.0
  3
$PAPER_SPACE
  1

  0
ENDBLK
  5
2B6
 67
     1
  8
0
  0
BLOCK
  8
0
  2
DOT1
 70
     0
 10
0.0
 20
0.0
 30
0.0
  3
DOT1
  1

  0
CIRCLE
  5
37
  8
SIZE
  6
CONTINUOUS
 62
     7
 10
0.0
 20
0.0
 30
0.0
 40
3.0
  0
ENDBLK
  5
38
  8
0
  0
BLOCK
  8
0
  2
_ORIGIN
 70
     0
 10
0.0
 20
0.0
 30
0.0
  3
_ORIGIN
  1

  0
CIRCLE
  5
3B
  8
0
  6
CONTINUOUS
 62
     7
 10
0.0
 20
0.0
 30
0.0
 40
0.5
  0
LINE
  5
3C
  8
0
  6
CONTINUOUS
 62
     7
 10
0.0
 20
0.0
 30
0.0
 11
-1.0
 21
0.0
 31
0.0
  0
ENDBLK
  5
3D
  8
0
  0
ENDSEC
  0
SECTION
  2
ENTITIES
  0
LINE
  5
3E
  8
BASIS
  6
DASHDOT
 62
     6
 10
0.0
 20
-157.8383649999999
 30
0.0
 11
0.0
 21
41.838419999999999
 31
0.0
  0
LINE
  5
3F
  8
DETAIL
  6
CONTINUOUS
 62
     5
 10
-133.164806
 20
-26.218669999999989
 30
0.0
 11
-133.16193000000001
 21
-65.159085000000005
 31
0.0
  0
LINE
  5
40
  8
DETAIL
  6
CONTINUOUS
 62
     5
 10
-154.10903400000001
 20
-26.218669999999989
 30
0.0
 11
-154.10615799999999
 21
-65.159083999999993
 31
0.0
  0
ARC
  5
41
  8
DETAIL
  6
CONTINUOUS
 62
     5
 10
-155.3863579999998
 20
-60.168725999999999
 30
0.0
 40
2.2333729999999981
 50
94.738971000000006
 51
176.83537499999991
  0
ARC
  5
42
  8
DETAIL
  6
CONTINUOUS
 62
     5
 10
-155.5708709999999
 20
-60.045432999999989
 30
0.0
 40
1.5340910000000001
 50
69.282811999999993
 51
270.92897799999992
  0
LINE
  5
43
  8
DETAIL
  6
CONTINUOUS
 62
     5
 10
133.1873749999998
 20
-26.153542000000002
 30
0.0
 11
133.1902509999999
 21
-65.159085000000005
 31
0.0
  0
ARC
  5
44
  8
DETAIL
  6
CONTINUOUS
 62
     5
 10
156.491433
 20
-60.045440999999997
 30
0.0
 40
2.0454539999999981
 50
0.0
 51
89.999981000000005
  0
LINE
  5
45
  8
DETAIL
  6
CONTINUOUS
 62
     5
 10
154.13160199999999
 20
-26.153542000000002
 30
0.0
 11
154.134479
 21
-65.159083999999993
 31
0.0
  0
LINE
  5
46
  8
DETAIL
  6
CONTINUOUS
 62
     5
 10
155.89143899999991
 20
-25.130814999999998
 30
0.0
 11
155.894316
 21
-65.159083999999993
 31
0.0
  0
CIRCLE
  5
47
  8
ARRANGE
  6
CONTINUOUS
 62
     1
 39
50.0
 10
0.01416
 20
0.0
 30
0.0
 40
40.0
  0
CIRCLE
  5
48
  8
ARRANGE
  6
CONTINUOUS
 62
     1
 10
0.01416
 20
0.0
 30
0.0
 40
40.0
  0
LINE
  5
49
  8
BASIS
  6
DASHDOT
 62
     6
 10
-116.278364
 20
-57.999972999999997
 30
0.0
 11
116.30668299999979
 21
-57.999972999999997
 31
0.0
  0
LINE
  5
4A
  8
DETAIL
  6
CONTINUOUS
 62
     5
 10
-45.088101000000002
 20
-127.5454469999999
 30
0.0
 11
53.987754000000002
 21
-127.5454469999999
 31
0.0
  0
LINE
  5
4B
  8
DETAIL
  6
CONTINUOUS
 62
     5
 10
-4.2116930000000004
 20
-134.99997500000001
 30
0.0
 11
0.01416
 21
-134.99997500000001
 31
0.0
  0
LINE
  5
4C
  8
DETAIL
  6
CONTINUOUS
 62
     5
 10
0.014161
 20
-62.090887000000002
 30
0.0
 11
-128.452663
 21
-62.090887000000002
 31
0.0
  0
LINE
  5
4D
  8
DETAIL
  6
CONTINUOUS
 62
     5
 10
91.632701999999995
 20
-106.0681739999999
 30
0.0
 11
-99.651165000000006
 21
-106.0681739999999
 31
0.0
  0
ARC
  5
4E
  8
DETAIL
  6
CONTINUOUS
 62
     5
 39
50.0
 10
90.832866999999993
 20
-130.75875999999991
 30
0.0
 40
2.3707790000000002
 50
262.55089600000002
 51
333.735637
  0
ARC
  5
4F
  8
DETAIL
  6
CONTINUOUS
 62
     5
 39
50.0
 10
58.558639999999997
 20
-127.2476579999999
 30
0.0
 40
4.5805749999999987
 50
183.727507
 51
253.085948
  0
LINE
  5
50
  8
DETAIL
  6
CONTINUOUS
 62
     5
 39
50.0
 10
67.204798999999994
 20
-106.0930069999999
 30
0.0
 11
67.204798999999994
 21
-131.630088
 31
0.0
  0
LINE
  5
51
  8
DETAIL
  6
CONTINUOUS
 62
     5
 10
90.832340000000002
 20
-131.63635600000001
 30
0.0
 11
57.22598099999999
 21
-131.630088
 31
0.0
  0
LINE
  5
52
  8
DETAIL
  6
CONTINUOUS
 62
     5
 10
90.525505999999993
 20
-133.10953000000001
 30
0.0
 11
6.526844999999998
 21
-132.954554
 31
0.0
  0
LINE
  5
53
  8
DETAIL
  6
CONTINUOUS
 62
     5
 10
0.014161
 20
-62.090887000000002
 30
0.0
 11
133.1902509999999
 21
-62.090887000000002
 31
0.0
  0
LINE
  5
54
  8
DETAIL
  6
CONTINUOUS
 62
     5
 10
155.894316
 20
-65.159083999999993
 30
0.0
 11
154.81416299999981
 21
-78.128156000000004
 31
0.0
  0
LINE
  5
55
  8
DETAIL
  6
CONTINUOUS
 62
     5
 10
154.81416299999981
 20
-78.128156000000004
 30
0.0
 11
151.6152169999998
 21
-90.598833999999997
 31
0.0
  0
LINE
  5
56
  8
DETAIL
  6
CONTINUOUS
 62
     5
 10
151.6152169999998
 20
-90.598833999999997
 30
0.0
 11
146.42040900000001
 21
-102.0918769999999
 31
0.0
  0
LINE
  5
57
  8
DETAIL
  6
CONTINUOUS
 62
     5
 10
146.42040900000001
 20
-102.0918769999999
 30
0.0
 11
139.429373
 21
-112.16561299999979
 31
0.0
  0
LINE
  5
58
  8
DETAIL
  6
CONTINUOUS
 62
     5
 10
139.429373
 20
-112.16561299999979
 30
0.0
 11
130.91077200000001
 21
-120.4329149999998
 31
0.0
  0
LINE
  5
59
  8
DETAIL
  6
CONTINUOUS
 62
     5
 10
130.91077200000001
 20
-120.4329149999998
 30
0.0
 11
121.1919699999999
 21
-126.57607400000001
 31
0.0
  0
LINE
  5
5A
  8
DETAIL
  6
CONTINUOUS
 62
     5
 10
121.1919699999999
 20
-126.57607400000001
 30
0.0
 11
110.646456
 21
-130.35901299999981
 31
0.0
  0
LINE
  5
5B
  8
DETAIL
  6
CONTINUOUS
 62
     5
 10
110.646456
 20
-130.35901299999981
 30
0.0
 11
99.679486999999995
 21
-131.63635500000001
 31
0.0
  0
LINE
  5
5C
  8
DETAIL
  6
CONTINUOUS
 62
     5
 10
154.134479
 20
-65.159083999999993
 30
0.0
 11
153.08814099999989
 21
-78.128156000000004
 31
0.0
  0
LINE
  5
5D
  8
DETAIL
  6
CONTINUOUS
 62
     5
 10
153.08814099999989
 20
-78.128156000000004
 30
0.0
 11
149.9893389999998
 21
-90.598833999999997
 31
0.0
  0
LINE
  5
5E
  8
DETAIL
  6
CONTINUOUS
 62
     5
 10
149.9893389999998
 20
-90.598833999999997
 30
0.0
 11
144.95715799999999
 21
-102.0918769999999
 31
0.0
  0
LINE
  5
5F
  8
DETAIL
  6
CONTINUOUS
 62
     5
 10
144.95715799999999
 20
-102.0918769999999
 30
0.0
 11
138.18498099999999
 21
-112.16561299999979
 31
0.0
  0
LINE
  5
60
  8
DETAIL
  6
CONTINUOUS
 62
     5
 10
138.18498099999999
 20
-112.16561299999979
 30
0.0
 11
129.93305899999999
 21
-120.4329149999998
 31
0.0
  0
LINE
  5
61
  8
DETAIL
  6
CONTINUOUS
 62
     5
 10
129.93305899999999
 20
-120.4329149999998
 30
0.0
 11
120.51851000000001
 21
-126.57607400000001
 31
0.0
  0
LINE
  5
62
  8
DETAIL
  6
CONTINUOUS
 62
     5
 10
120.51851000000001
 20
-126.57607400000001
 30
0.0
 11
110.303129
 21
-130.35901299999981
 31
0.0
  0
LINE
  5
63
  8
DETAIL
  6
CONTINUOUS
 62
     5
 10
110.303129
 20
-130.35901299999981
 30
0.0
 11
99.679486999999995
 21
-131.63635500000001
 31
0.0
  0
LINE
  5
64
  8
DETAIL
  6
DASHED
 62
     5
 10
90.832340000000002
 20
-131.63635600000001
 30
0.0
 11
92.059612000000001
 21
-131.63635600000001
 31
0.0
  0
LINE
  5
65
  8
DETAIL
  6
CONTINUOUS
 62
     5
 10
99.679486999999995
 20
-131.63635500000001
 30
0.0
 11
92.059612000000001
 21
-131.63635600000001
 31
0.0
  0
LINE
  5
66
  8
DETAIL
  6
CONTINUOUS
 62
     5
 10
99.679486999999995
 20
-106.0681739999999
 30
0.0
 11
91.632701999999995
 21
-106.0681739999999
 31
0.0
  0
LINE
  5
67
  8
DETAIL
  6
CONTINUOUS
 62
     5
 10
155.894316
 20
-62.090887000000002
 30
0.0
 11
156.491433
 21
-62.090887000000002
 31
0.0
  0
ARC
  5
68
  8
DETAIL
  6
CONTINUOUS
 62
     5
 10
156.491433
 20
-60.045440999999997
 30
0.0
 40
2.0454539999999981
 50
270.00001700000001
 51
0.0
  0
LINE
  5
69
  8
DETAIL
  6
DASHED
 62
     5
 10
133.1902509999999
 20
-62.090887000000002
 30
0.0
 11
133.1902509999999
 21
-62.090887000000002
 31
0.0
  0
LINE
  5
6A
  8
DETAIL
  6
CONTINUOUS
 62
     5
 10
133.1902509999999
 20
-65.159085000000005
 30
0.0
 11
132.5463509999999
 21
-73.140051999999983
 31
0.0
  0
LINE
  5
6B
  8
DETAIL
  6
CONTINUOUS
 62
     5
 10
132.5463509999999
 20
-73.140051999999983
 30
0.0
 11
130.639396
 21
-80.814314999999979
 31
0.0
  0
LINE
  5
6C
  8
DETAIL
  6
CONTINUOUS
 62
     5
 10
130.639396
 20
-80.814314999999979
 30
0.0
 11
127.5426689999999
 21
-87.886956999999981
 31
0.0
  0
LINE
  5
6D
  8
DETAIL
  6
CONTINUOUS
 62
     5
 10
127.5426689999999
 20
-87.886956999999981
 30
0.0
 11
123.3751749999999
 21
-94.086179000000016
 31
0.0
  0
LINE
  5
6E
  8
DETAIL
  6
CONTINUOUS
 62
     5
 10
123.3751749999999
 20
-94.086179000000016
 30
0.0
 11
118.29707000000001
 21
-99.173749000000001
 31
0.0
  0
LINE
  5
6F
  8
DETAIL
  6
CONTINUOUS
 62
     5
 10
118.29707000000001
 20
-99.173749000000001
 30
0.0
 11
112.5035009999999
 21
-102.954155
 31
0.0
  0
LINE
  5
70
  8
DETAIL
  6
CONTINUOUS
 62
     5
 10
112.5035009999999
 20
-102.954155
 30
0.0
 11
106.217112
 21
-105.282117
 31
0.0
  0
LINE
  5
71
  8
DETAIL
  6
CONTINUOUS
 62
     5
 10
106.217112
 20
-105.282117
 30
0.0
 11
99.679486999999995
 21
-106.0681739999999
 31
0.0
  0
ARC
  5
72
  8
DETAIL
  6
CONTINUOUS
 62
     5
 10
4.2400120000000001
 20
-132.95455100000001
 30
0.0
 40
2.045455
 50
270.00001700000001
 51
333.434935
  0
LINE
  5
73
  8
DETAIL
  6
CONTINUOUS
 62
     5
 10
6.0694850000000002
 20
-133.86930100000001
 30
0.0
 11
6.526844999999998
 21
-132.954554
 31
0.0
  0
LINE
  5
74
  8
DETAIL
  6
CONTINUOUS
 62
     5
 10
4.2400120000000001
 20
-134.99997500000001
 30
0.0
 11
0.01416
 21
-134.99997500000001
 31
0.0
  0
ARC
  5
75
  8
DETAIL
  6
CONTINUOUS
 62
     5
 39
50.0
 10
-86.676534000000004
 20
-125.081181
 30
0.0
 40
8.3854629999999961
 50
226.33045999999999
 51
249.8728439999999
  0
LINE
  5
76
  8
DETAIL
  6
CONTINUOUS
 62
     5
 39
50.0
 10
-66.985839999999996
 20
-131.14084600000001
 30
0.0
 11
-66.985839999999996
 21
-106.0681739999999
 31
0.0
  0
LINE
  5
77
  8
DETAIL
  6
CONTINUOUS
 62
     5
 10
-99.651165000000006
 20
-131.1408449999999
 30
0.0
 11
-56.003883999999992
 21
-131.14084600000001
 31
0.0
  0
ARC
  5
78
  8
DETAIL
  6
CONTINUOUS
 62
     5
 10
-56.004888999999999
 20
-129.0953919999998
 30
0.0
 40
2.0454539999999981
 50
270.0
 51
0.0
  0
LINE
  5
79
  8
DETAIL
  6
CONTINUOUS
 62
     5
 10
-53.959434000000002
 20
-127.5454469999999
 30
0.0
 11
-53.959434000000002
 21
-129.0953919999998
 31
0.0
  0
ARC
  5
7A
  8
DETAIL
  6
CONTINUOUS
 62
     5
 10
-4.2116930000000004
 20
-132.95455100000001
 30
0.0
 40
2.045455
 50
206.565045
 51
270.00007199999999
  0
LINE
  5
7B
  8
DETAIL
  6
CONTINUOUS
 62
     5
 10
-6.0412210000000002
 20
-133.86931299999981
 30
0.0
 11
-6.447410999999998
 21
-132.954554
 31
0.0
  0
LINE
  5
7C
  8
DETAIL
  6
CONTINUOUS
 62
     5
 10
-42.019945
 20
-106.0681739999999
 30
0.0
 11
-42.019945
 21
-105.75603700000001
 31
0.0
  0
LINE
  5
7D
  8
DETAIL
  6
CONTINUOUS
 62
     5
 10
-154.10615799999999
 20
-64.663573999999997
 30
0.0
 11
-153.05982
 21
-77.63264599999998
 31
0.0
  0
LINE
  5
7E
  8
DETAIL
  6
CONTINUOUS
 62
     5
 10
-153.05982
 20
-77.63264599999998
 30
0.0
 11
-149.96101799999991
 21
-90.103324000000015
 31
0.0
  0
LINE
  5
7F
  8
DETAIL
  6
CONTINUOUS
 62
     5
 10
-149.96101799999991
 20
-90.103324000000015
 30
0.0
 11
-144.92883699999999
 21
-101.596367
 31
0.0
  0
LINE
  5
80
  8
DETAIL
  6
CONTINUOUS
 62
     5
 10
-144.92883699999999
 20
-101.596367
 30
0.0
 11
-138.15665999999999
 21
-111.6701029999999
 31
0.0
  0
LINE
  5
81
  8
DETAIL
  6
CONTINUOUS
 62
     5
 10
-138.15665999999999
 20
-111.6701029999999
 30
0.0
 11
-129.9047379999999
 21
-119.937405
 31
0.0
  0
LINE
  5
82
  8
DETAIL
  6
CONTINUOUS
 62
     5
 10
-129.9047379999999
 20
-119.937405
 30
0.0
 11
-120.4901889999999
 21
-126.080564
 31
0.0
  0
LINE
  5
83
  8
DETAIL
  6
CONTINUOUS
 62
     5
 10
-120.4901889999999
 20
-126.080564
 30
0.0
 11
-110.274807
 21
-129.86350300000001
 31
0.0
  0
LINE
  5
84
  8
DETAIL
  6
CONTINUOUS
 62
     5
 10
-110.274807
 20
-129.86350300000001
 30
0.0
 11
-99.651165000000006
 21
-131.1408449999999
 31
0.0
  0
LINE
  5
85
  8
DETAIL
  6
CONTINUOUS
 62
     5
 10
-99.651165000000006
 20
-131.1408449999999
 30
0.0
 11
-110.618134
 21
-129.86350300000001
 31
0.0
  0
LINE
  5
86
  8
DETAIL
  6
CONTINUOUS
 62
     5
 10
-110.618134
 20
-129.86350300000001
 30
0.0
 11
-121.16364899999979
 21
-126.080564
 31
0.0
  0
LINE
  5
87
  8
DETAIL
  6
CONTINUOUS
 62
     5
 10
-121.16364899999979
 20
-126.080564
 30
0.0
 11
-130.8824509999998
 21
-119.937405
 31
0.0
  0
LINE
  5
88
  8
DETAIL
  6
CONTINUOUS
 62
     5
 10
-130.8824509999998
 20
-119.937405
 30
0.0
 11
-139.40105199999991
 21
-111.6701029999999
 31
0.0
  0
LINE
  5
89
  8
DETAIL
  6
CONTINUOUS
 62
     5
 10
-139.40105199999991
 20
-111.6701029999999
 30
0.0
 11
-146.392087
 21
-101.596367
 31
0.0
  0
LINE
  5
8A
  8
DETAIL
  6
CONTINUOUS
 62
     5
 10
-146.392087
 20
-101.596367
 30
0.0
 11
-151.58689499999991
 21
-90.103324000000015
 31
0.0
  0
LINE
  5
8B
  8
DETAIL
  6
CONTINUOUS
 62
     5
 10
-151.58689499999991
 20
-90.103324000000015
 30
0.0
 11
-154.785842
 21
-77.63264599999998
 31
0.0
  0
LINE
  5
8C
  8
DETAIL
  6
CONTINUOUS
 62
     5
 10
-154.785842
 20
-77.63264599999998
 30
0.0
 11
-155.865994
 21
-64.663573999999997
 31
0.0
  0
LINE
  5
8D
  8
DETAIL
  6
CONTINUOUS
 62
     5
 10
-99.651165000000006
 20
-131.1408449999999
 30
0.0
 11
-110.618134
 21
-129.86350300000001
 31
0.0
  0
LINE
  5
8E
  8
DETAIL
  6
CONTINUOUS
 62
     5
 10
-110.618134
 20
-129.86350300000001
 30
0.0
 11
-121.16364899999979
 21
-126.080564
 31
0.0
  0
LINE
  5
8F
  8
DETAIL
  6
CONTINUOUS
 62
     5
 10
-121.16364899999979
 20
-126.080564
 30
0.0
 11
-130.8824509999998
 21
-119.937405
 31
0.0
  0
LINE
  5
90
  8
DETAIL
  6
CONTINUOUS
 62
     5
 10
-130.8824509999998
 20
-119.937405
 30
0.0
 11
-139.40105199999991
 21
-111.6701029999999
 31
0.0
  0
LINE
  5
91
  8
DETAIL
  6
CONTINUOUS
 62
     5
 10
-139.40105199999991
 20
-111.6701029999999
 30
0.0
 11
-146.392087
 21
-101.596367
 31
0.0
  0
LINE
  5
92
  8
DETAIL
  6
CONTINUOUS
 62
     5
 10
-146.392087
 20
-101.596367
 30
0.0
 11
-151.58689499999991
 21
-90.103324000000015
 31
0.0
  0
LINE
  5
93
  8
DETAIL
  6
CONTINUOUS
 62
     5
 10
-151.58689499999991
 20
-90.103324000000015
 30
0.0
 11
-154.785842
 21
-77.63264599999998
 31
0.0
  0
LINE
  5
94
  8
DETAIL
  6
CONTINUOUS
 62
     5
 10
-154.785842
 20
-77.63264599999998
 30
0.0
 11
-155.865994
 21
-64.663573999999997
 31
0.0
  0
LINE
  5
95
  8
DETAIL
  6
CONTINUOUS
 62
     5
 10
-133.16193000000001
 20
-65.159085000000005
 30
0.0
 11
-132.51803000000001
 21
-73.140051999999983
 31
0.0
  0
LINE
  5
96
  8
DETAIL
  6
CONTINUOUS
 62
     5
 10
-132.51803000000001
 20
-73.140051999999983
 30
0.0
 11
-130.6110749999998
 21
-80.814314999999979
 31
0.0
  0
LINE
  5
97
  8
DETAIL
  6
CONTINUOUS
 62
     5
 10
-130.6110749999998
 20
-80.814314999999979
 30
0.0
 11
-127.5143469999999
 21
-87.886956999999981
 31
0.0
  0
LINE
  5
98
  8
DETAIL
  6
CONTINUOUS
 62
     5
 10
-127.5143469999999
 20
-87.886956999999981
 30
0.0
 11
-123.34685399999999
 21
-94.086179000000016
 31
0.0
  0
LINE
  5
99
  8
DETAIL
  6
CONTINUOUS
 62
     5
 10
-123.34685399999999
 20
-94.086179000000016
 30
0.0
 11
-118.268748
 21
-99.173749000000001
 31
0.0
  0
LINE
  5
9A
  8
DETAIL
  6
CONTINUOUS
 62
     5
 10
-118.268748
 20
-99.173749000000001
 30
0.0
 11
-112.47517999999999
 21
-102.954155
 31
0.0
  0
LINE
  5
9B
  8
DETAIL
  6
CONTINUOUS
 62
     5
 10
-112.47517999999999
 20
-102.954155
 30
0.0
 11
-106.18879099999999
 21
-105.282117
 31
0.0
  0
LINE
  5
9C
  8
DETAIL
  6
CONTINUOUS
 62
     5
 10
-106.18879099999999
 20
-105.282117
 30
0.0
 11
-99.651165000000006
 21
-106.0681739999999
 31
0.0
  0
ARC
  5
9D
  8
DETAIL
  6
CONTINUOUS
 62
     5
 10
-155.5708709999999
 20
-60.045432999999989
 30
0.0
 40
2.0454539999999981
 50
180.0
 51
270.0
  0
LINE
  5
9E
  8
DETAIL
  6
CONTINUOUS
 62
     5
 10
-155.5708709999999
 20
-62.090887000000002
 30
0.0
 11
-155.5708709999999
 21
-65.102085000000002
 31
0.0
  0
LINE
  5
9F
  8
DETAIL
  6
CONTINUOUS
 62
     5
 10
-155.5708709999999
 20
-62.090887000000002
 30
0.0
 11
-155.5708709999999
 21
-65.102085000000002
 31
0.0
  0
LINE
  5
A0
  8
DETAIL
  6
CONTINUOUS
 62
     5
 10
-128.452663
 20
-62.090887000000002
 30
0.0
 11
-133.16193000000001
 21
-62.090887000000002
 31
0.0
  0
LINE
  5
A1
  8
DETAIL
  6
CONTINUOUS
 62
     5
 10
0.01416
 20
-9.9999749999999992
 30
0.0
 11
-95.255762000000004
 21
-9.9999749999999992
 31
0.0
  0
LINE
  5
A2
  8
DETAIL
  6
CONTINUOUS
 62
     5
 10
-166.179362
 20
-19.971475999999999
 30
0.0
 11
166.20768200000001
 21
-20.028475
 31
0.0
  0
LINE
  5
A3
  8
DETAIL
  6
CONTINUOUS
 62
     5
 10
-183.75550799999999
 20
-3.6888320000000001
 30
0.0
 11
183.90973199999999
 21
-4.3975400000000002
 31
0.0
  0
LINE
  5
A4
  8
DETAIL
  6
CONTINUOUS
 62
     5
 10
183.691193
 20
-0.000024
 30
0.0
 11
-183.71951299999989
 21
0.000024
 31
0.0
  0
LINE
  5
A5
  8
DETAIL
  6
CONTINUOUS
 62
     5
 39
102.272724
 10
-133.16193000000001
 20
-57.951799999999999
 30
0.0
 11
0.01416
 21
-57.999972999999997
 31
0.0
  0
LINE
  5
A6
  8
DETAIL
  6
CONTINUOUS
 62
     5
 10
180.73662400000001
 20
-9.7860530000000008
 30
0.0
 11
0.01416
 21
-9.9999749999999992
 31
0.0
  0
LINE
  5
A7
  8
DETAIL
  6
CONTINUOUS
 62
     5
 10
185.01416
 20
-1.5623959999999979
 30
0.0
 11
184.61453599999999
 21
-3.807240999999999
 31
0.0
  0
ARC
  5
A8
  8
DETAIL
  6
CONTINUOUS
 62
     5
 10
166.25109900000001
 20
-17.471657999999991
 30
0.0
 40
2.5568169999999979
 50
269.99996299999992
 51
0.0
  0
LINE
  5
A9
  8
DETAIL
  6
CONTINUOUS
 62
     5
 10
168.80791599999981
 20
-17.471657999999991
 30
0.0
 11
168.76125300000001
 21
-12.784074
 31
0.0
  0
ARC
  5
AA
  8
DETAIL
  6
CONTINUOUS
 62
     5
 10
183.90973199999999
 20
-3.6816309999999981
 30
0.0
 40
0.715909
 50
269.99996299999992
 51
349.89481599999982
  0
LINE
  5
AB
  8
DETAIL
  6
CONTINUOUS
 62
     5
 10
183.16291499999991
 20
-7.0749570000000004
 30
0.0
 11
183.19374699999989
 21
-4.3978200000000003
 31
0.0
  0
ARC
  5
AC
  8
DETAIL
  6
CONTINUOUS
 62
     5
 10
180.73543499999991
 20
-7.3437369999999982
 30
0.0
 40
2.442315999999999
 50
267.68830600000001
 51
6.3182910000000003
  0
ARC
  5
AD
  8
DETAIL
  6
CONTINUOUS
 62
     5
 10
172.05260899999999
 20
-13.088326999999991
 30
0.0
 40
3.3053809999999979
 50
94.833951999999996
 51
174.71857900000001
  0
ARC
  5
AE
  8
DETAIL
  6
CONTINUOUS
 62
     5
 10
183.70512600000001
 20
-1.329569999999999
 30
0.0
 40
1.329545999999999
 50
349.90864099999988
 51
90.000036000000009
  0
LINE
  5
AF
  8
DETAIL
  6
CONTINUOUS
 62
     5
 10
0.01416
 20
-57.999972999999997
 30
0.0
 11
133.1902509999999
 21
-57.999972999999997
 31
0.0
  0
ARC
  5
B0
  8
DETAIL
  6
CONTINUOUS
 62
     5
 10
96.174486000000016
 20
-17.511599
 30
0.0
 40
2.5836830000000002
 50
180.24655799999999
 51
255.80166600000001
  0
LINE
  5
B1
  8
DETAIL
  6
CONTINUOUS
 62
     5
 10
93.590819999999994
 20
-17.522717
 30
0.0
 11
93.590819999999994
 21
-12.40909199999999
 31
0.0
  0
LINE
  5
B2
  8
DETAIL
  6
CONTINUOUS
 62
     5
 10
119.7711179999999
 20
-20.017178999999999
 30
0.0
 11
119.7711179999999
 21
-23.085360999999988
 31
0.0
  0
ARC
  5
B3
  8
DETAIL
  6
CONTINUOUS
 62
     5
 10
130.11919299999991
 20
-26.153542000000002
 30
0.0
 40
3.0681820000000002
 50
0.0
 51
90.0
  0
LINE
  5
B4
  8
DETAIL
  6
CONTINUOUS
 62
     5
 10
155.894316
 20
-57.999972999999997
 30
0.0
 11
156.491433
 21
-57.999972999999997
 31
0.0
  0
ARC
  5
B5
  8
DETAIL
  6
CONTINUOUS
 62
     5
 10
151.06342100000001
 20
-26.153542000000002
 30
0.0
 40
3.0681820000000002
 50
0.0
 51
90.0
  0
LINE
  5
B6
  8
DETAIL
  6
CONTINUOUS
 62
     5
 10
137.36426900000001
 20
-20.017178999999999
 30
0.0
 11
137.36426900000001
 21
-23.085360999999988
 31
0.0
  0
LINE
  5
B7
  8
DETAIL
  6
CONTINUOUS
 62
     5
 10
140.21303199999991
 20
-20.017178999999999
 30
0.0
 11
140.21303199999991
 21
-23.085360999999988
 31
0.0
  0
ARC
  5
B8
  8
DETAIL
  6
CONTINUOUS
 62
     5
 10
150.77780300000001
 20
-25.130814999999998
 30
0.0
 40
5.1136359999999987
 50
0.0
 51
90.0
  0
LINE
  5
B9
  8
DETAIL
  6
DASHED
 62
     5
 10
155.894316
 20
-57.999972999999997
 30
0.0
 11
155.894316
 21
-57.999972999999997
 31
0.0
  0
LINE
  5
BA
  8
DETAIL
  6
CONTINUOUS
 62
     5
 10
150.77780300000001
 20
-20.017178999999999
 30
0.0
 11
119.7711179999999
 21
-20.017178999999999
 31
0.0
  0
LINE
  5
BB
  8
DETAIL
  6
CONTINUOUS
 62
     5
 10
151.06342100000001
 20
-23.085360999999988
 30
0.0
 11
119.7711179999999
 21
-23.085360999999988
 31
0.0
  0
ARC
  5
BC
  8
DETAIL
  6
CONTINUOUS
 62
     5
 10
91.033995000000004
 20
-12.40909199999999
 30
0.0
 40
2.5568169999999979
 50
0.0
 51
79.746976000000004
  0
ARC
  5
BD
  8
DETAIL
  6
CONTINUOUS
 62
     5
 39
50.0
 10
-177.20372800000001
 20
-6.579368999999998
 30
0.0
 40
7.1610769999999988
 50
155.5020199999999
 51
208.53310300000001
  0
ARC
  5
BE
  8
DETAIL
  6
CONTINUOUS
 62
     5
 39
50.0
 10
-183.11401000000001
 20
-1.794448
 30
0.0
 40
1.889395999999999
 50
108.238862
 51
267.39939600000002
  0
LINE
  5
BF
  8
DETAIL
  6
CONTINUOUS
 62
     5
 10
-95.258639000000002
 20
-9.7158709999999981
 30
0.0
 11
-183.49503000000001
 21
-9.9999749999999992
 31
0.0
  0
LINE
  5
C0
  8
DETAIL
  6
CONTINUOUS
 62
     5
 10
-119.7485499999999
 20
-20.082305999999999
 30
0.0
 11
-119.7485499999999
 21
-23.150487999999999
 31
0.0
  0
ARC
  5
C1
  8
DETAIL
  6
CONTINUOUS
 62
     5
 10
-130.09662399999991
 20
-26.218669999999989
 30
0.0
 40
3.0681820000000002
 50
90.0
 51
180.0
  0
ARC
  5
C2
  8
DETAIL
  6
CONTINUOUS
 62
     5
 10
-151.040852
 20
-26.218669999999989
 30
0.0
 40
3.0681820000000002
 50
90.0
 51
180.0
  0
LINE
  5
C3
  8
DETAIL
  6
CONTINUOUS
 62
     5
 10
-137.341701
 20
-20.082305999999999
 30
0.0
 11
-137.341701
 21
-23.150487999999999
 31
0.0
  0
LINE
  5
C4
  8
DETAIL
  6
CONTINUOUS
 62
     5
 10
-140.19046399999991
 20
-20.082305999999999
 30
0.0
 11
-140.19046399999991
 21
-23.150487999999999
 31
0.0
  0
LINE
  5
C5
  8
DETAIL
  6
CONTINUOUS
 62
     5
 10
-151.040852
 20
-23.150487999999999
 30
0.0
 11
-119.7485499999999
 21
-23.150487999999999
 31
0.0
  0
ARC
  5
C6
  8
DETAIL
  6
CONTINUOUS
 62
     5
 10
-146.2137689999999
 20
-17.840707999999999
 30
0.0
 40
2.5568169999999979
 50
180.0
 51
236.575154
  0
ARC
  5
C7
  8
DETAIL
  6
CONTINUOUS
 62
     5
 10
-149.43738400000001
 20
-26.161670000000001
 30
0.0
 40
6.1363629999999993
 50
90.0
 51
180.0
  0
LINE
  5
C8
  8
DETAIL
  6
CONTINUOUS
 62
     5
 10
-149.43738400000001
 20
-20.025307000000002
 30
0.0
 11
-146.2137689999999
 21
-20.025307000000002
 31
0.0
  0
ARC
  5
C9
  8
DETAIL
  6
CONTINUOUS
 62
     5
 10
-149.43738400000001
 20
-26.161670000000001
 30
0.0
 40
6.1363629999999993
 50
90.0
 51
180.0
  0
LINE
  5
CA
  8
DETAIL
  6
CONTINUOUS
 62
     5
 10
-149.43738400000001
 20
-20.025307000000002
 30
0.0
 11
-146.2137689999999
 21
-20.025307000000002
 31
0.0
  0
LINE
  5
CB
  8
DETAIL
  6
CONTINUOUS
 62
     5
 10
-155.5708709999999
 20
-57.942987999999993
 30
0.0
 11
-155.5708709999999
 21
-27.261177
 31
0.0
  0
LINE
  5
CC
  8
DETAIL
  6
CONTINUOUS
 62
     5
 10
-155.5708709999999
 20
-57.942987999999993
 30
0.0
 11
-155.57374799999991
 21
-26.161670000000001
 31
0.0
  0
ARC
  5
CD
  8
DETAIL
  6
CONTINUOUS
 62
     5
 10
-151.53807900000001
 20
-12.814341000000001
 30
0.0
 40
2.7688540000000001
 50
1.8059460000000001
 51
85.813474999999968
  0
LINE
  5
CE
  8
DETAIL
  6
CONTINUOUS
 62
     5
 10
-155.01261700000001
 20
-58.59497300000001
 30
0.0
 11
-155.37832399999999
 21
-58.960774000000001
 31
0.0
  0
LINE
  5
CF
  8
DETAIL
  6
CONTINUOUS
 62
     5
 10
-148.77059299999991
 20
-12.727081999999999
 30
0.0
 11
-148.77059299999991
 21
-17.840707999999999
 31
0.0
  0
LINE
  5
D0
  8
DETAIL
  6
CONTINUOUS
 62
     5
 10
-146.2137689999999
 20
-20.025307000000002
 30
0.0
 11
-119.7485499999999
 21
-20.082305999999999
 31
0.0
  0
LINE
  5
D1
  8
DETAIL
  6
CONTINUOUS
 62
     5
 10
-183.49503000000001
 20
-9.9999749999999992
 30
0.0
 11
-171.295511
 21
-10.22725
 31
0.0
  0
ARC
  5
D2
  8
DETAIL
  6
CONTINUOUS
 62
     5
 10
-171.295511
 20
-12.784074
 30
0.0
 40
2.5568169999999979
 50
0.0
 51
89.999981000000005
  0
LINE
  5
D3
  8
DETAIL
  6
CONTINUOUS
 62
     5
 10
-168.6927639999999
 20
-17.414657999999999
 30
0.0
 11
-168.738686
 21
-12.784074
 31
0.0
  0
ARC
  5
D4
  8
DETAIL
  6
CONTINUOUS
 62
     5
 10
-166.1359459999999
 20
-17.414657999999999
 30
0.0
 40
2.5568169999999979
 50
180.0
 51
270.0
  0
LINE
  5
D5
  8
DETAIL
  6
CONTINUOUS
 62
     5
 39
50.0
 10
6.526844999999998
 20
-132.954554
 30
0.0
 11
-89.562011999999982
 21
-132.954554
 31
0.0
  0
LINE
  5
D6
  8
DETAIL
  6
CONTINUOUS
 62
     5
 39
50.0
 10
0.01416
 20
-127.5454469999999
 30
0.0
 11
-53.959434000000002
 21
-127.5454469999999
 31
0.0
  0
LINE
  5
D7
  8
DETAIL
  6
CONTINUOUS
 62
     5
 10
47.393988999999998
 20
-96.092779000000021
 30
0.0
 11
47.393988999999998
 21
-68.741150000000005
 31
0.0
  0
LINE
  5
D8
  8
DETAIL
  6
CONTINUOUS
 62
     5
 10
-44.60131899999999
 20
-96.092779000000021
 30
0.0
 11
-44.60131899999999
 21
-68.741150000000005
 31
0.0
  0
LINE
  5
D9
  8
DETAIL
  6
CONTINUOUS
 62
     5
 10
59.722456999999991
 20
-100.52628799999979
 30
0.0
 11
-67.740921
 21
-100.52628799999979
 31
0.0
  0
LINE
  5
DA
  8
DETAIL
  6
CONTINUOUS
 62
     5
 10
-67.740921
 20
-96.092779000000021
 30
0.0
 11
59.722456999999991
 21
-96.092779000000021
 31
0.0
  0
LINE
  5
DB
  8
DETAIL
  6
CONTINUOUS
 62
     5
 10
59.722456999999991
 20
-98.309533000000002
 30
0.0
 11
-67.740921
 21
-98.309533000000002
 31
0.0
  0
LINE
  5
DC
  8
DETAIL
  6
CONTINUOUS
 62
     5
 10
-79.101787000000002
 20
-100.52628799999979
 30
0.0
 11
71.083324000000005
 21
-100.52628799999979
 31
0.0
  0
LINE
  5
DD
  8
DETAIL
  6
CONTINUOUS
 62
     5
 10
-79.101787000000002
 20
-100.52628799999979
 30
0.0
 11
-79.101787000000002
 21
-106.0681739999999
 31
0.0
  0
LINE
  5
DE
  8
DETAIL
  6
CONTINUOUS
 62
     5
 10
-67.740921
 20
-100.52628799999979
 30
0.0
 11
-67.740921
 21
-96.092779000000021
 31
0.0
  0
LINE
  5
DF
  8
DETAIL
  6
CONTINUOUS
 62
     5
 10
59.722456999999991
 20
-100.52628799999979
 30
0.0
 11
59.722456999999991
 21
-96.092779000000021
 31
0.0
  0
LINE
  5
E0
  8
DETAIL
  6
CONTINUOUS
 62
     5
 10
71.083324000000005
 20
-106.0681739999999
 30
0.0
 11
71.083324000000005
 21
-100.52628799999979
 31
0.0
  0
LINE
  5
E1
  8
DETAIL
  6
CONTINUOUS
 62
     5
 10
50.337705
 20
-62.090867000000003
 30
0.0
 11
54.886186000000002
 21
-67.83172900000001
 31
0.0
  0
LINE
  5
E2
  8
DETAIL
  6
CONTINUOUS
 62
     5
 10
-56.920229999999989
 20
-62.090770999999997
 30
0.0
 11
-70.554074999999997
 21
-67.83165799999999
 31
0.0
  0
LINE
  5
E3
  8
DETAIL
  6
CONTINUOUS
 62
     5
 10
-84.246433999999994
 20
-73.215103999999982
 30
0.0
 11
-97.522077999999993
 21
-78.241021000000003
 31
0.0
  0
LINE
  5
E4
  8
DETAIL
  6
CONTINUOUS
 62
     5
 10
-84.54133299999998
 20
-66.874781999999996
 30
0.0
 11
-95.579378000000005
 21
-73.109853999999984
 31
0.0
  0
LINE
  5
E5
  8
DETAIL
  6
CONTINUOUS
 62
     5
 10
-76.059861999999981
 20
-62.090887000000002
 30
0.0
 11
-84.541331999999997
 21
-66.874917999999994
 31
0.0
  0
LINE
  5
E6
  8
DETAIL
  6
CONTINUOUS
 62
     5
 10
-70.554073999999986
 20
-67.831665000000001
 30
0.0
 11
-84.246433999999994
 21
-73.215147999999999
 31
0.0
  0
LINE
  5
E7
  8
DETAIL
  6
CONTINUOUS
 62
     5
 10
-19.139841000000001
 20
-66.874898999999999
 30
0.0
 11
0.031224
 21
-73.109945999999979
 31
0.0
  0
LINE
  5
E8
  8
DETAIL
  6
CONTINUOUS
 62
     5
 10
37.979376999999999
 20
-62.090887000000002
 30
0.0
 11
-37.951056000000001
 21
-62.090887000000002
 31
0.0
  0
LINE
  5
E9
  8
DETAIL
  6
CONTINUOUS
 62
     5
 10
-19.139837
 20
-66.874917999999994
 30
0.0
 11
-30.725742999999991
 21
-62.090887000000002
 31
0.0
  0
ARC
  5
EA
  8
DETAIL
  6
CONTINUOUS
 62
     5
 10
-37.951056000000001
 20
-68.741150000000005
 30
0.0
 40
6.6502629999999989
 50
90.0
 51
180.0
  0
LINE
  5
EB
  8
DETAIL
  6
CONTINUOUS
 62
     5
 10
34.947764999999997
 20
-79.806640000000002
 30
0.0
 11
32.183416999999992
 21
-79.806640000000002
 31
0.0
  0
LINE
  5
EC
  8
DETAIL
  6
CONTINUOUS
 62
     5
 10
0.03117
 20
-73.109962999999979
 30
0.0
 11
19.202206
 21
-78.00973399999998
 31
0.0
  0
LINE
  5
ED
  8
DETAIL
  6
CONTINUOUS
 62
     5
 10
19.202209
 20
-78.009742000000003
 30
0.0
 11
37.790717999999998
 21
-81.647743999999975
 31
0.0
  0
LINE
  5
EE
  8
DETAIL
  6
CONTINUOUS
 62
     5
 10
4.8728319999999981
 20
-67.831746999999993
 30
0.0
 11
-4.212514999999998
 21
-62.090887000000002
 31
0.0
  0
LINE
  5
EF
  8
DETAIL
  6
CONTINUOUS
 62
     5
 10
30.217428000000002
 20
-78.241072000000003
 30
0.0
 11
4.8728369999999988
 21
-67.831676000000002
 31
0.0
  0
ARC
  5
F0
  8
DETAIL
  6
CONTINUOUS
 62
     5
 10
40.743726000000002
 20
-68.741150000000005
 30
0.0
 40
6.6502629999999989
 50
0.0
 51
90.0
  0
LINE
  5
F1
  8
DETAIL
  6
CONTINUOUS
 62
     5
 10
45.971693000000002
 20
-82.898954000000003
 30
0.0
 11
30.217428000000002
 21
-78.241072000000003
 31
0.0
  0
LINE
  5
F2
  8
DETAIL
  6
CONTINUOUS
 62
     5
 10
37.790717000000001
 20
-81.647812999999985
 30
0.0
 11
45.971688999999991
 21
-82.899034
 31
0.0
  0
LINE
  5
F3
  8
DETAIL
  6
CONTINUOUS
 62
     5
 10
84.75312599999998
 20
-73.109975000000006
 30
0.0
 11
60.107346999999997
 21
-81.647721999999987
 31
0.0
  0
LINE
  5
F4
  8
DETAIL
  6
CONTINUOUS
 62
     5
 10
57.041283999999997
 20
-73.215131999999983
 30
0.0
 11
56.509576000000003
 21
-78.241039000000001
 31
0.0
  0
LINE
  5
F5
  8
DETAIL
  6
CONTINUOUS
 62
     5
 10
54.88615799999998
 20
-67.831768000000011
 30
0.0
 11
57.041311
 21
-73.215137999999982
 31
0.0
  0
LINE
  5
F6
  8
DETAIL
  6
CONTINUOUS
 62
     5
 10
56.50954200000001
 20
-78.241008999999977
 30
0.0
 11
53.111837999999999
 21
-82.898883999999981
 31
0.0
  0
LINE
  5
F7
  8
DETAIL
  6
CONTINUOUS
 62
     5
 10
60.107344999999981
 20
-81.647676000000004
 30
0.0
 11
53.111795999999998
 21
-82.89887299999998
 31
0.0
  0
LINE
  5
F8
  8
DETAIL
  6
CONTINUOUS
 62
     5
 10
92.886058000000006
 20
-66.874965000000003
 30
0.0
 11
84.753145000000004
 21
-73.110037000000005
 31
0.0
  0
LINE
  5
F9
  8
DETAIL
  6
CONTINUOUS
 62
     5
 10
92.886189000000016
 20
-66.874938
 30
0.0
 11
95.990639000000002
 21
-62.090887000000002
 31
0.0
  0
LINE
  5
FA
  8
DETAIL
  6
CONTINUOUS
 62
     5
 10
-103.7123439999999
 20
-78.009715999999983
 30
0.0
 11
-108.6931399999999
 21
-81.647672
 31
0.0
  0
LINE
  5
FB
  8
DETAIL
  6
CONTINUOUS
 62
     5
 10
-95.579374999999985
 20
-73.109960000000001
 30
0.0
 11
-103.712349
 21
-78.009709999999998
 31
0.0
  0
LINE
  5
FC
  8
DETAIL
  6
CONTINUOUS
 62
     5
 10
-97.522077999999993
 20
-78.240989999999982
 30
0.0
 11
-109.878584
 21
-82.898871999999983
 31
0.0
  0
LINE
  5
FD
  8
DETAIL
  6
CONTINUOUS
 62
     5
 10
-79.101787000000002
 20
-106.0681739999999
 30
0.0
 11
71.083324000000005
 21
-106.0681739999999
 31
0.0
  0
LINE
  5
FE
  8
OUTLINE
  6
CONTINUOUS
 62
     3
 39
50.0
 10
6.5268439999999988
 20
-132.954554
 30
0.0
 11
-89.562011999999982
 21
-132.954554
 31
0.0
  0
LINE
  5
FF
  8
OUTLINE
  6
CONTINUOUS
 62
     3
 10
183.705353
 20
-0.000024
 30
0.0
 11
-183.705353
 21
0.000024
 31
0.0
  0
LINE
  5
100
  8
OUTLINE
  6
CONTINUOUS
 62
     3
 10
-166.179362
 20
-19.971475999999999
 30
0.0
 11
166.20768200000001
 21
-20.028475
 31
0.0
  0
LINE
  5
101
  8
OUTLINE
  6
CONTINUOUS
 62
     3
 10
-45.088101999999999
 20
-127.5454469999999
 30
0.0
 11
53.987754000000002
 21
-127.5454469999999
 31
0.0
  0
LINE
  5
102
  8
OUTLINE
  6
CONTINUOUS
 62
     3
 10
180.73662400000001
 20
-9.7860530000000008
 30
0.0
 11
0.01416
 21
-9.9999749999999992
 31
0.0
  0
LINE
  5
103
  8
OUTLINE
  6
CONTINUOUS
 62
     3
 10
4.2400120000000001
 20
-134.99997500000001
 30
0.0
 11
0.01416
 21
-134.99997500000001
 31
0.0
  0
ARC
  5
104
  8
OUTLINE
  6
CONTINUOUS
 62
     3
 10
-155.3863579999998
 20
-60.168725999999999
 30
0.0
 40
2.2333729999999981
 50
94.738971000000006
 51
176.83537499999991
  0
LINE
  5
105
  8
OUTLINE
  6
CONTINUOUS
 62
     3
 10
-154.10903400000001
 20
-26.218669999999989
 30
0.0
 11
-154.10615799999999
 21
-65.159083999999993
 31
0.0
  0
LINE
  5
106
  8
OUTLINE
  6
CONTINUOUS
 62
     3
 39
50.0
 10
0.01416
 20
-127.5454469999999
 30
0.0
 11
-53.959434999999999
 21
-127.5454469999999
 31
0.0
  0
ARC
  5
107
  8
OUTLINE
  6
CONTINUOUS
 62
     3
 39
50.0
 10
-86.676535000000001
 20
-125.081181
 30
0.0
 40
8.3854629999999961
 50
226.33045999999999
 51
249.8728439999999
  0
LINE
  5
108
  8
OUTLINE
  6
CONTINUOUS
 62
     3
 10
-99.651166000000003
 20
-131.1408449999999
 30
0.0
 11
-110.618135
 21
-129.86350300000001
 31
0.0
  0
LINE
  5
109
  8
OUTLINE
  6
CONTINUOUS
 62
     3
 10
-110.618135
 20
-129.86350300000001
 30
0.0
 11
-121.16364899999979
 21
-126.080564
 31
0.0
  0
LINE
  5
10A
  8
OUTLINE
  6
CONTINUOUS
 62
     3
 10
-121.16364899999979
 20
-126.080564
 30
0.0
 11
-130.8824509999998
 21
-119.937405
 31
0.0
  0
LINE
  5
10B
  8
OUTLINE
  6
CONTINUOUS
 62
     3
 10
-130.8824509999998
 20
-119.937405
 30
0.0
 11
-139.40105199999991
 21
-111.6701029999999
 31
0.0
  0
LINE
  5
10C
  8
OUTLINE
  6
CONTINUOUS
 62
     3
 10
-139.40105199999991
 20
-111.6701029999999
 30
0.0
 11
-146.392088
 21
-101.596367
 31
0.0
  0
LINE
  5
10D
  8
OUTLINE
  6
CONTINUOUS
 62
     3
 10
-146.392088
 20
-101.596367
 30
0.0
 11
-151.58689599999991
 21
-90.103324000000015
 31
0.0
  0
LINE
  5
10E
  8
OUTLINE
  6
CONTINUOUS
 62
     3
 10
-151.58689599999991
 20
-90.103324000000015
 30
0.0
 11
-154.785842
 21
-77.63264599999998
 31
0.0
  0
LINE
  5
10F
  8
OUTLINE
  6
CONTINUOUS
 62
     3
 10
-154.785842
 20
-77.63264599999998
 30
0.0
 11
-155.865995
 21
-64.663573999999997
 31
0.0
  0
LINE
  5
110
  8
OUTLINE
  6
CONTINUOUS
 62
     3
 10
-99.651166000000003
 20
-131.1408449999999
 30
0.0
 11
-110.618135
 21
-129.86350300000001
 31
0.0
  0
LINE
  5
111
  8
OUTLINE
  6
CONTINUOUS
 62
     3
 10
-110.618135
 20
-129.86350300000001
 30
0.0
 11
-121.16364899999979
 21
-126.080564
 31
0.0
  0
LINE
  5
112
  8
OUTLINE
  6
CONTINUOUS
 62
     3
 10
-121.16364899999979
 20
-126.080564
 30
0.0
 11
-130.8824509999998
 21
-119.937405
 31
0.0
  0
LINE
  5
113
  8
OUTLINE
  6
CONTINUOUS
 62
     3
 10
-130.8824509999998
 20
-119.937405
 30
0.0
 11
-139.40105199999991
 21
-111.6701029999999
 31
0.0
  0
LINE
  5
114
  8
OUTLINE
  6
CONTINUOUS
 62
     3
 10
-139.40105199999991
 20
-111.6701029999999
 30
0.0
 11
-146.392088
 21
-101.596367
 31
0.0
  0
LINE
  5
115
  8
OUTLINE
  6
CONTINUOUS
 62
     3
 10
-146.392088
 20
-101.596367
 30
0.0
 11
-151.58689599999991
 21
-90.103324000000015
 31
0.0
  0
LINE
  5
116
  8
OUTLINE
  6
CONTINUOUS
 62
     3
 10
-151.58689599999991
 20
-90.103324000000015
 30
0.0
 11
-154.785842
 21
-77.63264599999998
 31
0.0
  0
LINE
  5
117
  8
OUTLINE
  6
CONTINUOUS
 62
     3
 10
-154.785842
 20
-77.63264599999998
 30
0.0
 11
-155.865995
 21
-64.663573999999997
 31
0.0
  0
LINE
  5
118
  8
OUTLINE
  6
CONTINUOUS
 62
     3
 10
-154.10615799999999
 20
-64.663573999999997
 30
0.0
 11
-153.05982
 21
-77.63264599999998
 31
0.0
  0
LINE
  5
119
  8
OUTLINE
  6
CONTINUOUS
 62
     3
 10
-153.05982
 20
-77.63264599999998
 30
0.0
 11
-149.96101799999991
 21
-90.103324000000015
 31
0.0
  0
LINE
  5
11A
  8
OUTLINE
  6
CONTINUOUS
 62
     3
 10
-149.96101799999991
 20
-90.103324000000015
 30
0.0
 11
-144.92883699999999
 21
-101.596367
 31
0.0
  0
LINE
  5
11B
  8
OUTLINE
  6
CONTINUOUS
 62
     3
 10
-144.92883699999999
 20
-101.596367
 30
0.0
 11
-138.15665999999999
 21
-111.6701029999999
 31
0.0
  0
LINE
  5
11C
  8
OUTLINE
  6
CONTINUOUS
 62
     3
 10
-138.15665999999999
 20
-111.6701029999999
 30
0.0
 11
-129.9047379999999
 21
-119.937405
 31
0.0
  0
LINE
  5
11D
  8
OUTLINE
  6
CONTINUOUS
 62
     3
 10
-129.9047379999999
 20
-119.937405
 30
0.0
 11
-120.4901889999999
 21
-126.080564
 31
0.0
  0
LINE
  5
11E
  8
OUTLINE
  6
CONTINUOUS
 62
     3
 10
-120.4901889999999
 20
-126.080564
 30
0.0
 11
-110.27480799999999
 21
-129.86350300000001
 31
0.0
  0
LINE
  5
11F
  8
OUTLINE
  6
CONTINUOUS
 62
     3
 10
-110.27480799999999
 20
-129.86350300000001
 30
0.0
 11
-99.651166000000003
 21
-131.1408449999999
 31
0.0
  0
ARC
  5
120
  8
OUTLINE
  6
CONTINUOUS
 62
     3
 10
-155.57087200000001
 20
-60.045432999999989
 30
0.0
 40
1.5340910000000001
 50
69.282811999999993
 51
270.92897799999992
  0
LINE
  5
121
  8
OUTLINE
  6
CONTINUOUS
 62
     3
 10
-155.01261700000001
 20
-58.59497300000001
 30
0.0
 11
-155.37832399999999
 21
-58.960774000000001
 31
0.0
  0
ARC
  5
122
  8
OUTLINE
  6
CONTINUOUS
 62
     3
 10
-155.57087200000001
 20
-60.045432999999989
 30
0.0
 40
2.0454539999999981
 50
180.0
 51
270.0
  0
LINE
  5
123
  8
OUTLINE
  6
CONTINUOUS
 62
     3
 10
-155.57087200000001
 20
-62.090887000000002
 30
0.0
 11
-155.57087200000001
 21
-65.102085000000002
 31
0.0
  0
LINE
  5
124
  8
OUTLINE
  6
CONTINUOUS
 62
     3
 10
-155.57087200000001
 20
-62.090887000000002
 30
0.0
 11
-155.57087200000001
 21
-65.102085000000002
 31
0.0
  0
LINE
  5
125
  8
OUTLINE
  6
CONTINUOUS
 62
     3
 10
-99.651166000000003
 20
-131.1408449999999
 30
0.0
 11
-56.003883999999992
 21
-131.14084600000001
 31
0.0
  0
LINE
  5
126
  8
OUTLINE
  6
CONTINUOUS
 62
     3
 10
-4.2116930000000004
 20
-134.99997500000001
 30
0.0
 11
0.01416
 21
-134.99997500000001
 31
0.0
  0
ARC
  5
127
  8
OUTLINE
  6
CONTINUOUS
 62
     3
 10
-56.004888999999999
 20
-129.0953919999998
 30
0.0
 40
2.0454539999999981
 50
270.0
 51
0.0
  0
LINE
  5
128
  8
OUTLINE
  6
CONTINUOUS
 62
     3
 10
-6.0412220000000003
 20
-133.86931299999981
 30
0.0
 11
-6.447410999999998
 21
-132.954554
 31
0.0
  0
ARC
  5
129
  8
OUTLINE
  6
CONTINUOUS
 62
     3
 10
-4.2116930000000004
 20
-132.95455100000001
 30
0.0
 40
2.045455
 50
206.565045
 51
270.00007199999999
  0
LINE
  5
12A
  8
OUTLINE
  6
CONTINUOUS
 62
     3
 10
-53.959434999999999
 20
-127.5454469999999
 30
0.0
 11
-53.959434999999999
 21
-129.0953919999998
 31
0.0
  0
ARC
  5
12B
  8
OUTLINE
  6
CONTINUOUS
 62
     3
 39
50.0
 10
-183.11401000000001
 20
-1.794448
 30
0.0
 40
1.889395999999999
 50
108.238862
 51
267.39939600000002
  0
ARC
  5
12C
  8
OUTLINE
  6
CONTINUOUS
 62
     3
 39
50.0
 10
-177.20372900000001
 20
-6.579368999999998
 30
0.0
 40
7.1610769999999988
 50
155.5020199999999
 51
208.53310300000001
  0
LINE
  5
12D
  8
OUTLINE
  6
CONTINUOUS
 62
     3
 10
-95.258639000000002
 20
-9.7158709999999981
 30
0.0
 11
-183.49503000000001
 21
-9.9999749999999992
 31
0.0
  0
LINE
  5
12E
  8
OUTLINE
  6
CONTINUOUS
 62
     3
 10
-183.49503000000001
 20
-9.9999749999999992
 30
0.0
 11
-171.295511
 21
-10.22725
 31
0.0
  0
ARC
  5
12F
  8
OUTLINE
  6
CONTINUOUS
 62
     3
 10
-166.1359469999999
 20
-17.414657999999999
 30
0.0
 40
2.5568169999999979
 50
180.0
 51
270.0
  0
LINE
  5
130
  8
OUTLINE
  6
CONTINUOUS
 62
     3
 10
-168.6927639999999
 20
-17.414657999999999
 30
0.0
 11
-168.738687
 21
-12.784074
 31
0.0
  0
ARC
  5
131
  8
OUTLINE
  6
CONTINUOUS
 62
     3
 10
-171.295511
 20
-12.784074
 30
0.0
 40
2.5568169999999979
 50
0.0
 51
89.999981000000005
  0
LINE
  5
132
  8
OUTLINE
  6
CONTINUOUS
 62
     3
 10
-140.19046399999991
 20
-20.082305999999999
 30
0.0
 11
-140.19046399999991
 21
-23.150487999999999
 31
0.0
  0
LINE
  5
133
  8
OUTLINE
  6
CONTINUOUS
 62
     3
 10
-137.341701
 20
-20.082305999999999
 30
0.0
 11
-137.341701
 21
-23.150487999999999
 31
0.0
  0
LINE
  5
134
  8
OUTLINE
  6
CONTINUOUS
 62
     3
 10
-119.7485499999999
 20
-20.082305999999999
 30
0.0
 11
-119.7485499999999
 21
-23.150487999999999
 31
0.0
  0
LINE
  5
135
  8
OUTLINE
  6
CONTINUOUS
 62
     3
 10
-151.040853
 20
-23.150487999999999
 30
0.0
 11
-119.7485499999999
 21
-23.150487999999999
 31
0.0
  0
LINE
  5
136
  8
OUTLINE
  6
CONTINUOUS
 62
     3
 10
-146.2137689999999
 20
-20.025307000000002
 30
0.0
 11
-119.7485499999999
 21
-20.082305999999999
 31
0.0
  0
LINE
  5
137
  8
OUTLINE
  6
CONTINUOUS
 62
     3
 10
-148.77059299999991
 20
-12.727081999999999
 30
0.0
 11
-148.77059299999991
 21
-17.840707999999999
 31
0.0
  0
LINE
  5
138
  8
OUTLINE
  6
CONTINUOUS
 62
     3
 10
-149.43738500000001
 20
-20.025307000000002
 30
0.0
 11
-146.2137689999999
 21
-20.025307000000002
 31
0.0
  0
LINE
  5
139
  8
OUTLINE
  6
CONTINUOUS
 62
     3
 10
-149.43738500000001
 20
-20.025307000000002
 30
0.0
 11
-146.2137689999999
 21
-20.025307000000002
 31
0.0
  0
ARC
  5
13A
  8
OUTLINE
  6
CONTINUOUS
 62
     3
 10
-146.2137689999999
 20
-17.840707999999999
 30
0.0
 40
2.5568169999999979
 50
180.0
 51
236.575154
  0
ARC
  5
13B
  8
OUTLINE
  6
CONTINUOUS
 62
     3
 10
-149.43738500000001
 20
-26.161670000000001
 30
0.0
 40
6.1363629999999993
 50
90.0
 51
180.0
  0
ARC
  5
13C
  8
OUTLINE
  6
CONTINUOUS
 62
     3
 10
-149.43738500000001
 20
-26.161670000000001
 30
0.0
 40
6.1363629999999993
 50
90.0
 51
180.0
  0
ARC
  5
13D
  8
OUTLINE
  6
CONTINUOUS
 62
     3
 10
-151.040853
 20
-26.218669999999989
 30
0.0
 40
3.0681820000000002
 50
90.0
 51
180.0
  0
ARC
  5
13E
  8
OUTLINE
  6
CONTINUOUS
 62
     3
 10
-151.53808000000001
 20
-12.814341000000001
 30
0.0
 40
2.7688540000000001
 50
1.8059460000000001
 51
85.813474999999968
  0
LINE
  5
13F
  8
OUTLINE
  6
CONTINUOUS
 62
     3
 10
-155.57087200000001
 20
-57.942987999999993
 30
0.0
 11
-155.57374799999991
 21
-26.161670000000001
 31
0.0
  0
LINE
  5
140
  8
OUTLINE
  6
CONTINUOUS
 62
     3
 10
-155.57087200000001
 20
-57.942987999999993
 30
0.0
 11
-155.57087200000001
 21
-27.261177
 31
0.0
  0
LINE
  5
141
  8
OUTLINE
  6
CONTINUOUS
 62
     3
 10
0.01416
 20
-9.9999749999999992
 30
0.0
 11
-95.255763000000002
 21
-9.9999749999999992
 31
0.0
  0
ARC
  5
142
  8
OUTLINE
  6
CONTINUOUS
 62
     3
 10
156.491433
 20
-60.045440999999997
 30
0.0
 40
2.0454539999999981
 50
0.0
 51
89.999981000000005
  0
LINE
  5
143
  8
OUTLINE
  6
CONTINUOUS
 62
     3
 10
155.89143899999991
 20
-25.130814999999998
 30
0.0
 11
155.89431499999981
 21
-65.159083999999993
 31
0.0
  0
LINE
  5
144
  8
OUTLINE
  6
CONTINUOUS
 62
     3
 10
154.13160199999999
 20
-26.153542000000002
 30
0.0
 11
154.134479
 21
-65.159083999999993
 31
0.0
  0
ARC
  5
145
  8
OUTLINE
  6
CONTINUOUS
 62
     3
 39
50.0
 10
58.558638999999999
 20
-127.2476579999999
 30
0.0
 40
4.5805749999999987
 50
183.727507
 51
253.085948
  0
ARC
  5
146
  8
OUTLINE
  6
CONTINUOUS
 62
     3
 39
50.0
 10
90.832865999999996
 20
-130.75875999999991
 30
0.0
 40
2.3707790000000002
 50
262.55089600000002
 51
333.735637
  0
LINE
  5
147
  8
OUTLINE
  6
CONTINUOUS
 62
     3
 10
154.134479
 20
-65.159083999999993
 30
0.0
 11
153.08814099999989
 21
-78.128156000000004
 31
0.0
  0
LINE
  5
148
  8
OUTLINE
  6
CONTINUOUS
 62
     3
 10
153.08814099999989
 20
-78.128156000000004
 30
0.0
 11
149.9893389999998
 21
-90.598833999999997
 31
0.0
  0
LINE
  5
149
  8
OUTLINE
  6
CONTINUOUS
 62
     3
 10
149.9893389999998
 20
-90.598833999999997
 30
0.0
 11
144.95715799999999
 21
-102.0918769999999
 31
0.0
  0
LINE
  5
14A
  8
OUTLINE
  6
CONTINUOUS
 62
     3
 10
144.95715799999999
 20
-102.0918769999999
 30
0.0
 11
138.18498099999999
 21
-112.16561299999979
 31
0.0
  0
LINE
  5
14B
  8
OUTLINE
  6
CONTINUOUS
 62
     3
 10
138.18498099999999
 20
-112.16561299999979
 30
0.0
 11
129.93305899999999
 21
-120.4329149999998
 31
0.0
  0
LINE
  5
14C
  8
OUTLINE
  6
CONTINUOUS
 62
     3
 10
129.93305899999999
 20
-120.4329149999998
 30
0.0
 11
120.51851000000001
 21
-126.57607400000001
 31
0.0
  0
LINE
  5
14D
  8
OUTLINE
  6
CONTINUOUS
 62
     3
 10
120.51851000000001
 20
-126.57607400000001
 30
0.0
 11
110.3031279999999
 21
-130.35901299999981
 31
0.0
  0
LINE
  5
14E
  8
OUTLINE
  6
CONTINUOUS
 62
     3
 10
110.3031279999999
 20
-130.35901299999981
 30
0.0
 11
99.679485999999983
 21
-131.63635500000001
 31
0.0
  0
LINE
  5
14F
  8
OUTLINE
  6
CONTINUOUS
 62
     3
 10
155.89431499999981
 20
-65.159083999999993
 30
0.0
 11
154.81416299999981
 21
-78.128156000000004
 31
0.0
  0
LINE
  5
150
  8
OUTLINE
  6
CONTINUOUS
 62
     3
 10
154.81416299999981
 20
-78.128156000000004
 30
0.0
 11
151.615216
 21
-90.598833999999997
 31
0.0
  0
LINE
  5
151
  8
OUTLINE
  6
CONTINUOUS
 62
     3
 10
151.615216
 20
-90.598833999999997
 30
0.0
 11
146.42040800000001
 21
-102.0918769999999
 31
0.0
  0
LINE
  5
152
  8
OUTLINE
  6
CONTINUOUS
 62
     3
 10
146.42040800000001
 20
-102.0918769999999
 30
0.0
 11
139.429373
 21
-112.16561299999979
 31
0.0
  0
LINE
  5
153
  8
OUTLINE
  6
CONTINUOUS
 62
     3
 10
139.429373
 20
-112.16561299999979
 30
0.0
 11
130.91077200000001
 21
-120.4329149999998
 31
0.0
  0
LINE
  5
154
  8
OUTLINE
  6
CONTINUOUS
 62
     3
 10
130.91077200000001
 20
-120.4329149999998
 30
0.0
 11
121.1919699999999
 21
-126.57607400000001
 31
0.0
  0
LINE
  5
155
  8
OUTLINE
  6
CONTINUOUS
 62
     3
 10
121.1919699999999
 20
-126.57607400000001
 30
0.0
 11
110.646455
 21
-130.35901299999981
 31
0.0
  0
LINE
  5
156
  8
OUTLINE
  6
CONTINUOUS
 62
     3
 10
110.646455
 20
-130.35901299999981
 30
0.0
 11
99.679485999999983
 21
-131.63635500000001
 31
0.0
  0
LINE
  5
157
  8
OUTLINE
  6
CONTINUOUS
 62
     3
 10
90.525505999999993
 20
-133.10953000000001
 30
0.0
 11
6.5268439999999988
 21
-132.954554
 31
0.0
  0
LINE
  5
158
  8
OUTLINE
  6
CONTINUOUS
 62
     3
 10
90.832339000000005
 20
-131.63635600000001
 30
0.0
 11
57.22598099999999
 21
-131.630088
 31
0.0
  0
LINE
  5
159
  8
OUTLINE
  6
CONTINUOUS
 62
     3
 10
6.0694850000000002
 20
-133.86930100000001
 30
0.0
 11
6.5268439999999988
 21
-132.954554
 31
0.0
  0
ARC
  5
15A
  8
OUTLINE
  6
CONTINUOUS
 62
     3
 10
4.2400120000000001
 20
-132.95455100000001
 30
0.0
 40
2.045455
 50
270.00001700000001
 51
333.434935
  0
LINE
  5
15B
  8
OUTLINE
  6
CONTINUOUS
 62
     3
 10
99.679485999999983
 20
-131.63635500000001
 30
0.0
 11
92.059612000000001
 21
-131.63635600000001
 31
0.0
  0
LINE
  5
15C
  8
OUTLINE
  6
DASHED
 62
     3
 10
90.832339000000005
 20
-131.63635600000001
 30
0.0
 11
92.059612000000001
 21
-131.63635600000001
 31
0.0
  0
LINE
  5
15D
  8
OUTLINE
  6
DASHED
 62
     3
 10
155.89431499999981
 20
-57.999972999999997
 30
0.0
 11
155.89431499999981
 21
-57.999972999999997
 31
0.0
  0
LINE
  5
15E
  8
OUTLINE
  6
CONTINUOUS
 62
     3
 10
155.89431499999981
 20
-57.999972999999997
 30
0.0
 11
156.491433
 21
-57.999972999999997
 31
0.0
  0
ARC
  5
15F
  8
OUTLINE
  6
CONTINUOUS
 62
     3
 10
156.491433
 20
-60.045440999999997
 30
0.0
 40
2.0454539999999981
 50
270.00001700000001
 51
0.0
  0
LINE
  5
160
  8
OUTLINE
  6
CONTINUOUS
 62
     3
 10
155.89431499999981
 20
-62.090887000000002
 30
0.0
 11
156.491433
 21
-62.090887000000002
 31
0.0
  0
ARC
  5
161
  8
OUTLINE
  6
CONTINUOUS
 62
     3
 10
91.033995000000004
 20
-12.40909199999999
 30
0.0
 40
2.5568169999999979
 50
0.0
 51
79.746976000000004
  0
LINE
  5
162
  8
OUTLINE
  6
CONTINUOUS
 62
     3
 10
93.590819999999994
 20
-17.522717
 30
0.0
 11
93.590819999999994
 21
-12.40909199999999
 31
0.0
  0
ARC
  5
163
  8
OUTLINE
  6
CONTINUOUS
 62
     3
 10
96.174486000000016
 20
-17.511599
 30
0.0
 40
2.5836830000000002
 50
180.24655799999999
 51
255.80166600000001
  0
LINE
  5
164
  8
OUTLINE
  6
CONTINUOUS
 62
     3
 10
137.36426900000001
 20
-20.017178999999999
 30
0.0
 11
137.36426900000001
 21
-23.085360999999988
 31
0.0
  0
LINE
  5
165
  8
OUTLINE
  6
CONTINUOUS
 62
     3
 10
119.7711179999999
 20
-20.017178999999999
 30
0.0
 11
119.7711179999999
 21
-23.085360999999988
 31
0.0
  0
ARC
  5
166
  8
OUTLINE
  6
CONTINUOUS
 62
     3
 10
172.05260899999999
 20
-13.088326999999991
 30
0.0
 40
3.3053809999999979
 50
94.833951999999996
 51
174.71857900000001
  0
LINE
  5
167
  8
OUTLINE
  6
CONTINUOUS
 62
     3
 10
168.80791599999981
 20
-17.471657999999991
 30
0.0
 11
168.76125300000001
 21
-12.784074
 31
0.0
  0
ARC
  5
168
  8
OUTLINE
  6
CONTINUOUS
 62
     3
 10
166.25109900000001
 20
-17.471657999999991
 30
0.0
 40
2.5568169999999979
 50
269.99996299999992
 51
0.0
  0
ARC
  5
169
  8
OUTLINE
  6
CONTINUOUS
 62
     3
 10
150.77780300000001
 20
-25.130814999999998
 30
0.0
 40
5.1136359999999987
 50
0.0
 51
90.0
  0
LINE
  5
16A
  8
OUTLINE
  6
CONTINUOUS
 62
     3
 10
140.21303199999991
 20
-20.017178999999999
 30
0.0
 11
140.21303199999991
 21
-23.085360999999988
 31
0.0
  0
ARC
  5
16B
  8
OUTLINE
  6
CONTINUOUS
 62
     3
 10
151.06342000000001
 20
-26.153542000000002
 30
0.0
 40
3.0681820000000002
 50
0.0
 51
90.0
  0
LINE
  5
16C
  8
OUTLINE
  6
CONTINUOUS
 62
     3
 10
151.06342000000001
 20
-23.085360999999988
 30
0.0
 11
119.7711179999999
 21
-23.085360999999988
 31
0.0
  0
LINE
  5
16D
  8
OUTLINE
  6
CONTINUOUS
 62
     3
 10
150.77780300000001
 20
-20.017178999999999
 30
0.0
 11
119.7711179999999
 21
-20.017178999999999
 31
0.0
  0
ARC
  5
16E
  8
OUTLINE
  6
CONTINUOUS
 62
     3
 10
183.70512500000001
 20
-1.329569999999999
 30
0.0
 40
1.329545999999999
 50
349.90864099999988
 51
90.000036000000009
  0
ARC
  5
16F
  8
OUTLINE
  6
CONTINUOUS
 62
     3
 10
180.73543499999991
 20
-7.3437369999999982
 30
0.0
 40
2.442315999999999
 50
267.68830600000001
 51
6.3182910000000003
  0
LINE
  5
170
  8
OUTLINE
  6
CONTINUOUS
 62
     3
 10
183.16291499999991
 20
-7.0749570000000004
 30
0.0
 11
183.19374699999989
 21
-4.3978200000000003
 31
0.0
  0
ARC
  5
171
  8
OUTLINE
  6
CONTINUOUS
 62
     3
 10
183.90973199999999
 20
-3.6816309999999981
 30
0.0
 40
0.715909
 50
269.99996299999992
 51
349.89481599999982
  0
LINE
  5
172
  8
OUTLINE
  6
CONTINUOUS
 62
     3
 10
185.01416
 20
-1.5623959999999979
 30
0.0
 11
184.61453499999999
 21
-3.807240999999999
 31
0.0
  0
LINE
  5
173
  8
SIZE
  6
CONTINUOUS
 62
    30
 10
-205.55718400000001
 20
0.000025
 30
0.0
 11
-387.66199399999988
 21
0.000025
 31
0.0
  0
LINE
  5
174
  8
SIZE
  6
CONTINUOUS
 62
    30
 10
-196.573781
 20
-59.999974999999999
 30
0.0
 11
-387.66199399999988
 21
-59.999974999999999
 31
0.0
  0
LINE
  5
175
  8
SIZE
  6
CONTINUOUS
 62
    30
 10
-367.66199399999999
 20
12.000025000000001
 30
0.0
 11
-367.66199399999999
 21
24.000025000000001
 31
0.0
  0
LINE
  5
176
  8
SIZE
  6
CONTINUOUS
 62
    30
 10
-367.66199399999999
 20
-71.99997500000002
 30
0.0
 11
-367.66199399999999
 21
-83.999975000000006
 31
0.0
  0
LINE
  5
177
  8
SIZE
  6
CONTINUOUS
 62
    30
 10
-367.66199399999999
 20
184.93907400000001
 30
0.0
 11
-367.66199399999999
 21
0.000025
 31
0.0
  0
TEXT
  5
178
  8
SIZE
  6
CONTINUOUS
 62
    30
 10
-392.66199399999999
 20
66.681931571428578
 30
0.0
 40
64.0
  1
60
 50
90.0
 41
0.9
 72
     1
 11
-392.66199399999999
 21
113.310503
 31
0.0
  0
LINE
  5
179
  8
SIZE
  6
CONTINUOUS
 62
    30
 10
-367.66199399999999
 20
0.000025
 30
0.0
 11
-367.66199399999999
 21
-59.999974999999999
 31
0.0
  0
LINE
  5
17A
  8
SIZE
  6
CONTINUOUS
 62
    30
 10
-367.66199399999999
 20
0.000025
 30
0.0
 11
-367.66199399999999
 21
-59.999974999999999
 31
0.0
  0
CIRCLE
  5
17B
  8
SIZE
  6
CONTINUOUS
 62
    30
 10
-367.66199399999999
 20
0.000025
 30
0.0
 40
6.0
  0
LINE
  5
17C
  8
SIZE
  6
CONTINUOUS
 62
    30
 10
-367.66199399999999
 20
0.000025
 30
0.0
 11
-367.66199399999999
 21
12.000025000000001
 31
0.0
  0
CIRCLE
  5
17D
  8
SIZE
  6
CONTINUOUS
 62
    30
 10
-367.66199399999999
 20
-59.999974999999999
 30
0.0
 40
6.0
  0
LINE
  5
17E
  8
SIZE
  6
CONTINUOUS
 62
    30
 10
-367.66199399999999
 20
-59.999974999999999
 30
0.0
 11
-367.66199399999999
 21
-71.99997500000002
 31
0.0
  0
LINE
  5
182
  8
SIZE
  6
CONTINUOUS
 62
    30
 10
-205.50635600000001
 20
0.000025
 30
0.0
 11
-496.44282899999979
 21
0.000025
 31
0.0
  0
LINE
  5
183
  8
SIZE
  6
CONTINUOUS
 62
    30
 10
-166.9379499999998
 20
-134.99997500000001
 30
0.0
 11
-496.44282899999979
 21
-134.99997500000001
 31
0.0
  0
LINE
  5
184
  8
SIZE
  6
CONTINUOUS
 62
    30
 10
-476.44282900000002
 20
12.000025000000001
 30
0.0
 11
-476.44282900000002
 21
24.000025000000001
 31
0.0
  0
LINE
  5
185
  8
SIZE
  6
CONTINUOUS
 62
    30
 10
-476.44282900000002
 20
-146.99997500000001
 30
0.0
 11
-476.44282900000002
 21
-158.99997500000001
 31
0.0
  0
LINE
  5
186
  8
SIZE
  6
CONTINUOUS
 62
    30
 10
-476.44282900000002
 20
0.000025
 30
0.0
 11
-476.44282900000002
 21
-134.99997500000001
 31
0.0
  0
CIRCLE
  5
187
  8
SIZE
  6
CONTINUOUS
 62
    30
 10
-476.44282900000002
 20
0.000025
 30
0.0
 40
6.0
  0
LINE
  5
188
  8
SIZE
  6
CONTINUOUS
 62
    30
 10
-476.44282900000002
 20
0.000025
 30
0.0
 11
-476.44282900000002
 21
12.000025000000001
 31
0.0
  0
CIRCLE
  5
189
  8
SIZE
  6
CONTINUOUS
 62
    30
 10
-476.44282900000002
 20
-134.99997500000001
 30
0.0
 40
6.0
  0
LINE
  5
18A
  8
SIZE
  6
CONTINUOUS
 62
    30
 10
-476.44282900000002
 20
-134.99997500000001
 30
0.0
 11
-476.44282900000002
 21
-146.99997500000001
 31
0.0
  0
TEXT
  5
18B
  8
SIZE
  6
CONTINUOUS
 62
    30
 10
-501.44282900000002
 20
-136.0714035714285
 30
0.0
 40
64.0
  1
135
 50
90.0
 41
0.9
 72
     1
 11
-501.44282900000002
 21
-67.499975000000006
 31
0.0
  0
LINE
  5
18F
  8
SIZE
  6
CONTINUOUS
 62
    30
 10
-134.3316189999999
 20
0.000025
 30
0.0
 11
-249.7201759999999
 21
0.000025
 31
0.0
  0
LINE
  5
190
  8
SIZE
  6
CONTINUOUS
 62
    30
 10
-80.431186999999994
 20
-9.9999749999999992
 30
0.0
 11
-249.7201759999999
 21
-9.9999749999999992
 31
0.0
  0
LINE
  5
191
  8
SIZE
  6
CONTINUOUS
 62
    30
 10
-229.7201759999999
 20
12.000025000000001
 30
0.0
 11
-229.7201759999999
 21
24.000025000000001
 31
0.0
  0
LINE
  5
192
  8
SIZE
  6
CONTINUOUS
 62
    30
 10
-229.7201759999999
 20
-21.999974999999989
 30
0.0
 11
-229.7201759999999
 21
-33.999974999999999
 31
0.0
  0
LINE
  5
193
  8
SIZE
  6
CONTINUOUS
 62
    30
 10
-229.7201759999999
 20
159.63814099999999
 30
0.0
 11
-229.7201759999999
 21
0.000025
 31
0.0
  0
TEXT
  5
194
  8
SIZE
  6
CONTINUOUS
 62
    30
 10
-254.7201759999999
 20
52.352426857142859
 30
0.0
 40
64.0
  1
10
 50
90.0
 41
0.9
 72
     1
 11
-254.7201759999999
 21
93.495283999999998
 31
0.0
  0
LINE
  5
195
  8
SIZE
  6
CONTINUOUS
 62
    30
 10
-229.7201759999999
 20
0.000025
 30
0.0
 11
-229.7201759999999
 21
-9.9999749999999992
 31
0.0
  0
LINE
  5
196
  8
SIZE
  6
CONTINUOUS
 62
    30
 10
-229.7201759999999
 20
0.000025
 30
0.0
 11
-229.7201759999999
 21
-9.9999749999999992
 31
0.0
  0
CIRCLE
  5
197
  8
SIZE
  6
CONTINUOUS
 62
    30
 10
-229.7201759999999
 20
0.000025
 30
0.0
 40
6.0
  0
LINE
  5
198
  8
SIZE
  6
CONTINUOUS
 62
    30
 10
-229.7201759999999
 20
0.000025
 30
0.0
 11
-229.7201759999999
 21
12.000025000000001
 31
0.0
  0
CIRCLE
  5
199
  8
SIZE
  6
CONTINUOUS
 62
    30
 10
-229.7201759999999
 20
-9.9999749999999992
 30
0.0
 40
6.0
  0
LINE
  5
19A
  8
SIZE
  6
CONTINUOUS
 62
    30
 10
-229.7201759999999
 20
-9.9999749999999992
 30
0.0
 11
-229.7201759999999
 21
-21.999974999999989
 31
0.0
  0
LINE
  5
19E
  8
SIZE
  6
CONTINUOUS
 62
    30
 10
-200.423813
 20
-9.9999749999999992
 30
0.0
 11
-249.7201759999999
 21
-9.9999749999999992
 31
0.0
  0
LINE
  5
19F
  8
SIZE
  6
CONTINUOUS
 62
    30
 10
-167.69855200000001
 20
-19.999974999999999
 30
0.0
 11
-249.7201759999999
 21
-19.999974999999999
 31
0.0
  0
LINE
  5
1A0
  8
SIZE
  6
CONTINUOUS
 62
    30
 10
-229.7201759999999
 20
2.0000249999999991
 30
0.0
 11
-229.7201759999999
 21
14.000025000000001
 31
0.0
  0
LINE
  5
1A1
  8
SIZE
  6
CONTINUOUS
 62
    30
 10
-229.7201759999999
 20
-31.999974999999999
 30
0.0
 11
-229.7201759999999
 21
-43.999974999999999
 31
0.0
  0
LINE
  5
1A2
  8
SIZE
  6
CONTINUOUS
 62
    30
 10
-229.7201759999999
 20
-269.60791899999992
 30
0.0
 11
-229.7201759999999
 21
-19.999974999999999
 31
0.0
  0
TEXT
  5
1A3
  8
SIZE
  6
CONTINUOUS
 62
    30
 10
-254.7201759999999
 20
-244.6079191428571
 30
0.0
 40
64.0
  1
10
 50
90.0
 41
0.9
 72
     1
 11
-254.7201759999999
 21
-203.46506199999999
 31
0.0
  0
LINE
  5
1A4
  8
SIZE
  6
CONTINUOUS
 62
    30
 10
-229.7201759999999
 20
-9.9999749999999992
 30
0.0
 11
-229.7201759999999
 21
-19.999974999999999
 31
0.0
  0
LINE
  5
1A5
  8
SIZE
  6
CONTINUOUS
 62
    30
 10
-229.7201759999999
 20
-9.9999749999999992
 30
0.0
 11
-229.7201759999999
 21
-19.999974999999999
 31
0.0
  0
CIRCLE
  5
1A6
  8
SIZE
  6
CONTINUOUS
 62
    30
 10
-229.7201759999999
 20
-9.9999749999999992
 30
0.0
 40
6.0
  0
LINE
  5
1A7
  8
SIZE
  6
CONTINUOUS
 62
    30
 10
-229.7201759999999
 20
-9.9999749999999992
 30
0.0
 11
-229.7201759999999
 21
2.0000249999999991
 31
0.0
  0
CIRCLE
  5
1A8
  8
SIZE
  6
CONTINUOUS
 62
    30
 10
-229.7201759999999
 20
-19.999974999999999
 30
0.0
 40
6.0
  0
LINE
  5
1A9
  8
SIZE
  6
CONTINUOUS
 62
    30
 10
-229.7201759999999
 20
-19.999974999999999
 30
0.0
 11
-229.7201759999999
 21
-31.999974999999999
 31
0.0
  0
LINE
  5
1AD
  8
SIZE
  6
CONTINUOUS
 62
    30
 10
-184.98584
 20
3.4702850000000001
 30
0.0
 11
-184.98584
 21
383.43580099999991
 31
0.0
  0
LINE
  5
1AE
  8
SIZE
  6
CONTINUOUS
 62
    30
 10
185.01416
 20
5.847020999999998
 30
0.0
 11
185.01416
 21
383.43580099999991
 31
0.0
  0
LINE
  5
1AF
  8
SIZE
  6
CONTINUOUS
 62
    30
 10
-172.98583999999991
 20
363.43580099999991
 30
0.0
 11
173.01416
 21
363.43580099999991
 31
0.0
  0
CIRCLE
  5
1B0
  8
SIZE
  6
CONTINUOUS
 62
    30
 10
-184.98584
 20
363.43580099999991
 30
0.0
 40
6.0
  0
LINE
  5
1B1
  8
SIZE
  6
CONTINUOUS
 62
    30
 10
-184.98584
 20
363.43580099999991
 30
0.0
 11
-172.98583999999991
 21
363.43580099999991
 31
0.0
  0
CIRCLE
  5
1B2
  8
SIZE
  6
CONTINUOUS
 62
    30
 10
185.01416
 20
363.43580099999991
 30
0.0
 40
6.0
  0
LINE
  5
1B3
  8
SIZE
  6
CONTINUOUS
 62
    30
 10
185.01416
 20
363.43580099999991
 30
0.0
 11
173.01416
 21
363.43580099999991
 31
0.0
  0
TEXT
  5
1B4
  8
SIZE
  6
CONTINUOUS
 62
    30
 10
-74.042982857142846
 20
388.43580099999991
 30
0.0
 40
64.0
  1
370
 41
0.9
 72
     1
 11
0.01416
 21
388.43580099999991
 31
0.0
  0
LINE
  5
1B8
  8
OUTLINE
  6
CONTINUOUS
 62
     3
 39
50.0
 10
180.97575599999999
 20
0.0
 30
0.0
 11
-180.94743500000001
 21
0.0
 31
0.0
  0
LINE
  5
1B9
  8
SIZE
  6
CONTINUOUS
 62
    30
 10
-76.024244999999965
 20
40.0
 30
0.0
 11
-76.024244999999965
 21
90.938429000000014
 31
0.0
  0
LINE
  5
1BA
  8
SIZE
  6
CONTINUOUS
 62
    30
 10
83.975755000000007
 20
33.809033999999997
 30
0.0
 11
83.975755000000007
 21
90.938429000000014
 31
0.0
  0
LINE
  5
1BB
  8
SIZE
  6
CONTINUOUS
 62
    30
 10
-88.024244999999979
 20
70.938428999999999
 30
0.0
 11
-100.02424499999999
 21
70.938428999999999
 31
0.0
  0
LINE
  5
1BC
  8
SIZE
  6
CONTINUOUS
 62
    30
 10
95.975755000000007
 20
70.938428999999999
 30
0.0
 11
107.97575500000001
 21
70.938428999999999
 31
0.0
  0
LINE
  5
1BD
  8
SIZE
  6
CONTINUOUS
 62
    30
 10
-76.024244999999965
 20
70.938428999999999
 30
0.0
 11
83.975755000000007
 21
70.938428999999999
 31
0.0
  0
CIRCLE
  5
1BE
  8
SIZE
  6
CONTINUOUS
 62
    30
 10
-76.024244999999965
 20
70.938428999999999
 30
0.0
 40
6.0
  0
LINE
  5
1BF
  8
SIZE
  6
CONTINUOUS
 62
    30
 10
-76.024244999999965
 20
70.938428999999999
 30
0.0
 11
-88.024244999999979
 21
70.938428999999999
 31
0.0
  0
CIRCLE
  5
1C0
  8
SIZE
  6
CONTINUOUS
 62
    30
 10
83.975755000000007
 20
70.938428999999999
 30
0.0
 40
6.0
  0
LINE
  5
1C1
  8
SIZE
  6
CONTINUOUS
 62
    30
 10
83.975755000000007
 20
70.938428999999999
 30
0.0
 11
95.975755000000007
 21
70.938428999999999
 31
0.0
  0
TEXT
  5
1C2
  8
SIZE
  6
CONTINUOUS
 62
    30
 10
-64.595673571428549
 20
95.938429000000014
 30
0.0
 40
64.0
  1
160
 41
0.9
 72
     1
 11
3.975754999999999
 21
95.938429000000014
 31
0.0
  0
LINE
  5
1C6
  8
SIZE
  6
CONTINUOUS
 62
    30
 10
-161.02424500000001
 20
40.0
 30
0.0
 11
-161.02424500000001
 21
289.19121699999988
 31
0.0
  0
LINE
  5
1C7
  8
SIZE
  6
CONTINUOUS
 62
    30
 10
168.97575499999991
 20
40.0
 30
0.0
 11
168.97575499999991
 21
289.19121699999988
 31
0.0
  0
LINE
  5
1C8
  8
SIZE
  6
CONTINUOUS
 62
    30
 10
-149.02424500000001
 20
269.19121699999999
 30
0.0
 11
156.97575499999999
 21
269.19121699999999
 31
0.0
  0
CIRCLE
  5
1C9
  8
SIZE
  6
CONTINUOUS
 62
    30
 10
-161.02424500000001
 20
269.19121699999999
 30
0.0
 40
6.0
  0
LINE
  5
1CA
  8
SIZE
  6
CONTINUOUS
 62
    30
 10
-161.02424500000001
 20
269.19121699999999
 30
0.0
 11
-149.02424500000001
 21
269.19121699999999
 31
0.0
  0
CIRCLE
  5
1CB
  8
SIZE
  6
CONTINUOUS
 62
    30
 10
168.97575499999991
 20
269.19121699999999
 30
0.0
 40
6.0
  0
LINE
  5
1CC
  8
SIZE
  6
CONTINUOUS
 62
    30
 10
168.97575499999991
 20
269.19121699999999
 30
0.0
 11
156.97575499999999
 21
269.19121699999999
 31
0.0
  0
TEXT
  5
1CD
  8
SIZE
  6
CONTINUOUS
 62
    30
 10
-70.081387857142857
 20
285.4200898667832
 30
0.0
 40
64.0
  1
330
 41
0.9
 72
     1
 11
3.975754999999999
 21
285.4200898667832
 31
0.0
  0
LINE
  5
1D1
  8
SIZE
  6
CONTINUOUS
 62
    30
 10
160.97575499999991
 20
40.0
 30
0.0
 11
160.97575499999991
 21
188.583336
 31
0.0
  0
LINE
  5
1D2
  8
SIZE
  6
CONTINUOUS
 62
    30
 10
-153.02424500000001
 20
40.0
 30
0.0
 11
-153.02424500000001
 21
188.583336
 31
0.0
  0
LINE
  5
1D3
  8
SIZE
  6
CONTINUOUS
 62
    30
 10
148.97575499999999
 20
168.583336
 30
0.0
 11
-141.02424500000001
 21
168.583336
 31
0.0
  0
CIRCLE
  5
1D4
  8
SIZE
  6
CONTINUOUS
 62
    30
 10
160.97575499999991
 20
168.583336
 30
0.0
 40
6.0
  0
LINE
  5
1D5
  8
SIZE
  6
CONTINUOUS
 62
    30
 10
160.97575499999991
 20
168.583336
 30
0.0
 11
148.97575499999999
 21
168.583336
 31
0.0
  0
CIRCLE
  5
1D6
  8
SIZE
  6
CONTINUOUS
 62
    30
 10
-153.02424500000001
 20
168.583336
 30
0.0
 40
6.0
  0
LINE
  5
1D7
  8
SIZE
  6
CONTINUOUS
 62
    30
 10
-153.02424500000001
 20
168.583336
 30
0.0
 11
-141.02424500000001
 21
168.583336
 31
0.0
  0
TEXT
  5
1D8
  8
SIZE
  6
CONTINUOUS
 62
    30
 10
-65.967102142857115
 20
193.583336
 30
0.0
 40
64.0
  1
314
 41
0.9
 72
     1
 11
3.975754999999999
 21
193.583336
 31
0.0
  0
LINE
  5
1DC
  8
NOTE
  6
CONTINUOUS
 62
     4
 10
-153.0242439999999
 20
-20.0
 30
0.0
 11
-153.0242439999999
 21
20.0
 31
0.0
  0
LINE
  5
1DD
  8
NOTE
  6
CONTINUOUS
 62
     4
 10
-173.0242439999999
 20
0.0
 30
0.0
 11
-133.0242439999999
 21
0.0
 31
0.0
  0
LINE
  5
1DE
  8
NOTE
  6
CONTINUOUS
 62
     4
 10
182.39439400000001
 20
37.682093000000002
 30
0.0
 11
168.97575599999999
 21
0.0
 31
0.0
  0
LINE
  5
1DF
  8
NOTE
  6
CONTINUOUS
 62
     4
 10
168.97575599999999
 20
0.0
 30
0.0
 11
199.43768399999999
 21
25.924330999999999
 31
0.0
  0
LINE
  5
1E0
  8
NOTE
  6
CONTINUOUS
 62
     4
 10
167.5254299999998
 20
39.460107999999991
 30
0.0
 11
160.97575599999999
 21
-0.000021
 31
0.0
  0
LINE
  5
1E1
  8
NOTE
  6
CONTINUOUS
 62
     4
 10
160.97575599999999
 20
-0.000021
 30
0.0
 11
186.378005
 21
30.89861599999999
 31
0.0
  0
CIRCLE
  5
1E2
  8
FIX
  6
CONTINUOUS
 62
    11
 10
83.975756000000004
 20
0.0
 30
0.0
 40
4.0
  0
LINE
  5
1E3
  8
NOTE
  6
CONTINUOUS
 62
     4
 10
83.975756000000004
 20
-20.0
 30
0.0
 11
83.975756000000004
 21
20.0
 31
0.0
  0
LINE
  5
1E4
  8
NOTE
  6
CONTINUOUS
 62
     4
 10
63.97575599999999
 20
0.0
 30
0.0
 11
103.9757559999999
 21
0.0
 31
0.0
  0
CIRCLE
  5
1E5
  8
FIX
  6
CONTINUOUS
 62
    11
 10
168.97575599999999
 20
0.0
 30
0.0
 40
4.1782510000000004
  0
LINE
  5
1E6
  8
NOTE
  6
CONTINUOUS
 62
     4
 10
168.97575599999999
 20
20.0
 30
0.0
 11
168.97575599999999
 21
-20.0
 31
0.0
  0
CIRCLE
  5
1E7
  8
FIX
  6
CONTINUOUS
 62
    11
 10
160.97575599999999
 20
0.0
 30
0.0
 40
4.0
  0
LINE
  5
1E8
  8
NOTE
  6
CONTINUOUS
 62
     4
 10
160.97575599999999
 20
-20.0
 30
0.0
 11
160.97575599999999
 21
20.0
 31
0.0
  0
LINE
  5
1E9
  8
NOTE
  6
CONTINUOUS
 62
     4
 10
140.97575599999999
 20
0.0
 30
0.0
 11
180.97575599999999
 21
0.0
 31
0.0
  0
CIRCLE
  5
1EA
  8
FIX
  6
CONTINUOUS
 62
    11
 10
-76.024243999999982
 20
0.0
 30
0.0
 40
4.0
  0
LINE
  5
1EB
  8
NOTE
  6
CONTINUOUS
 62
     4
 10
-76.024243999999982
 20
-20.0
 30
0.0
 11
-76.024243999999982
 21
20.0
 31
0.0
  0
LINE
  5
1EC
  8
NOTE
  6
CONTINUOUS
 62
     4
 10
-96.024243999999996
 20
0.0
 30
0.0
 11
-56.024244000000003
 21
0.0
 31
0.0
  0
CIRCLE
  5
1ED
  8
FIX
  6
CONTINUOUS
 62
    11
 10
-153.0242439999999
 20
0.0
 30
0.0
 40
4.0
  0
LINE
  5
1EE
  8
NOTE
  6
CONTINUOUS
 62
     4
 10
-161.0242439999999
 20
20.0
 30
0.0
 11
-161.0242439999999
 21
-20.0
 31
0.0
  0
CIRCLE
  5
1EF
  8
FIX
  6
CONTINUOUS
 62
    11
 10
-161.0242439999999
 20
0.0
 30
0.0
 40
5.0
  0
LINE
  5
1F0
  8
NOTE
  6
CONTINUOUS
 62
     4
 10
168.97575599999999
 20
0.0
 30
0.0
 11
252.83902399999999
 21
123.64928999999999
 31
0.0
  0
LINE
  5
1F1
  8
NOTE
  6
CONTINUOUS
 62
     4
 10
252.83902399999999
 20
123.64928999999999
 30
0.0
 11
777.77896287700423
 21
123.64928999999999
 31
0.0
  0
TEXT
  5
1F2
  8
NOTE
  6
CONTINUOUS
 62
     4
 10
259.42795599999988
 20
152.80593500000001
 30
0.0
 40
64.0
  1
4×φ10取付穴
 41
0.9
  0
TEXT
  5
1F4
  8
ETC
  6
CONTINUOUS
 62
    61
 10
299.62936614705609
 20
575.3067212829651
 30
0.0
 40
64.0
  1
産業扇
 41
0.9
  0
TEXT
  5
1F5
  8
ETC
  6
CONTINUOUS
 62
    61
 10
304.66694414705597
 20
678.07993635739604
 30
0.0
 40
64.0
  1
EF-25US3-K_1
 41
0.9
  0
TEXT
  5
1F6
  8
NOTE
  6
CONTINUOUS
 62
     4
 10
301.45259499999997
 20
295.24561399999988
 30
0.0
 40
64.0
  1
8×φ8ノックアウト
 41
0.9
  0
LINE
  5
1F7
  8
NOTE
  6
CONTINUOUS
 62
     4
 10
971.74692399999992
 20
262.43233800000002
 30
0.0
 11
286.13231799999988
 21
262.43233800000002
 31
0.0
  0
LINE
  5
1F8
  8
NOTE
  6
CONTINUOUS
 62
     4
 10
286.13231799999988
 20
262.43233800000002
 30
0.0
 11
160.975774
 21
0.0
 31
0.0
  0
LINE
  5
1F9
  8
NOTE
  6
CONTINUOUS
 62
     4
 10
197.2102999999999
 20
16.942820000000001
 30
0.0
 11
160.975774
 21
0.0
 31
0.0
  0
LINE
  5
1FA
  8
NOTE
  6
CONTINUOUS
 62
     4
 10
160.975774
 20
0.0
 30
0.0
 11
183.88438300000001
 21
32.790176000000002
 31
0.0
  0
POINT
  5
1FB
  8
ARRANGE
  6
CONTINUOUS
 62
     1
 10
0.0
 20
0.0
 30
0.0
 39
50.0
  0
TEXT
  5
203
  8
ETC
  6
CONTINUOUS
 62
    61
 10
435.87536388650369
 20
503.36547246968661
 30
0.0
 40
50.0
  1
EF-25US3-K
 41
0.9
  0
TEXT
  5
2D9
  8
ETC
  6
CONTINUOUS
 62
    61
 10
435.87536388650369
 20
431.97812654733019
 30
0.0
 40
50.0
  1
EF-25USS3-K
 41
0.9
  0
ENDSEC
  0
EOF
