  0
SECTION
  2
HEADER
  9
$ACADVER
  1
AC1009
  9
$INSBASE
 10
0.0
 20
0.0
 30
0.0
  9
$EXTMIN
 10
-361.18925315233719
 20
-251.86156033522269
 30
-100.119172924072
  9
$EXTMAX
 10
682.95136614813225
 20
883.75855328486966
 30
50.009162623118868
  9
$LIMMIN
 10
-2970.0
 20
-2100.0
  9
$LIMMAX
 10
2970.0
 20
2100.0
  9
$ORTHOMODE
 70
     1
  9
$REGENMODE
 70
     1
  9
$FILLMODE
 70
     1
  9
$QTEXTMODE
 70
     0
  9
$MIRRTEXT
 70
     0
  9
$DRAGMODE
 70
     2
  9
$LTSCALE
 40
20.0
  9
$OSMODE
 70
    37
  9
$ATTMODE
 70
     1
  9
$TEXTSIZE
 40
64.0
  9
$TRACEWID
 40
0.05
  9
$TEXTSTYLE
  7
STANDARD
  9
$CLAYER
  8
SIZE
  9
$CELTYPE
  6
CONTINUOUS
  9
$CECOLOR
 62
     7
  9
$DIMSCALE
 40
1.0
  9
$DIMASZ
 40
2.0
  9
$DIMEXO
 40
20.0
  9
$DIMDLI
 40
200.0
  9
$DIMRND
 40
0.0
  9
$DIMDLE
 40
0.0
  9
$DIMEXE
 40
30.0
  9
$DIMTP
 40
0.1
  9
$DIMTM
 40
0.1
  9
$DIMTXT
 40
64.0
  9
$DIMCEN
 40
0.09
  9
$DIMTSZ
 40
0.0
  9
$DIMTOL
 70
     0
  9
$DIMLIM
 70
     0
  9
$DIMTIH
 70
     0
  9
$DIMTOH
 70
     0
  9
$DIMSE1
 70
     0
  9
$DIMSE2
 70
     0
  9
$DIMTAD
 70
     1
  9
$DIMZIN
 70
     8
  9
$DIMBLK
  1
DOT1
  9
$DIMASO
 70
     1
  9
$DIMSHO
 70
     0
  9
$DIMPOST
  1
<>
  9
$DIMAPOST
  1
"
  9
$DIMALT
 70
     0
  9
$DIMALTD
 70
     2
  9
$DIMALTF
 40
0.03937
  9
$DIMLFAC
 40
1.0
  9
$DIMTOFL
 70
     1
  9
$DIMTVP
 40
0.0
  9
$DIMTIX
 70
     0
  9
$DIMSOXD
 70
     0
  9
$DIMSAH
 70
     1
  9
$DIMBLK1
  1

  9
$DIMBLK2
  1

  9
$DIMSTYLE
  2
GEN-ISO
  9
$DIMCLRD
 70
     7
  9
$DIMCLRE
 70
     7
  9
$DIMCLRT
 70
     7
  9
$DIMTFAC
 40
1.0
  9
$DIMGAP
 40
25.0
  9
$LUNITS
 70
     2
  9
$LUPREC
 70
     4
  9
$SKETCHINC
 40
0.1
  9
$FILLETRAD
 40
5.0
  9
$AUNITS
 70
     1
  9
$AUPREC
 70
     3
  9
$MENU
  1
ACAD
  9
$ELEVATION
 40
0.0
  9
$PELEVATION
 40
0.0
  9
$THICKNESS
 40
0.0
  9
$LIMCHECK
 70
     0
  9
$BLIPMODE
 70
     0
  9
$CHAMFERA
 40
0.0
  9
$CHAMFERB
 40
0.0
  9
$SKPOLY
 70
     0
  9
$TDCREATE
 40
2451372.5474537038
  9
$TDUPDATE
 40
2454942.6346689239
  9
$TDINDWG
 40
0.7832678009
  9
$TDUSRTIMER
 40
0.7832678009
  9
$USRTIMER
 70
     1
  9
$ANGBASE
 50
0.0
  9
$ANGDIR
 70
     0
  9
$PDMODE
 70
     3
  9
$PDSIZE
 40
-2.0
  9
$PLINEWID
 40
0.0
  9
$COORDS
 70
     0
  9
$SPLFRAME
 70
     0
  9
$SPLINETYPE
 70
     6
  9
$SPLINESEGS
 70
     8
  9
$ATTDIA
 70
     0
  9
$ATTREQ
 70
     1
  9
$HANDLING
 70
     1
  9
$HANDSEED
  5
2CE
  9
$SURFTAB1
 70
     6
  9
$SURFTAB2
 70
     6
  9
$SURFTYPE
 70
     6
  9
$SURFU
 70
     6
  9
$SURFV
 70
     6
  9
$UCSNAME
  2

  9
$UCSORG
 10
0.0
 20
0.0
 30
0.0
  9
$UCSXDIR
 10
1.0
 20
0.0
 30
0.0
  9
$UCSYDIR
 10
0.0
 20
1.0
 30
0.0
  9
$PUCSNAME
  2

  9
$PUCSORG
 10
0.0
 20
0.0
 30
0.0
  9
$PUCSXDIR
 10
1.0
 20
0.0
 30
0.0
  9
$PUCSYDIR
 10
0.0
 20
1.0
 30
0.0
  9
$USERI1
 70
     0
  9
$USERI2
 70
     0
  9
$USERI3
 70
     0
  9
$USERI4
 70
     0
  9
$USERI5
 70
     0
  9
$USERR1
 40
20.0
  9
$USERR2
 40
0.0
  9
$USERR3
 40
0.0
  9
$USERR4
 40
0.0
  9
$USERR5
 40
0.0
  9
$WORLDVIEW
 70
     1
  9
$SHADEDGE
 70
     3
  9
$SHADEDIF
 70
    70
  9
$TILEMODE
 70
     1
  9
$MAXACTVP
 70
    48
  9
$PLIMCHECK
 70
     0
  9
$PEXTMIN
 10
-1.0000000000000000E+020
 20
-1.0000000000000000E+020
 30
-1.0000000000000000E+020
  9
$PEXTMAX
 10
1.0000000000000000E+020
 20
1.0000000000000000E+020
 30
1.0000000000000000E+020
  9
$PLIMMIN
 10
0.0
 20
0.0
  9
$PLIMMAX
 10
12.0
 20
9.0
  9
$UNITMODE
 70
     0
  9
$VISRETAIN
 70
     0
  9
$PLINEGEN
 70
     0
  9
$PSLTSCALE
 70
     0
  0
ENDSEC
  0
SECTION
  2
TABLES
  0
TABLE
  2
VPORT
 70
     1
  0
VPORT
  2
*ACTIVE
 70
     0
 10
0.0
 20
0.0
 11
1.0
 21
1.0
 12
222.6616881772361
 22
301.61003364941712
 13
0.0
 23
0.0
 14
50.0
 24
50.0
 15
400.0
 25
400.0
 16
0.0
 26
0.0
 36
1.0
 17
0.0
 27
0.0
 37
0.0
 40
1286.4107259638581
 41
1.3098995695839311
 42
50.0
 43
0.0
 44
0.0
 50
0.0
 51
0.0
 71
     0
 72
   500
 73
     1
 74
     0
 75
     0
 76
     0
 77
     0
 78
     0
  0
ENDTAB
  0
TABLE
  2
LTYPE
 70
     4
  0
LTYPE
  2
CONTINUOUS
 70
     0
  3
実線
 72
    65
 73
     0
 40
0.0
  0
LTYPE
  2
DASHDOT
 70
     0
  3
____ _ ____ _ ____ _ ____ _ ____ _ ____ _ ____
 72
    65
 73
     4
 40
5.5
 49
4.0
 49
-0.6
 49
0.3
 49
-0.6
  0
LTYPE
  2
DASHED
 70
     0
  3
-- -- -- -- -- -- -- -- -- -- -- -- -- -- --
 72
    65
 73
     2
 40
0.75
 49
0.5
 49
-0.25
  0
ENDTAB
  0
TABLE
  2
LAYER
 70
    12
  0
LAYER
  2
0
 70
     0
 62
     7
  6
CONTINUOUS
  0
LAYER
  2
SIZE
 70
     0
 62
    30
  6
CONTINUOUS
  0
LAYER
  2
OUTLINE
 70
     0
 62
     3
  6
CONTINUOUS
  0
LAYER
  2
DETAIL
 70
     0
 62
     5
  6
CONTINUOUS
  0
LAYER
  2
BASIS
 70
     0
 62
     6
  6
DASHDOT
  0
LAYER
  2
NOTE
 70
     0
 62
     4
  6
CONTINUOUS
  0
LAYER
  2
DEFPOINTS
 70
     0
 62
     7
  6
CONTINUOUS
  0
LAYER
  2
ARRANGE
 70
     0
 62
     1
  6
CONTINUOUS
  0
LAYER
  2
ETC
 70
     0
 62
    61
  6
CONTINUOUS
  0
LAYER
  2
FIX
 70
     0
 62
    11
  6
CONTINUOUS
  0
LAYER
  2
SERVICESPACE
 70
     0
 62
     2
  6
DASHDOT
  0
LAYER
  2
SYMBOLLINE
 70
     0
 62
    15
  6
CONTINUOUS
  0
ENDTAB
  0
TABLE
  2
STYLE
 70
     3
  0
STYLE
  2
STANDARD
 70
     0
 40
0.0
 41
0.9
 50
0.0
 71
     0
 42
64.0
  3
SIMPLEX
  4
BIGFONT
  0
STYLE
  2
ANNOTATIVE
 70
     0
 40
0.0
 41
1.0
 50
0.0
 71
     0
 42
0.2
  3
txt
  4

  0
STYLE
  2

 70
     1
 40
0.0
 41
1.0
 50
0.0
 71
     0
 42
64.0
  3
ltypeshp.shx
  4

  0
ENDTAB
  0
TABLE
  2
VIEW
 70
     1
  0
VIEW
  2
ALL
 70
     0
 40
4282.6198079999986
 10
0.0
 20
41.309903999999989
 41
5940.0
 11
0.0
 21
0.0
 31
1.0
 12
0.0
 22
0.0
 32
0.0
 42
50.0
 43
0.0
 44
0.0
 50
0.0
 71
     0
  0
ENDTAB
  0
TABLE
  2
UCS
 70
     0
  0
ENDTAB
  0
TABLE
  2
APPID
 70
    14
  0
APPID
  2
ACAD
 70
     0
  0
APPID
  2
ACADANNOTATIVE
 70
     0
  0
APPID
  2
ACAD_MLEADERVER
 70
     0
  0
APPID
  2
CONTENTBLOCKDESCRIPTION
 70
     0
  0
APPID
  2
CONTENTBLOCKICON
 70
     0
  0
APPID
  2
GENIUS_GENCFG_13
 70
     0
  0
APPID
  2
GENIUS_GENCFG0_13
 70
     0
  0
APPID
  2
GENIUS_GENCFG1_13
 70
     0
  0
APPID
  2
GENIUS_GENCFG2_13
 70
     0
  0
APPID
  2
GENIUS_GENCFG3_13
 70
     0
  0
APPID
  2
GENIUS_GENCFG4_13
 70
     0
  0
APPID
  2
GENIUS_GEVCFG0_13
 70
     0
  0
APPID
  2
GENIUS_GENOENT_13
 70
     0
  0
APPID
  2
ACAD_EXEMPT_FROM_CAD_STANDARDS
 70
     0
  0
ENDTAB
  0
TABLE
  2
DIMSTYLE
 70
     3
  0
DIMSTYLE
  2
STANDARD
 70
     0
  3

  4

  5

  6

  7

 40
1.0
 41
0.18
 42
0.0625
 43
0.38
 44
0.18
 45
0.0
 46
0.0
 47
0.0
 48
0.0
140
0.18
141
0.09
142
0.0
143
25.399999999999999
144
1.0
145
0.0
146
1.0
147
0.09
 71
     0
 72
     0
 73
     1
 74
     1
 75
     0
 76
     0
 77
     0
 78
     0
170
     0
171
     2
172
     0
173
     0
174
     0
175
     0
176
     0
177
     0
178
     0
  0
DIMSTYLE
  2
ANNOTATIVE
 70
     0
  3

  4

  5

  6

  7

 40
1.0
 41
0.18
 42
0.0625
 43
0.38
 44
0.18
 45
0.0
 46
0.0
 47
0.0
 48
0.0
140
0.18
141
0.09
142
0.0
143
25.399999999999999
144
1.0
145
0.0
146
1.0
147
0.09
 71
     0
 72
     0
 73
     1
 74
     1
 75
     0
 76
     0
 77
     0
 78
     0
170
     0
171
     2
172
     0
173
     0
174
     0
175
     0
176
     0
177
     0
178
     0
  0
DIMSTYLE
  2
GEN-ISO
 70
     0
  3

  4
"
  5

  6

  7

 40
1.0
 41
2.0
 42
20.0
 43
200.0
 44
30.0
 45
0.0
 46
0.0
 47
0.1
 48
0.1
140
64.0
141
0.09
142
0.0
143
0.03937
144
1.0
145
0.0
146
1.0
147
25.0
 71
     0
 72
     0
 73
     0
 74
     0
 75
     0
 76
     0
 77
     1
 78
     8
170
     0
171
     2
172
     1
173
     1
174
     0
175
     0
176
     7
177
     7
178
     7
  0
ENDTAB
  0
ENDSEC
  0
SECTION
  2
BLOCKS
  0
BLOCK
  8
0
  2
$MODEL_SPACE
 70
     0
 10
0.0
 20
0.0
 30
0.0
  3
$MODEL_SPACE
  1

  0
ENDBLK
  5
76
  8
0
  0
BLOCK
 67
     1
  8
0
  2
$PAPER_SPACE
 70
     0
 10
0.0
 20
0.0
 30
0.0
  3
$PAPER_SPACE
  1

  0
ENDBLK
  5
72
 67
     1
  8
0
  0
BLOCK
  8
OUTLINE
  2
DOT1
 70
     0
 10
0.0
 20
0.0
 30
0.0
  3
DOT1
  1

  0
CIRCLE
  5
99
  8
SIZE
  6
CONTINUOUS
 62
     7
 10
0.0
 20
0.0
 30
0.0
 40
3.0
  0
ENDBLK
  5
9A
  8
OUTLINE
  0
ENDSEC
  0
SECTION
  2
ENTITIES
  0
LINE
  5
9B
  8
NOTE
  6
CONTINUOUS
 62
     4
 10
26.473454
 20
219.985938
 30
0.0
 11
0.0
 21
190.00000399999999
 31
0.0
  0
LINE
  5
9C
  8
NOTE
  6
CONTINUOUS
 62
     4
 10
0.0
 20
190.00000399999999
 30
0.0
 11
37.919651000000002
 21
202.73185699999999
 31
0.0
  0
LINE
  5
9D
  8
NOTE
  6
CONTINUOUS
 62
     4
 10
-20.0
 20
190.00000800000001
 30
0.0
 11
20.0
 21
190.0
 31
0.0
  0
LINE
  5
9E
  8
NOTE
  6
CONTINUOUS
 62
     4
 10
0.000004
 20
210.00000399999999
 30
0.0
 11
-0.000004
 21
170.00000399999999
 31
0.0
  0
LINE
  5
9F
  8
NOTE
  6
CONTINUOUS
 62
     4
 39
50.0
 10
93.606638000000004
 20
262.74374299999999
 30
0.0
 11
0.0
 21
190.00000399999999
 31
0.0
  0
LINE
  5
A0
  8
NOTE
  6
CONTINUOUS
 62
     4
 39
50.0
 10
368.31593500000002
 20
262.74368700000002
 30
0.0
 11
93.606638000000004
 21
262.74374299999999
 31
0.0
  0
TEXT
  5
A1
  8
NOTE
  6
CONTINUOUS
 62
     4
 10
93.606638000000004
 20
283.50458200000003
 30
0.0
 40
64.0
  1
4-φ10
 50
359.99998799999997
 41
0.9
  0
LINE
  5
A2
  8
NOTE
  6
CONTINUOUS
 62
     4
 10
-60.0
 20
-162.029505
 30
0.0
 11
-20.0
 21
-162.02951300000001
 31
0.0
  0
LINE
  5
A3
  8
NOTE
  6
CONTINUOUS
 62
     4
 10
-39.99999600000001
 20
-142.02950899999999
 30
0.0
 11
-40.000003999999997
 21
-182.02950899999999
 31
0.0
  0
LINE
  5
A4
  8
NOTE
  6
CONTINUOUS
 62
     4
 10
-20.0
 20
-189.99999600000001
 30
0.0
 11
20.0
 21
-190.00000399999999
 31
0.0
  0
LINE
  5
A5
  8
NOTE
  6
CONTINUOUS
 62
     4
 10
0.000004
 20
-170.0
 30
0.0
 11
-0.000004
 21
-210.0
 31
0.0
  0
LINE
  5
AA
  8
OUTLINE
  6
CONTINUOUS
 62
     3
 10
-10.0
 20
-205.30000000000001
 30
0.0
 11
-10.0
 21
0.0
 31
0.0
  0
LINE
  5
AB
  8
OUTLINE
  6
CONTINUOUS
 62
     3
 10
-176.0
 20
-47.697171999999988
 30
0.0
 11
-176.0
 21
0.0
 31
0.0
  0
LINE
  5
AC
  8
OUTLINE
  6
CONTINUOUS
 62
     3
 10
-19.989761000000001
 20
-169.22602599999999
 30
0.0
 11
-19.989761000000001
 21
0.0
 31
0.0
  0
LINE
  5
AD
  8
OUTLINE
  6
CONTINUOUS
 62
     3
 10
-159.5
 20
-49.232250000000001
 30
0.0
 11
-159.5
 21
0.0
 31
0.0
  0
LINE
  5
AE
  8
OUTLINE
  6
CONTINUOUS
 62
     3
 10
-170.09999999999999
 20
0.0
 30
0.0
 11
-170.09999999999999
 21
-102.13225
 31
0.0
  0
LINE
  5
AF
  8
OUTLINE
  6
CONTINUOUS
 62
     3
 10
-140.0
 20
0.0
 30
0.0
 11
-140.0
 21
-68.103952000000007
 31
0.0
  0
LINE
  5
B0
  8
OUTLINE
  6
CONTINUOUS
 62
     3
 10
-140.0
 20
0.0
 30
0.0
 11
-140.0
 21
-68.103952000000007
 31
0.0
  0
LINE
  5
B1
  8
OUTLINE
  6
CONTINUOUS
 62
     3
 10
-137.0
 20
-33.167749999999998
 30
0.0
 11
-137.0
 21
-103.5
 31
0.0
  0
LINE
  5
B2
  8
OUTLINE
  6
CONTINUOUS
 62
     3
 10
0.0
 20
0.0
 30
0.0
 11
0.0
 21
-208.40000000000001
 31
0.0
  0
LINE
  5
B3
  8
OUTLINE
  6
CONTINUOUS
 62
     3
 10
-5.2000000000000002
 20
-208.59999999999999
 30
0.0
 11
-5.2000000000000002
 21
0.0
 31
0.0
  0
LINE
  5
B4
  8
OUTLINE
  6
CONTINUOUS
 62
     3
 10
-137.0
 20
-0.9322499999999999
 30
0.0
 11
-137.0
 21
69.400000000000006
 31
0.0
  0
LINE
  5
B5
  8
DETAIL
  6
CONTINUOUS
 62
     5
 10
-88.886601999999996
 20
-2.2424529999999989
 30
0.0
 11
-95.480386999999993
 21
23.556813999999999
 31
0.0
  0
LINE
  5
B6
  8
DETAIL
  6
CONTINUOUS
 62
     5
 10
-81.783375000000007
 20
4.2731810000000001
 30
0.0
 11
-74.057635000000005
 21
-7.9534159999999998
 31
0.0
  0
LINE
  5
B7
  8
DETAIL
  6
CONTINUOUS
 62
     5
 10
-119.634073
 20
48.779665999999999
 30
0.0
 11
-119.635496
 21
-0.575167
 31
0.0
  0
LINE
  5
B8
  8
DETAIL
  6
CONTINUOUS
 62
     5
 10
-119.635496
 20
-0.575167
 30
0.0
 11
-119.63691799999999
 21
31.469999999999999
 31
0.0
  0
LINE
  5
B9
  8
DETAIL
  6
CONTINUOUS
 62
     5
 10
-137.0
 20
-0.9322499999999999
 30
0.0
 11
-137.0
 21
69.400000000000006
 31
0.0
  0
LINE
  5
BA
  8
SIZE
  6
CONTINUOUS
 62
    30
 10
-190.10794200000001
 20
-57.5
 30
0.0
 11
-301.96000099999998
 21
-57.5
 31
0.0
  0
LINE
  5
BB
  8
SIZE
  6
CONTINUOUS
 62
    30
 10
-193.5
 20
57.5
 30
0.0
 11
-301.96000099999998
 21
57.5
 31
0.0
  0
LINE
  5
BC
  8
SIZE
  6
CONTINUOUS
 62
    30
 10
-271.96000099999998
 20
-55.5
 30
0.0
 11
-271.96000099999998
 21
55.5
 31
0.0
  0
LINE
  5
BD
  8
SIZE
  6
CONTINUOUS
 62
    30
 10
-271.96000099999998
 20
57.5
 30
0.0
 11
-271.96000099999998
 21
287.7857140000001
 31
0.0
  0
CIRCLE
  5
BE
  8
SIZE
  6
CONTINUOUS
 62
    30
 10
-271.96000099999998
 20
-57.5
 30
0.0
 40
6.0
  0
CIRCLE
  5
BF
  8
SIZE
  6
CONTINUOUS
 62
    30
 10
-271.96000099999998
 20
57.5
 30
0.0
 40
6.0
  0
TEXT
  5
C0
  8
SIZE
  6
CONTINUOUS
 62
    30
 10
-296.96000099999998
 20
70.237142714285724
 30
0.0
 40
64.0
  1
φ115
 50
90.0
 41
0.9
 72
     1
 11
-296.96000099999998
 21
173.64285699999999
 31
0.0
  0
POINT
  5
C1
  8
DEFPOINTS
  6
CONTINUOUS
 62
    30
 10
-170.10794200000001
 20
-57.5
 30
0.0
  0
POINT
  5
C2
  8
DEFPOINTS
  6
CONTINUOUS
 62
    30
 10
-173.5
 20
57.5
 30
0.0
  0
POINT
  5
C3
  8
DEFPOINTS
  6
CONTINUOUS
 62
    30
 10
-271.96000099999998
 20
57.5
 30
0.0
  0
LINE
  5
C4
  8
DETAIL
  6
CONTINUOUS
 62
     5
 10
0.0
 20
0.0
 30
0.0
 11
0.0
 21
-208.40000000000001
 31
0.0
  0
LINE
  5
C5
  8
DETAIL
  6
CONTINUOUS
 62
     5
 10
-10.0
 20
-205.30000000000001
 30
0.0
 11
-10.0
 21
0.0
 31
0.0
  0
LINE
  5
C6
  8
DETAIL
  6
CONTINUOUS
 62
     5
 10
-5.2000000000000002
 20
-208.59999999999999
 30
0.0
 11
-5.2000000000000002
 21
0.0
 31
0.0
  0
LINE
  5
C7
  8
SIZE
  6
CONTINUOUS
 62
    30
 10
40.0
 20
-190.0
 30
0.0
 11
223.77821299999999
 21
-190.0
 31
0.0
  0
LINE
  5
C8
  8
SIZE
  6
CONTINUOUS
 62
    30
 10
40.0
 20
190.0
 30
0.0
 11
223.77821299999999
 21
190.0
 31
0.0
  0
LINE
  5
C9
  8
SIZE
  6
CONTINUOUS
 62
    30
 10
193.77821299999999
 20
-188.0
 30
0.0
 11
193.77821299999999
 21
188.0
 31
0.0
  0
CIRCLE
  5
CA
  8
SIZE
  6
CONTINUOUS
 62
    30
 10
193.77821299999999
 20
-190.0
 30
0.0
 40
6.0
  0
CIRCLE
  5
CB
  8
SIZE
  6
CONTINUOUS
 62
    30
 10
193.77821299999999
 20
190.0
 30
0.0
 40
6.0
  0
TEXT
  5
CC
  8
SIZE
  6
CONTINUOUS
 62
    30
 10
168.77821299999999
 20
-75.768461857142839
 30
0.0
 40
64.0
  1
380
 50
90.0
 41
0.9
 72
     1
 11
168.77821299999999
 21
-1.7113189999999989
 31
0.0
  0
POINT
  5
CD
  8
DEFPOINTS
  6
CONTINUOUS
 62
    30
 10
20.0
 20
-190.0
 30
0.0
  0
POINT
  5
CE
  8
DEFPOINTS
  6
CONTINUOUS
 62
    30
 10
20.0
 20
190.0
 30
0.0
  0
POINT
  5
CF
  8
DEFPOINTS
  6
CONTINUOUS
 62
    30
 10
193.77821299999999
 20
190.0
 30
0.0
  0
LINE
  5
D0
  8
SIZE
  6
CONTINUOUS
 62
    30
 10
20.0
 20
-210.0
 30
0.0
 11
398.065091
 21
-210.0
 31
0.0
  0
LINE
  5
D1
  8
SIZE
  6
CONTINUOUS
 62
    30
 10
18.399999999999999
 20
210.0
 30
0.0
 11
398.065091
 21
210.0
 31
0.0
  0
LINE
  5
D2
  8
SIZE
  6
CONTINUOUS
 62
    30
 10
368.065091
 20
-208.0
 30
0.0
 11
368.065091
 21
208.0
 31
0.0
  0
CIRCLE
  5
D3
  8
SIZE
  6
CONTINUOUS
 62
    30
 10
368.065091
 20
-210.0
 30
0.0
 40
6.0
  0
CIRCLE
  5
D4
  8
SIZE
  6
CONTINUOUS
 62
    30
 10
368.065091
 20
210.0
 30
0.0
 40
6.0
  0
TEXT
  5
D5
  8
SIZE
  6
CONTINUOUS
 62
    30
 10
343.065091
 20
-74.05714285714285
 30
0.0
 40
64.0
  1
420
 50
90.0
 41
0.9
 72
     1
 11
343.065091
 21
0.0
 31
0.0
  0
POINT
  5
D6
  8
DEFPOINTS
  6
CONTINUOUS
 62
    30
 10
0.0
 20
-210.0
 30
0.0
  0
POINT
  5
D7
  8
DEFPOINTS
  6
CONTINUOUS
 62
    30
 10
-1.6000000000000001
 20
210.0
 30
0.0
  0
POINT
  5
D8
  8
DEFPOINTS
  6
CONTINUOUS
 62
    30
 10
368.065091
 20
210.0
 30
0.0
  0
LINE
  5
D9
  8
DETAIL
  6
CONTINUOUS
 62
     5
 10
-97.650000000000006
 20
-11.346622999999999
 30
0.0
 11
-97.650000000000006
 21
0.0
 31
0.0
  0
LINE
  5
DA
  8
DETAIL
  6
CONTINUOUS
 62
     5
 10
-140.0
 20
0.0
 30
0.0
 11
-140.0
 21
-68.103952000000007
 31
0.0
  0
LINE
  5
DB
  8
DETAIL
  6
CONTINUOUS
 62
     5
 10
-137.0
 20
-33.167749999999998
 30
0.0
 11
-137.0
 21
-103.5
 31
0.0
  0
LINE
  5
DC
  8
DETAIL
  6
CONTINUOUS
 62
     5
 10
-136.0
 20
-55.232250000000001
 30
0.0
 11
-136.0
 21
0.0
 31
0.0
  0
LINE
  5
DD
  8
DETAIL
  6
CONTINUOUS
 62
     5
 10
-120.500181
 20
-48.779809
 30
0.0
 11
-120.502944
 21
0.0
 31
0.0
  0
LINE
  5
DE
  8
DETAIL
  6
CONTINUOUS
 62
     5
 10
-119.634073
 20
-48.779665999999999
 30
0.0
 11
-119.635496
 21
0.575167
 31
0.0
  0
LINE
  5
DF
  8
DETAIL
  6
CONTINUOUS
 62
     5
 10
-134.80000000000001
 20
-43.702249999999999
 30
0.0
 11
-134.80000000000001
 21
0.0
 31
0.0
  0
LINE
  5
E0
  8
DETAIL
  6
CONTINUOUS
 62
     5
 10
-140.0
 20
0.0
 30
0.0
 11
-140.0
 21
-68.103952000000007
 31
0.0
  0
LINE
  5
E1
  8
DETAIL
  6
CONTINUOUS
 62
     5
 10
-159.5
 20
-49.232250000000001
 30
0.0
 11
-159.5
 21
0.0
 31
0.0
  0
LINE
  5
E2
  8
DETAIL
  6
CONTINUOUS
 62
     5
 10
-19.989761000000001
 20
-169.22602599999999
 30
0.0
 11
-19.989761000000001
 21
0.0
 31
0.0
  0
LINE
  5
E3
  8
DETAIL
  6
CONTINUOUS
 62
     5
 10
-176.0
 20
-47.697171999999988
 30
0.0
 11
-176.0
 21
0.0
 31
0.0
  0
LINE
  5
E4
  8
DETAIL
  6
CONTINUOUS
 62
     5
 10
-170.09999999999999
 20
0.0
 30
0.0
 11
-170.09999999999999
 21
-102.13225
 31
0.0
  0
LINE
  5
E5
  8
DETAIL
  6
CONTINUOUS
 62
     5
 10
-55.989761000000001
 20
0.0
 30
0.0
 11
-55.989761000000001
 21
-139.82997900000001
 31
0.0
  0
LINE
  5
E6
  8
DETAIL
  6
CONTINUOUS
 62
     5
 10
-59.989761000000001
 20
-139.82997900000001
 30
0.0
 11
-59.989761000000001
 21
0.0
 31
0.0
  0
LINE
  5
E7
  8
DETAIL
  6
CONTINUOUS
 62
     5
 10
-120.502944
 20
0.0
 30
0.0
 11
-120.502944
 21
-31.969999999999999
 31
0.0
  0
LINE
  5
E8
  8
DETAIL
  6
CONTINUOUS
 62
     5
 10
-119.635496
 20
0.575167
 30
0.0
 11
-119.63691799999999
 21
-31.469999999999999
 31
0.0
  0
CIRCLE
  5
E9
  8
ARRANGE
  6
CONTINUOUS
 62
     1
 10
0.0
 20
0.0
 30
0.0
 40
40.0
  0
POINT
  5
EA
  8
ARRANGE
  6
CONTINUOUS
 62
     1
 10
0.0
 20
0.0
 30
0.0
  0
ARC
  5
EB
  8
OUTLINE
  6
CONTINUOUS
 62
     3
 10
-1.6000000000000001
 20
208.40000000000001
 30
0.0
 40
1.6000000000000001
 50
0.0
 51
90.0
  0
ARC
  5
EC
  8
DETAIL
  6
CONTINUOUS
 62
     5
 10
-1.6000000000000001
 20
208.40000000000001
 30
0.0
 40
1.6000000000000001
 50
0.0
 51
90.0
  0
LINE
  5
ED
  8
BASIS
  6
DASHDOT
 62
     6
 39
100.110011
 10
-209.268767
 20
0.0
 30
-100.110011
 11
35.268766999999997
 21
0.0
 31
-100.110011
  0
LINE
  5
EE
  8
OUTLINE
  6
CONTINUOUS
 62
     3
 10
-165.0
 20
67.849999999999994
 30
0.0
 11
-140.0
 21
67.849999999999994
 31
0.0
  0
ARC
  5
EF
  8
OUTLINE
  6
CONTINUOUS
 62
     3
 10
-163.5
 20
54.232250000000001
 30
0.0
 40
2.0
 50
180.0
 51
270.0
  0
ARC
  5
F0
  8
OUTLINE
  6
CONTINUOUS
 62
     3
 10
-100.0
 20
97.02950899999999
 30
0.0
 40
65.0
 50
90.0
 51
180.0
  0
ARC
  5
F1
  8
OUTLINE
  6
CONTINUOUS
 62
     3
 10
-100.0
 20
95.308779999999985
 30
0.0
 40
65.0
 50
90.0
 51
180.0
  0
ARC
  5
F2
  8
DETAIL
  6
CONTINUOUS
 62
     5
 10
-100.0
 20
95.308779999999985
 30
0.0
 40
65.0
 50
90.0
 51
180.0
  0
ARC
  5
F3
  8
DETAIL
  6
CONTINUOUS
 62
     5
 10
-100.0
 20
97.02950899999999
 30
0.0
 40
65.0
 50
90.0
 51
180.0
  0
ARC
  5
F4
  8
DETAIL
  6
CONTINUOUS
 62
     5
 10
-163.5
 20
54.232250000000001
 30
0.0
 40
2.0
 50
180.0
 51
270.0
  0
LINE
  5
F5
  8
DETAIL
  6
CONTINUOUS
 62
     5
 10
-165.0
 20
67.849999999999994
 30
0.0
 11
-140.0
 21
67.849999999999994
 31
0.0
  0
LINE
  5
F6
  8
OUTLINE
  6
CONTINUOUS
 62
     3
 10
-170.09999999999999
 20
0.0
 30
0.0
 11
-170.09999999999999
 21
68.032250000000005
 31
0.0
  0
LINE
  5
F7
  8
OUTLINE
  6
CONTINUOUS
 62
     3
 10
-165.0
 20
53.527124000000001
 30
0.0
 11
-165.0
 21
69.400000000000006
 31
0.0
  0
LINE
  5
F8
  8
OUTLINE
  6
CONTINUOUS
 62
     3
 10
-165.5
 20
69.400000000000006
 30
0.0
 11
-165.5
 21
54.232250000000001
 31
0.0
  0
LINE
  5
F9
  8
OUTLINE
  6
CONTINUOUS
 62
     3
 10
-170.09999999999999
 20
57.722582999999993
 30
0.0
 11
-170.09999999999999
 21
67.799999999999997
 31
0.0
  0
LINE
  5
FA
  8
DETAIL
  6
CONTINUOUS
 62
     5
 10
-170.09999999999999
 20
57.722582999999993
 30
0.0
 11
-170.09999999999999
 21
67.799999999999997
 31
0.0
  0
LINE
  5
FB
  8
DETAIL
  6
CONTINUOUS
 62
     5
 10
-165.5
 20
69.400000000000006
 30
0.0
 11
-165.5
 21
54.232250000000001
 31
0.0
  0
LINE
  5
FC
  8
DETAIL
  6
CONTINUOUS
 62
     5
 10
-165.0
 20
53.527124000000001
 30
0.0
 11
-165.0
 21
69.400000000000006
 31
0.0
  0
LINE
  5
FD
  8
DETAIL
  6
CONTINUOUS
 62
     5
 10
-170.09999999999999
 20
0.0
 30
0.0
 11
-170.09999999999999
 21
68.032250000000005
 31
0.0
  0
LINE
  5
FE
  8
OUTLINE
  6
CONTINUOUS
 62
     3
 10
-165.0
 20
95.308779999999985
 30
0.0
 11
-165.0
 21
69.400000000000006
 31
0.0
  0
LINE
  5
FF
  8
OUTLINE
  6
CONTINUOUS
 62
     3
 10
-165.5
 20
69.400000000000006
 30
0.0
 11
-165.07712699999999
 21
69.372915000000006
 31
0.0
  0
ARC
  5
100
  8
OUTLINE
  6
CONTINUOUS
 62
     3
 10
-168.5
 20
67.799999999999997
 30
0.0
 40
1.6000000000000001
 50
90.0
 51
180.0
  0
LINE
  5
101
  8
OUTLINE
  6
CONTINUOUS
 62
     3
 10
-165.5
 20
69.400000000000006
 30
0.0
 11
-168.5
 21
69.400000000000006
 31
0.0
  0
LINE
  5
102
  8
OUTLINE
  6
CONTINUOUS
 62
     3
 10
-165.0
 20
61.100000000000001
 30
0.0
 11
-165.0
 21
65.303482999999986
 31
0.0
  0
LINE
  5
103
  8
DETAIL
  6
CONTINUOUS
 62
     5
 10
-165.0
 20
61.100000000000001
 30
0.0
 11
-165.0
 21
65.303482999999986
 31
0.0
  0
LINE
  5
104
  8
DETAIL
  6
CONTINUOUS
 62
     5
 10
-165.5
 20
69.400000000000006
 30
0.0
 11
-168.5
 21
69.400000000000006
 31
0.0
  0
ARC
  5
105
  8
DETAIL
  6
CONTINUOUS
 62
     5
 10
-168.5
 20
67.799999999999997
 30
0.0
 40
1.6000000000000001
 50
90.0
 51
180.0
  0
LINE
  5
106
  8
DETAIL
  6
CONTINUOUS
 62
     5
 10
-165.5
 20
69.400000000000006
 30
0.0
 11
-165.07712699999999
 21
69.372915000000006
 31
0.0
  0
LINE
  5
107
  8
DETAIL
  6
CONTINUOUS
 62
     5
 10
-165.0
 20
95.308779999999985
 30
0.0
 11
-165.0
 21
69.400000000000006
 31
0.0
  0
LINE
  5
108
  8
OUTLINE
  6
CONTINUOUS
 62
     3
 10
-176.0
 20
47.697171999999988
 30
0.0
 11
-176.0
 21
0.0
 31
0.0
  0
ARC
  5
109
  8
OUTLINE
  6
CONTINUOUS
 62
     3
 10
-168.86619300000001
 20
46.337125
 30
0.0
 40
7.2622949999999991
 50
144.45120800000001
 51
169.546052
  0
LINE
  5
10A
  8
OUTLINE
  6
CONTINUOUS
 62
     3
 10
-170.87146000000001
 20
55.353149999999999
 30
0.0
 11
-174.774947
 21
50.559395000000002
 31
0.0
  0
ARC
  5
10B
  8
OUTLINE
  6
CONTINUOUS
 62
     3
 10
-173.50794200000001
 20
57.5
 30
0.0
 40
3.399999999999999
 50
320.8445660000001
 51
0.0
  0
ARC
  5
10C
  8
DETAIL
  6
CONTINUOUS
 62
     5
 10
-173.50794200000001
 20
57.5
 30
0.0
 40
3.399999999999999
 50
320.8445660000001
 51
0.0
  0
LINE
  5
10D
  8
DETAIL
  6
CONTINUOUS
 62
     5
 10
-170.87146000000001
 20
55.353149999999999
 30
0.0
 11
-174.774947
 21
50.559395000000002
 31
0.0
  0
ARC
  5
10E
  8
DETAIL
  6
CONTINUOUS
 62
     5
 10
-168.86619300000001
 20
46.337125
 30
0.0
 40
7.2622949999999991
 50
144.45120800000001
 51
169.546052
  0
LINE
  5
10F
  8
DETAIL
  6
CONTINUOUS
 62
     5
 10
-176.0
 20
47.697171999999988
 30
0.0
 11
-176.0
 21
0.0
 31
0.0
  0
LINE
  5
110
  8
OUTLINE
  6
CONTINUOUS
 62
     3
 10
-5.2000000000000002
 20
208.59999999999999
 30
0.0
 11
-5.2000000000000002
 21
0.0
 31
0.0
  0
LINE
  5
111
  8
OUTLINE
  6
CONTINUOUS
 62
     3
 10
0.0
 20
0.0
 30
0.0
 11
0.0
 21
208.40000000000001
 31
0.0
  0
LINE
  5
112
  8
OUTLINE
  6
CONTINUOUS
 62
     3
 10
-19.989761000000001
 20
169.22602599999999
 30
0.0
 11
-19.989761000000001
 21
0.0
 31
0.0
  0
LINE
  5
113
  8
OUTLINE
  6
CONTINUOUS
 62
     3
 10
-10.0
 20
205.30000000000001
 30
0.0
 11
-10.0
 21
0.0
 31
0.0
  0
ARC
  5
114
  8
OUTLINE
  6
CONTINUOUS
 62
     3
 10
-99.90876999999999
 20
99.609729999999999
 30
0.0
 40
40.220351999999998
 50
90.12996099999998
 51
175.407689
  0
LINE
  5
115
  8
DETAIL
  6
CONTINUOUS
 62
     5
 10
-88.886666999999989
 20
126.424966
 30
0.0
 11
-100.37627000000001
 21
93.258036000000004
 31
0.0
  0
ARC
  5
116
  8
DETAIL
  6
CONTINUOUS
 62
     5
 10
-99.90876999999999
 20
99.609729999999999
 30
0.0
 40
40.220351999999998
 50
90.12996099999998
 51
175.407689
  0
LINE
  5
117
  8
DETAIL
  6
CONTINUOUS
 62
     5
 10
-10.0
 20
205.30000000000001
 30
0.0
 11
-10.0
 21
0.0
 31
0.0
  0
LINE
  5
118
  8
DETAIL
  6
CONTINUOUS
 62
     5
 10
-19.989761000000001
 20
169.22602599999999
 30
0.0
 11
-19.989761000000001
 21
0.0
 31
0.0
  0
LINE
  5
119
  8
DETAIL
  6
CONTINUOUS
 62
     5
 10
-55.989761000000001
 20
0.0
 30
0.0
 11
-55.989761000000001
 21
139.82997900000001
 31
0.0
  0
LINE
  5
11A
  8
DETAIL
  6
CONTINUOUS
 62
     5
 10
-59.989761000000001
 20
139.82997900000001
 30
0.0
 11
-59.989761000000001
 21
0.0
 31
0.0
  0
LINE
  5
11B
  8
DETAIL
  6
CONTINUOUS
 62
     5
 10
0.0
 20
0.0
 30
0.0
 11
0.0
 21
208.40000000000001
 31
0.0
  0
LINE
  5
11C
  8
DETAIL
  6
CONTINUOUS
 62
     5
 10
-5.2000000000000002
 20
208.59999999999999
 30
0.0
 11
-5.2000000000000002
 21
0.0
 31
0.0
  0
LINE
  5
11D
  8
OUTLINE
  6
CONTINUOUS
 62
     3
 10
-94.0
 20
139.82997900000001
 30
0.0
 11
-50.0
 21
139.82997900000001
 31
0.0
  0
LINE
  5
11E
  8
OUTLINE
  6
CONTINUOUS
 62
     3
 10
-99.989761000000001
 20
139.82997900000001
 30
0.0
 11
-27.989758999999999
 21
139.82997900000001
 31
0.0
  0
LINE
  5
11F
  8
OUTLINE
  6
CONTINUOUS
 62
     3
 10
-99.952767000000009
 20
160.309575
 30
0.0
 11
-19.989761000000001
 21
160.30878000000001
 31
0.0
  0
LINE
  5
120
  8
OUTLINE
  6
CONTINUOUS
 62
     3
 10
-99.989761000000001
 20
162.02950899999999
 30
0.0
 11
-19.989761000000001
 21
162.02950899999999
 31
0.0
  0
LINE
  5
121
  8
DETAIL
  6
CONTINUOUS
 62
     5
 10
-80.495828000000003
 20
137.36980299999999
 30
0.0
 11
-88.886613999999994
 21
126.424978
 31
0.0
  0
LINE
  5
122
  8
DETAIL
  6
CONTINUOUS
 62
     5
 10
-99.989761000000001
 20
162.02950899999999
 30
0.0
 11
-19.989761000000001
 21
162.02950899999999
 31
0.0
  0
LINE
  5
123
  8
DETAIL
  6
CONTINUOUS
 62
     5
 10
-99.952767000000009
 20
160.309575
 30
0.0
 11
-19.989761000000001
 21
160.30878000000001
 31
0.0
  0
LINE
  5
124
  8
DETAIL
  6
CONTINUOUS
 62
     5
 10
-99.989761000000001
 20
139.82997900000001
 30
0.0
 11
-27.989758999999999
 21
139.82997900000001
 31
0.0
  0
LINE
  5
125
  8
DETAIL
  6
CONTINUOUS
 62
     5
 10
-94.0
 20
139.82997900000001
 30
0.0
 11
-50.0
 21
139.82997900000001
 31
0.0
  0
LINE
  5
126
  8
OUTLINE
  6
CONTINUOUS
 62
     3
 10
-1.6000000000000001
 20
210.0
 30
0.0
 11
-4.563034
 21
209.38321099999999
 31
0.0
  0
ARC
  5
127
  8
OUTLINE
  6
CONTINUOUS
 62
     3
 10
-4.4000000000000004
 20
208.59999999999999
 30
0.0
 40
0.8
 50
101.758836
 51
180.0
  0
ARC
  5
128
  8
OUTLINE
  6
CONTINUOUS
 62
     3
 10
-7.5
 20
205.30000000000001
 30
0.0
 40
2.5
 50
90.0
 51
180.0
  0
LINE
  5
129
  8
OUTLINE
  6
CONTINUOUS
 62
     3
 10
-5.2000000000000002
 20
207.80000000000001
 30
0.0
 11
-7.5
 21
207.80000000000001
 31
0.0
  0
LINE
  5
12A
  8
DETAIL
  6
CONTINUOUS
 62
     5
 10
-5.2000000000000002
 20
207.80000000000001
 30
0.0
 11
-7.5
 21
207.80000000000001
 31
0.0
  0
ARC
  5
12B
  8
DETAIL
  6
CONTINUOUS
 62
     5
 10
-7.5
 20
205.30000000000001
 30
0.0
 40
2.5
 50
90.0
 51
180.0
  0
ARC
  5
12C
  8
DETAIL
  6
CONTINUOUS
 62
     5
 10
-4.4000000000000004
 20
208.59999999999999
 30
0.0
 40
0.8
 50
101.758836
 51
180.0
  0
LINE
  5
12D
  8
DETAIL
  6
CONTINUOUS
 62
     5
 10
-1.6000000000000001
 20
210.0
 30
0.0
 11
-4.563034
 21
209.38321099999999
 31
0.0
  0
LINE
  5
12E
  8
OUTLINE
  6
CONTINUOUS
 62
     3
 10
-19.989761000000001
 20
139.82997900000001
 30
0.0
 11
-22.989761000000001
 21
139.82997900000001
 31
0.0
  0
LINE
  5
12F
  8
OUTLINE
  6
CONTINUOUS
 62
     3
 10
-19.989761000000001
 20
143.20784699999999
 30
0.0
 11
-22.989761000000001
 21
143.20784699999999
 31
0.0
  0
LINE
  5
130
  8
OUTLINE
  6
CONTINUOUS
 62
     3
 10
-19.989761000000001
 20
160.41004000000001
 30
0.0
 11
-22.989761000000001
 21
160.41004000000001
 31
0.0
  0
LINE
  5
131
  8
OUTLINE
  6
CONTINUOUS
 62
     3
 10
-22.989761000000001
 20
160.30878000000001
 30
0.0
 11
-22.989761000000001
 21
139.17602600000001
 31
0.0
  0
ARC
  5
132
  8
OUTLINE
  6
CONTINUOUS
 62
     3
 10
-25.989761000000001
 20
153.022074
 30
0.0
 40
3.0
 50
308.55447900000001
 51
0.0
  0
ARC
  5
133
  8
OUTLINE
  6
CONTINUOUS
 62
     3
 10
-17.489761000000001
 20
169.22602599999999
 30
0.0
 40
2.5
 50
90.0
 51
180.0
  0
ARC
  5
134
  8
OUTLINE
  6
CONTINUOUS
 62
     3
 10
-17.489761000000001
 20
168.42211699999999
 30
0.0
 40
2.5
 50
90.0
 51
179.99999700000001
  0
ARC
  5
135
  8
OUTLINE
  6
CONTINUOUS
 62
     3
 10
-12.489761
 20
173.42211699999999
 30
0.0
 40
2.5
 50
270.0
 51
358.56440300000003
  0
ARC
  5
136
  8
OUTLINE
  6
CONTINUOUS
 62
     3
 10
-12.489761
 20
174.22602599999999
 30
0.0
 40
2.5
 50
270.0
 51
354.81277599999999
  0
LINE
  5
137
  8
OUTLINE
  6
CONTINUOUS
 62
     3
 10
-12.489761
 20
171.72602599999999
 30
0.0
 11
-17.489761000000001
 21
171.72602599999999
 31
0.0
  0
LINE
  5
138
  8
OUTLINE
  6
CONTINUOUS
 62
     3
 10
-12.489761
 20
170.92211699999999
 30
0.0
 11
-17.489761000000001
 21
170.92211699999999
 31
0.0
  0
LINE
  5
139
  8
OUTLINE
  6
CONTINUOUS
 62
     3
 10
-27.989771000000001
 20
140.02602200000001
 30
0.0
 11
-27.489771000000001
 21
139.17602199999999
 31
0.0
  0
LINE
  5
13A
  8
OUTLINE
  6
CONTINUOUS
 62
     3
 10
-27.489761000000001
 20
139.17602600000001
 30
0.0
 11
-22.989761000000001
 21
139.17602600000001
 31
0.0
  0
ARC
  5
13B
  8
OUTLINE
  6
DASHED
 62
     3
 10
-29.989761000000001
 20
149.82602600000001
 30
0.0
 40
10.0
 50
359.8837529999999
 51
0.0
  0
LINE
  5
13C
  8
OUTLINE
  6
CONTINUOUS
 62
     3
 10
-22.989761000000001
 20
150.67602600000001
 30
0.0
 11
-27.489761000000001
 21
150.67602600000001
 31
0.0
  0
LINE
  5
13D
  8
OUTLINE
  6
CONTINUOUS
 62
     3
 10
-27.489771000000001
 20
150.67603099999999
 30
0.0
 11
-27.989771000000001
 21
149.826031
 31
0.0
  0
LINE
  5
13E
  8
OUTLINE
  6
CONTINUOUS
 62
     3
 10
-22.989761000000001
 20
142.05102600000001
 30
0.0
 11
-27.489761000000001
 21
142.05102600000001
 31
0.0
  0
ARC
  5
13F
  8
OUTLINE
  6
CONTINUOUS
 62
     3
 10
-19.474136000000001
 20
144.92602600000001
 30
0.0
 40
8.515625
 50
160.26832999999999
 51
199.73157900000001
  0
ARC
  5
140
  8
OUTLINE
  6
CONTINUOUS
 62
     3
 10
-25.673355000000001
 20
149.23852600000001
 30
0.0
 40
2.3164060000000002
 50
180.0
 51
218.35799700000001
  0
LINE
  5
141
  8
OUTLINE
  6
CONTINUOUS
 62
     3
 10
-22.989761000000001
 20
147.80102500000001
 30
0.0
 11
-27.489761000000001
 21
147.80102500000001
 31
0.0
  0
LINE
  5
142
  8
OUTLINE
  6
CONTINUOUS
 62
     3
 10
-19.989761000000001
 20
128.950861
 30
0.0
 11
-19.989761000000001
 21
156.02950899999999
 31
0.0
  0
LINE
  5
143
  8
OUTLINE
  6
CONTINUOUS
 62
     3
 10
-22.989761000000001
 20
139.176027
 30
0.0
 11
-22.989761000000001
 21
150.67602600000001
 31
0.0
  0
LINE
  5
144
  8
OUTLINE
  6
CONTINUOUS
 62
     3
 10
-27.989758999999999
 20
149.82602499999999
 30
0.0
 11
-27.989758999999999
 21
140.026028
 31
0.0
  0
ARC
  5
145
  8
OUTLINE
  6
CONTINUOUS
 62
     3
 10
-25.673355000000001
 20
140.61352600000001
 30
0.0
 40
2.3164060000000002
 50
141.64194699999999
 51
180.0
  0
ARC
  5
146
  8
OUTLINE
  6
DASHED
 62
     3
 10
-12.5
 20
142.5
 30
0.0
 40
2.5
 50
354.81277599999999
 51
0.0
  0
ARC
  5
147
  8
OUTLINE
  6
DASHED
 62
     3
 10
-12.5
 20
141.696091
 30
0.0
 40
2.5
 50
358.56440300000003
 51
0.0
  0
LINE
  5
148
  8
DETAIL
  6
CONTINUOUS
 62
     5
 10
-75.331168000000005
 20
140.72129699999999
 30
0.0
 11
-80.495834000000016
 21
137.36981800000001
 31
0.0
  0
ARC
  5
149
  8
DETAIL
  6
DASHED
 62
     5
 10
-12.5
 20
141.696091
 30
0.0
 40
2.5
 50
358.56440300000003
 51
0.0
  0
ARC
  5
14A
  8
DETAIL
  6
DASHED
 62
     5
 10
-12.5
 20
142.5
 30
0.0
 40
2.5
 50
354.81277599999999
 51
0.0
  0
ARC
  5
14B
  8
DETAIL
  6
CONTINUOUS
 62
     5
 10
-25.673355000000001
 20
140.61352600000001
 30
0.0
 40
2.3164060000000002
 50
141.64194699999999
 51
180.0
  0
LINE
  5
14C
  8
DETAIL
  6
CONTINUOUS
 62
     5
 10
-27.989758999999999
 20
149.82602499999999
 30
0.0
 11
-27.989758999999999
 21
140.026028
 31
0.0
  0
LINE
  5
14D
  8
DETAIL
  6
CONTINUOUS
 62
     5
 10
-22.989761000000001
 20
139.176027
 30
0.0
 11
-22.989761000000001
 21
150.67602600000001
 31
0.0
  0
LINE
  5
14E
  8
DETAIL
  6
CONTINUOUS
 62
     5
 10
-19.989761000000001
 20
128.950861
 30
0.0
 11
-19.989761000000001
 21
156.02950899999999
 31
0.0
  0
LINE
  5
14F
  8
DETAIL
  6
CONTINUOUS
 62
     5
 10
-22.989761000000001
 20
147.80102500000001
 30
0.0
 11
-27.489761000000001
 21
147.80102500000001
 31
0.0
  0
ARC
  5
150
  8
DETAIL
  6
CONTINUOUS
 62
     5
 10
-25.673355000000001
 20
149.23852600000001
 30
0.0
 40
2.3164060000000002
 50
180.0
 51
218.35799700000001
  0
ARC
  5
151
  8
DETAIL
  6
CONTINUOUS
 62
     5
 10
-19.474136000000001
 20
144.92602600000001
 30
0.0
 40
8.515625
 50
160.26832999999999
 51
199.73157900000001
  0
LINE
  5
152
  8
DETAIL
  6
CONTINUOUS
 62
     5
 10
-22.989761000000001
 20
142.05102600000001
 30
0.0
 11
-27.489761000000001
 21
142.05102600000001
 31
0.0
  0
LINE
  5
153
  8
DETAIL
  6
CONTINUOUS
 62
     5
 10
-27.489771000000001
 20
150.67603099999999
 30
0.0
 11
-27.989771000000001
 21
149.826031
 31
0.0
  0
LINE
  5
154
  8
DETAIL
  6
CONTINUOUS
 62
     5
 10
-22.989761000000001
 20
150.67602600000001
 30
0.0
 11
-27.489761000000001
 21
150.67602600000001
 31
0.0
  0
ARC
  5
155
  8
DETAIL
  6
DASHED
 62
     5
 10
-29.989761000000001
 20
149.82602600000001
 30
0.0
 40
10.0
 50
359.8837529999999
 51
0.0
  0
LINE
  5
156
  8
DETAIL
  6
CONTINUOUS
 62
     5
 10
-27.489761000000001
 20
139.17602600000001
 30
0.0
 11
-22.989761000000001
 21
139.17602600000001
 31
0.0
  0
LINE
  5
157
  8
DETAIL
  6
CONTINUOUS
 62
     5
 10
-27.989771000000001
 20
140.02602200000001
 30
0.0
 11
-27.489771000000001
 21
139.17602199999999
 31
0.0
  0
LINE
  5
158
  8
DETAIL
  6
CONTINUOUS
 62
     5
 10
-12.489761
 20
170.92211699999999
 30
0.0
 11
-17.489761000000001
 21
170.92211699999999
 31
0.0
  0
LINE
  5
159
  8
DETAIL
  6
CONTINUOUS
 62
     5
 10
-12.489761
 20
171.72602599999999
 30
0.0
 11
-17.489761000000001
 21
171.72602599999999
 31
0.0
  0
ARC
  5
15A
  8
DETAIL
  6
CONTINUOUS
 62
     5
 10
-12.489761
 20
174.22602599999999
 30
0.0
 40
2.5
 50
270.0
 51
354.81277599999999
  0
ARC
  5
15B
  8
DETAIL
  6
CONTINUOUS
 62
     5
 10
-12.489761
 20
173.42211699999999
 30
0.0
 40
2.5
 50
270.0
 51
358.56440300000003
  0
ARC
  5
15C
  8
DETAIL
  6
CONTINUOUS
 62
     5
 10
-17.489761000000001
 20
168.42211699999999
 30
0.0
 40
2.5
 50
90.0
 51
179.99999700000001
  0
ARC
  5
15D
  8
DETAIL
  6
CONTINUOUS
 62
     5
 10
-17.489761000000001
 20
169.22602599999999
 30
0.0
 40
2.5
 50
90.0
 51
180.0
  0
ARC
  5
15E
  8
DETAIL
  6
CONTINUOUS
 62
     5
 10
-25.989761000000001
 20
153.022074
 30
0.0
 40
3.0
 50
308.55447900000001
 51
0.0
  0
LINE
  5
15F
  8
DETAIL
  6
CONTINUOUS
 62
     5
 10
-22.989761000000001
 20
160.30878000000001
 30
0.0
 11
-22.989761000000001
 21
139.17602600000001
 31
0.0
  0
LINE
  5
160
  8
DETAIL
  6
CONTINUOUS
 62
     5
 10
-19.989761000000001
 20
160.41004000000001
 30
0.0
 11
-22.989761000000001
 21
160.41004000000001
 31
0.0
  0
LINE
  5
161
  8
DETAIL
  6
CONTINUOUS
 62
     5
 10
-19.989761000000001
 20
143.20784699999999
 30
0.0
 11
-22.989761000000001
 21
143.20784699999999
 31
0.0
  0
LINE
  5
162
  8
DETAIL
  6
CONTINUOUS
 62
     5
 10
-19.989761000000001
 20
139.82997900000001
 30
0.0
 11
-22.989761000000001
 21
139.82997900000001
 31
0.0
  0
LINE
  5
163
  8
DETAIL
  6
CONTINUOUS
 62
     5
 10
-81.783442000000008
 20
86.231665000000007
 30
0.0
 11
-89.028130000000004
 21
89.131915000000006
 31
0.0
  0
LINE
  5
164
  8
DETAIL
  6
CONTINUOUS
 62
     5
 10
-89.028105999999994
 20
19.799384
 30
0.0
 11
-81.783418999999995
 21
4.2731879999999993
 31
0.0
  0
LINE
  5
165
  8
OUTLINE
  6
CONTINUOUS
 62
     3
 10
-140.0
 20
0.0
 30
0.0
 11
-140.0
 21
68.103952000000007
 31
0.0
  0
LINE
  5
166
  8
OUTLINE
  6
CONTINUOUS
 62
     3
 10
-140.0
 20
0.0
 30
0.0
 11
-140.0
 21
68.103952000000007
 31
0.0
  0
LINE
  5
167
  8
DETAIL
  6
CONTINUOUS
 62
     5
 10
-100.376232
 20
48.572240999999991
 30
0.0
 11
-102.060034
 21
59.581735999999999
 31
0.0
  0
LINE
  5
168
  8
DETAIL
  6
CONTINUOUS
 62
     5
 10
-102.06002100000001
 20
59.58173399999999
 30
0.0
 11
-95.791691999999998
 21
38.380550999999997
 31
0.0
  0
LINE
  5
169
  8
DETAIL
  6
CONTINUOUS
 62
     5
 10
-134.80000000000001
 20
59.482250000000001
 30
0.0
 11
-134.80000000000001
 21
51.632249999999999
 31
0.0
  0
LINE
  5
16A
  8
DETAIL
  6
CONTINUOUS
 62
     5
 10
-136.0
 20
59.482250000000001
 30
0.0
 11
-136.0
 21
11.18225
 31
0.0
  0
LINE
  5
16B
  8
DETAIL
  6
CONTINUOUS
 62
     5
 10
-140.0
 20
0.0
 30
0.0
 11
-140.0
 21
68.103952000000007
 31
0.0
  0
LINE
  5
16C
  8
DETAIL
  6
CONTINUOUS
 62
     5
 10
-140.0
 20
0.0
 30
0.0
 11
-140.0
 21
68.103952000000007
 31
0.0
  0
LINE
  5
16D
  8
OUTLINE
  6
CONTINUOUS
 62
     3
 10
-140.0
 20
102.82997899999999
 30
0.0
 11
-140.0
 21
70.171701999999996
 31
0.0
  0
LINE
  5
16E
  8
OUTLINE
  6
CONTINUOUS
 62
     3
 10
-137.0
 20
65.099999999999994
 30
0.0
 11
-137.0
 21
63.79999999999999
 31
0.0
  0
LINE
  5
16F
  8
OUTLINE
  6
CONTINUOUS
 62
     3
 10
-140.0
 20
69.400000000000006
 30
0.0
 11
-137.0
 21
69.400000000000006
 31
0.0
  0
LINE
  5
170
  8
OUTLINE
  6
CONTINUOUS
 62
     3
 10
-140.0
 20
58.650326
 30
0.0
 11
-140.0
 21
70.171701999999996
 31
0.0
  0
LINE
  5
171
  8
DETAIL
  6
CONTINUOUS
 62
     5
 10
-100.37625300000001
 20
93.258036000000004
 30
0.0
 11
-102.060057
 21
83.843830000000011
 31
0.0
  0
LINE
  5
172
  8
DETAIL
  6
CONTINUOUS
 62
     5
 10
-89.028111999999993
 20
89.131866000000016
 30
0.0
 11
-95.791706999999974
 21
88.416322999999977
 31
0.0
  0
LINE
  5
173
  8
DETAIL
  6
CONTINUOUS
 62
     5
 10
-95.791697999999997
 20
88.416302999999999
 30
0.0
 11
-102.06001999999999
 21
83.843828999999999
 31
0.0
  0
LINE
  5
174
  8
DETAIL
  6
CONTINUOUS
 62
     5
 10
-136.0
 20
59.482250000000001
 30
0.0
 11
-134.80000000000001
 21
59.482250000000001
 31
0.0
  0
LINE
  5
175
  8
DETAIL
  6
CONTINUOUS
 62
     5
 10
-140.0
 20
58.650326
 30
0.0
 11
-140.0
 21
70.171701999999996
 31
0.0
  0
LINE
  5
176
  8
DETAIL
  6
CONTINUOUS
 62
     5
 10
-137.0
 20
68.305622999999997
 30
0.0
 11
-136.0
 21
68.305622999999997
 31
0.0
  0
ARC
  5
177
  8
DETAIL
  6
CONTINUOUS
 62
     5
 10
-136.0
 20
67.805622999999997
 30
0.0
 40
0.5
 50
0.0
 51
90.0
  0
LINE
  5
178
  8
DETAIL
  6
CONTINUOUS
 62
     5
 10
-140.0
 20
69.400000000000006
 30
0.0
 11
-137.0
 21
69.400000000000006
 31
0.0
  0
LINE
  5
179
  8
DETAIL
  6
CONTINUOUS
 62
     5
 10
-135.5
 20
67.805622999999997
 30
0.0
 11
-135.5
 21
63.805622999999997
 31
0.0
  0
LINE
  5
17A
  8
DETAIL
  6
CONTINUOUS
 62
     5
 10
-135.5
 20
63.805622999999997
 30
0.0
 11
-135.5
 21
59.80562299999999
 31
0.0
  0
LINE
  5
17B
  8
DETAIL
  6
CONTINUOUS
 62
     5
 10
-137.0
 20
59.305622999999997
 30
0.0
 11
-136.0
 21
59.305622999999997
 31
0.0
  0
ARC
  5
17C
  8
DETAIL
  6
CONTINUOUS
 62
     5
 10
-136.0
 20
59.80562299999999
 30
0.0
 40
0.5
 50
270.0
 51
0.0
  0
LINE
  5
17D
  8
DETAIL
  6
CONTINUOUS
 62
     5
 10
-137.0
 20
65.099999999999994
 30
0.0
 11
-137.0
 21
63.79999999999999
 31
0.0
  0
LINE
  5
17E
  8
DETAIL
  6
CONTINUOUS
 62
     5
 10
-140.0
 20
102.82997899999999
 30
0.0
 11
-140.0
 21
70.171701999999996
 31
0.0
  0
LINE
  5
17F
  8
OUTLINE
  6
CONTINUOUS
 62
     3
 10
-159.5
 20
49.232250000000001
 30
0.0
 11
-159.5
 21
0.0
 31
0.0
  0
LINE
  5
180
  8
OUTLINE
  6
CONTINUOUS
 62
     3
 10
-163.5
 20
52.232250000000001
 30
0.0
 11
-162.5
 21
52.232250000000001
 31
0.0
  0
ARC
  5
181
  8
OUTLINE
  6
CONTINUOUS
 62
     3
 10
-162.5
 20
49.232250000000001
 30
0.0
 40
3.0
 50
0.0
 51
90.0
  0
LINE
  5
182
  8
OUTLINE
  6
CONTINUOUS
 62
     3
 10
-137.0
 20
9.2322500000000005
 30
0.0
 11
-137.0
 21
55.232250000000001
 31
0.0
  0
LINE
  5
183
  8
DETAIL
  6
CONTINUOUS
 62
     5
 10
-95.480423000000002
 20
23.556832
 30
0.0
 11
-100.376245
 21
48.572237999999992
 31
0.0
  0
LINE
  5
184
  8
DETAIL
  6
CONTINUOUS
 62
     5
 10
-95.791702000000001
 20
38.380557000000003
 30
0.0
 11
-89.028131999999999
 21
19.799384
 31
0.0
  0
LINE
  5
185
  8
DETAIL
  6
CONTINUOUS
 62
     5
 10
-90.549281999999991
 20
4.2630549999999996
 30
0.0
 11
-97.650000000000006
 21
4.0360820000000004
 31
0.0
  0
LINE
  5
186
  8
DETAIL
  6
CONTINUOUS
 62
     5
 10
-97.650000000000006
 20
44.232250000000001
 30
0.0
 11
-97.650000000000006
 21
11.346622999999999
 31
0.0
  0
ARC
  5
187
  8
DETAIL
  6
CONTINUOUS
 62
     5
 10
-103.34999999999999
 20
44.232250000000001
 30
0.0
 40
5.7000000000000002
 50
0.0
 51
88.234443999999996
  0
LINE
  5
188
  8
DETAIL
  6
CONTINUOUS
 62
     5
 10
-120.502944
 20
50.432250000000003
 30
0.0
 11
-119.63691799999999
 21
49.932250000000003
 31
0.0
  0
LINE
  5
189
  8
DETAIL
  6
CONTINUOUS
 62
     5
 10
-103.174384
 20
49.929544
 30
0.0
 11
-119.63691799999999
 21
49.932250000000003
 31
0.0
  0
ARC
  5
18A
  8
DETAIL
  6
CONTINUOUS
 62
     5
 10
-133.59999999999999
 20
51.632249999999999
 30
0.0
 40
1.1999999999999991
 50
180.0
 51
239.117615
  0
LINE
  5
18B
  8
DETAIL
  6
CONTINUOUS
 62
     5
 10
-128.400002
 20
43.502383000000002
 30
0.0
 11
-130.80000200000001
 21
43.502383000000002
 31
0.0
  0
LINE
  5
18C
  8
DETAIL
  6
CONTINUOUS
 62
     5
 10
-128.400002
 20
48.502383000000002
 30
0.0
 11
-130.80000200000001
 21
48.502383000000002
 31
0.0
  0
LINE
  5
18D
  8
DETAIL
  6
CONTINUOUS
 62
     5
 10
-128.400002
 20
48.502383000000002
 30
0.0
 11
-128.400002
 21
43.502383000000002
 31
0.0
  0
LINE
  5
18E
  8
DETAIL
  6
CONTINUOUS
 62
     5
 10
-134.80000000000001
 20
50.602384000000001
 30
0.0
 11
-134.80000000000001
 21
41.402383
 31
0.0
  0
LINE
  5
18F
  8
DETAIL
  6
CONTINUOUS
 62
     5
 10
-134.80000100000001
 20
41.402383999999998
 30
0.0
 11
-131.20000099999999
 21
41.402383999999998
 31
0.0
  0
LINE
  5
190
  8
DETAIL
  6
CONTINUOUS
 62
     5
 10
-131.200007
 20
41.402388000000002
 30
0.0
 11
-130.80000699999999
 21
42.102389000000002
 31
0.0
  0
LINE
  5
191
  8
DETAIL
  6
CONTINUOUS
 62
     5
 10
-130.80000000000001
 20
42.102384999999991
 30
0.0
 11
-130.80000000000001
 21
49.902382000000003
 31
0.0
  0
LINE
  5
192
  8
DETAIL
  6
CONTINUOUS
 62
     5
 10
-130.80000699999999
 20
49.902377999999999
 30
0.0
 11
-131.200007
 21
50.602378000000002
 31
0.0
  0
LINE
  5
193
  8
DETAIL
  6
CONTINUOUS
 62
     5
 10
-131.20000099999999
 20
50.602383000000003
 30
0.0
 11
-134.79999900000001
 21
50.602383000000003
 31
0.0
  0
LINE
  5
194
  8
DETAIL
  6
CONTINUOUS
 62
     5
 10
-131.20000099999999
 20
48.302384000000004
 30
0.0
 11
-134.80000000000001
 21
48.302384000000004
 31
0.0
  0
LINE
  5
195
  8
DETAIL
  6
CONTINUOUS
 62
     5
 10
-131.20000099999999
 20
43.702382999999998
 30
0.0
 11
-134.80000000000001
 21
43.702382999999998
 31
0.0
  0
ARC
  5
196
  8
DETAIL
  6
CONTINUOUS
 62
     5
 10
-132.65313800000001
 20
49.452382
 30
0.0
 40
1.8531349999999991
 50
321.64226500000001
 51
359.99998199999999
  0
ARC
  5
197
  8
DETAIL
  6
CONTINUOUS
 62
     5
 10
-137.61250000000001
 20
46.002383000000002
 30
0.0
 40
6.8124979999999988
 50
340.26832999999999
 51
19.731579
  0
ARC
  5
198
  8
DETAIL
  6
CONTINUOUS
 62
     5
 10
-132.65313599999999
 20
42.552384999999987
 30
0.0
 40
1.8531329999999999
 50
359.99998199999999
 51
38.357669000000001
  0
LINE
  5
199
  8
DETAIL
  6
CONTINUOUS
 62
     5
 10
-120.502944
 20
50.432250000000003
 30
0.0
 11
-131.102791
 21
50.432250000000003
 31
0.0
  0
LINE
  5
19A
  8
DETAIL
  6
CONTINUOUS
 62
     5
 10
-133.0
 20
55.732250000000001
 30
0.0
 11
-133.0
 21
56.732250000000001
 31
0.0
  0
LINE
  5
19B
  8
DETAIL
  6
CONTINUOUS
 62
     5
 10
-134.80000000000001
 20
56.732250000000001
 30
0.0
 11
-133.0
 21
56.732250000000001
 31
0.0
  0
ARC
  5
19C
  8
DETAIL
  6
CONTINUOUS
 62
     5
 10
-135.5
 20
55.232250000000001
 30
0.0
 40
1.5
 50
109.471221
 51
180.0
  0
LINE
  5
19D
  8
DETAIL
  6
CONTINUOUS
 62
     5
 10
-134.80000000000001
 20
55.732250000000001
 30
0.0
 11
-133.0
 21
55.732250000000001
 31
0.0
  0
LINE
  5
19E
  8
DETAIL
  6
CONTINUOUS
 62
     5
 10
-134.80000000000001
 20
54.232250000000001
 30
0.0
 11
-134.80000000000001
 21
51.632249999999999
 31
0.0
  0
LINE
  5
19F
  8
DETAIL
  6
CONTINUOUS
 62
     5
 10
-137.0
 20
9.2322500000000005
 30
0.0
 11
-137.0
 21
55.232250000000001
 31
0.0
  0
ARC
  5
1A0
  8
DETAIL
  6
CONTINUOUS
 62
     5
 10
-162.5
 20
49.232250000000001
 30
0.0
 40
3.0
 50
0.0
 51
90.0
  0
LINE
  5
1A1
  8
DETAIL
  6
CONTINUOUS
 62
     5
 10
-163.5
 20
52.232250000000001
 30
0.0
 11
-162.5
 21
52.232250000000001
 31
0.0
  0
LINE
  5
1A2
  8
DETAIL
  6
CONTINUOUS
 62
     5
 10
-134.80000000000001
 20
0.65225
 30
0.0
 11
-134.80000000000001
 21
42.402250000000002
 31
0.0
  0
LINE
  5
1A3
  8
DETAIL
  6
CONTINUOUS
 62
     5
 10
-97.650000000000006
 20
11.346622999999999
 30
0.0
 11
-97.650000000000006
 21
0.0
 31
0.0
  0
LINE
  5
1A4
  8
DETAIL
  6
CONTINUOUS
 62
     5
 10
-159.5
 20
49.232250000000001
 30
0.0
 11
-159.5
 21
0.0
 31
0.0
  0
LINE
  5
1A5
  8
DETAIL
  6
CONTINUOUS
 62
     5
 10
-136.0
 20
55.232250000000001
 30
0.0
 11
-136.0
 21
0.0
 31
0.0
  0
LINE
  5
1A6
  8
DETAIL
  6
CONTINUOUS
 62
     5
 10
-134.80000000000001
 20
43.702249999999999
 30
0.0
 11
-134.80000000000001
 21
0.0
 31
0.0
  0
LINE
  5
1A7
  8
DETAIL
  6
CONTINUOUS
 62
     5
 10
-120.500181
 20
48.779809
 30
0.0
 11
-120.502944
 21
0.0
 31
0.0
  0
LINE
  5
1A8
  8
DETAIL
  6
CONTINUOUS
 62
     5
 10
-120.502944
 20
0.0
 30
0.0
 11
-120.502944
 21
31.969999999999999
 31
0.0
  0
LINE
  5
1A9
  8
DETAIL
  6
CONTINUOUS
 62
     5
 10
-59.989761000000001
 20
59.986331999999997
 30
0.0
 11
-65.850819999999985
 21
71.185055000000006
 31
0.0
  0
LINE
  5
1AA
  8
DETAIL
  6
CONTINUOUS
 62
     5
 10
-65.850843000000012
 20
71.185057
 30
0.0
 11
-74.057681000000002
 21
80.110588000000007
 31
0.0
  0
LINE
  5
1AB
  8
DETAIL
  6
CONTINUOUS
 62
     5
 10
-74.057683999999995
 20
80.110543000000007
 30
0.0
 11
-81.783431999999976
 21
86.231596999999994
 31
0.0
  0
LINE
  5
1AC
  8
DETAIL
  6
CONTINUOUS
 62
     5
 10
-81.783418999999995
 20
4.2731879999999993
 30
0.0
 11
-60.0
 21
4.0
 31
0.0
  0
ARC
  5
1AD
  8
OUTLINE
  6
CONTINUOUS
 62
     3
 10
-1.6000000000000001
 20
-208.40000000000001
 30
0.0
 40
1.6000000000000001
 50
270.0
 51
0.0
  0
ARC
  5
1AE
  8
DETAIL
  6
CONTINUOUS
 62
     5
 10
-1.6000000000000001
 20
-208.40000000000001
 30
0.0
 40
1.6000000000000001
 50
270.0
 51
0.0
  0
LINE
  5
1AF
  8
SIZE
  6
CONTINUOUS
 62
    30
 10
0.0
 20
170.67602600000001
 30
0.0
 11
0.0
 21
607.68863199999987
 31
0.0
  0
LINE
  5
1B0
  8
SIZE
  6
CONTINUOUS
 62
    30
 10
-176.0
 20
87.849999999999994
 30
0.0
 11
-176.0
 21
607.68863199999987
 31
0.0
  0
LINE
  5
1B1
  8
SIZE
  6
CONTINUOUS
 62
    30
 10
-2.0
 20
577.68863199999998
 30
0.0
 11
-174.0
 21
577.68863199999998
 31
0.0
  0
CIRCLE
  5
1B2
  8
SIZE
  6
CONTINUOUS
 62
    30
 10
0.0
 20
577.68863199999998
 30
0.0
 40
6.0
  0
CIRCLE
  5
1B3
  8
SIZE
  6
CONTINUOUS
 62
    30
 10
-176.0
 20
577.68863199999998
 30
0.0
 40
6.0
  0
TEXT
  5
1B4
  8
SIZE
  6
CONTINUOUS
 62
    30
 10
-155.19999999999999
 20
602.68863199999998
 30
0.0
 40
64.0
  1
176
 41
0.9
 72
     1
 11
-88.0
 21
602.68863199999998
 31
0.0
  0
POINT
  5
1B5
  8
DEFPOINTS
  6
CONTINUOUS
 62
    30
 10
0.0
 20
150.67602600000001
 30
0.0
  0
POINT
  5
1B6
  8
DEFPOINTS
  6
CONTINUOUS
 62
    30
 10
-176.0
 20
67.849999999999994
 30
0.0
  0
POINT
  5
1B7
  8
DEFPOINTS
  6
CONTINUOUS
 62
    30
 10
-176.0
 20
577.68863199999998
 30
0.0
  0
LINE
  5
1B8
  8
SIZE
  6
CONTINUOUS
 62
    30
 10
0.0
 20
170.67602600000001
 30
0.0
 11
0.0
 21
369.83247899999998
 31
0.0
  0
LINE
  5
1B9
  8
SIZE
  6
CONTINUOUS
 62
    30
 10
-60.0
 20
159.82997900000001
 30
0.0
 11
-60.0
 21
369.83247899999998
 31
0.0
  0
LINE
  5
1BA
  8
SIZE
  6
CONTINUOUS
 62
    30
 10
-2.0
 20
339.83247899999998
 30
0.0
 11
-58.0
 21
339.83247899999998
 31
0.0
  0
LINE
  5
1BB
  8
SIZE
  6
CONTINUOUS
 62
    30
 10
-60.0
 20
339.83247899999998
 30
0.0
 11
-205.25714300000001
 21
339.83247899999998
 31
0.0
  0
CIRCLE
  5
1BC
  8
SIZE
  6
CONTINUOUS
 62
    30
 10
0.0
 20
339.83247899999998
 30
0.0
 40
6.0
  0
CIRCLE
  5
1BD
  8
SIZE
  6
CONTINUOUS
 62
    30
 10
-60.0
 20
339.83247899999998
 30
0.0
 40
6.0
  0
TEXT
  5
1BE
  8
SIZE
  6
CONTINUOUS
 62
    30
 10
-164.0082304054572
 20
364.83247899999998
 30
0.0
 40
64.0
  1
60
 41
0.9
 72
     1
 11
-117.37965897688581
 21
364.83247899999998
 31
0.0
  0
POINT
  5
1BF
  8
DEFPOINTS
  6
CONTINUOUS
 62
    30
 10
0.0
 20
150.67602600000001
 30
0.0
  0
POINT
  5
1C0
  8
DEFPOINTS
  6
CONTINUOUS
 62
    30
 10
-60.0
 20
139.82997900000001
 30
0.0
  0
POINT
  5
1C1
  8
DEFPOINTS
  6
CONTINUOUS
 62
    30
 10
-60.0
 20
339.83247899999998
 30
0.0
  0
LINE
  5
1C2
  8
SIZE
  6
CONTINUOUS
 62
    30
 10
0.0
 20
182.02950899999999
 30
0.0
 11
0.0
 21
472.5610999999999
 31
0.0
  0
LINE
  5
1C3
  8
SIZE
  6
CONTINUOUS
 62
    30
 10
-10.0
 20
190.92211699999999
 30
0.0
 11
-10.0
 21
472.5610999999999
 31
0.0
  0
LINE
  5
1C4
  8
SIZE
  6
CONTINUOUS
 62
    30
 10
-12.0
 20
442.5610999999999
 30
0.0
 11
-14.0
 21
442.5610999999999
 31
0.0
  0
LINE
  5
1C5
  8
SIZE
  6
CONTINUOUS
 62
    30
 10
2.0
 20
442.5610999999999
 30
0.0
 11
136.28571400000001
 21
442.5610999999999
 31
0.0
  0
LINE
  5
1C6
  8
SIZE
  6
CONTINUOUS
 62
    30
 10
-10.0
 20
442.5610999999999
 30
0.0
 11
0.0
 21
442.5610999999999
 31
0.0
  0
CIRCLE
  5
1C7
  8
SIZE
  6
CONTINUOUS
 62
    30
 10
-10.0
 20
442.5610999999999
 30
0.0
 40
6.0
  0
CIRCLE
  5
1C8
  8
SIZE
  6
CONTINUOUS
 62
    30
 10
0.0
 20
442.5610999999999
 30
0.0
 40
6.0
  0
TEXT
  5
1C9
  8
SIZE
  6
CONTINUOUS
 62
    30
 10
28.999999857142861
 20
467.5610999999999
 30
0.0
 40
64.0
  1
10
 41
0.9
 72
     1
 11
70.142856999999992
 21
467.5610999999999
 31
0.0
  0
POINT
  5
1CA
  8
DEFPOINTS
  6
CONTINUOUS
 62
    30
 10
0.0
 20
162.02950899999999
 30
0.0
  0
POINT
  5
1CB
  8
DEFPOINTS
  6
CONTINUOUS
 62
    30
 10
-10.0
 20
170.92211699999999
 30
0.0
  0
POINT
  5
1CC
  8
DEFPOINTS
  6
CONTINUOUS
 62
    30
 10
-10.0
 20
442.5610999999999
 30
0.0
  0
LINE
  5
1CD
  8
SIZE
  6
CONTINUOUS
 62
    30
 10
-9.9897609999999997
 20
190.99379300000001
 30
0.0
 11
-9.9897609999999997
 21
472.5610999999999
 31
0.0
  0
LINE
  5
1CE
  8
SIZE
  6
CONTINUOUS
 62
    30
 10
-19.989761000000001
 20
191.72602599999999
 30
0.0
 11
-19.989761000000001
 21
472.5610999999999
 31
0.0
  0
LINE
  5
1CF
  8
SIZE
  6
CONTINUOUS
 62
    30
 10
-7.9897609999999988
 20
442.5610999999999
 30
0.0
 11
-5.9897609999999988
 21
442.5610999999999
 31
0.0
  0
LINE
  5
1D0
  8
SIZE
  6
CONTINUOUS
 62
    30
 10
-21.989761000000001
 20
442.5610999999999
 30
0.0
 11
-179.69262000000001
 21
442.5610999999999
 31
0.0
  0
LINE
  5
1D1
  8
SIZE
  6
CONTINUOUS
 62
    30
 10
-9.9897609999999997
 20
442.5610999999999
 30
0.0
 11
-19.989761000000001
 21
442.5610999999999
 31
0.0
  0
CIRCLE
  5
1D2
  8
SIZE
  6
CONTINUOUS
 62
    30
 10
-9.9897609999999997
 20
442.5610999999999
 30
0.0
 40
6.0
  0
CIRCLE
  5
1D3
  8
SIZE
  6
CONTINUOUS
 62
    30
 10
-19.989761000000001
 20
442.5610999999999
 30
0.0
 40
6.0
  0
TEXT
  5
1D4
  8
SIZE
  6
CONTINUOUS
 62
    30
 10
-154.69262014285709
 20
467.5610999999999
 30
0.0
 40
64.0
  1
10
 41
0.9
 72
     1
 11
-113.549763
 21
467.5610999999999
 31
0.0
  0
POINT
  5
1D5
  8
DEFPOINTS
  6
CONTINUOUS
 62
    30
 10
-9.9897609999999997
 20
170.99379300000001
 30
0.0
  0
POINT
  5
1D6
  8
DEFPOINTS
  6
CONTINUOUS
 62
    30
 10
-19.989761000000001
 20
171.72602599999999
 30
0.0
  0
POINT
  5
1D7
  8
DEFPOINTS
  6
CONTINUOUS
 62
    30
 10
-19.989761000000001
 20
442.5610999999999
 30
0.0
  0
ARC
  5
1D8
  8
OUTLINE
  6
CONTINUOUS
 62
     3
 10
-100.0
 20
-95.308779999999985
 30
0.0
 40
65.0
 50
180.0
 51
270.0
  0
ARC
  5
1D9
  8
OUTLINE
  6
CONTINUOUS
 62
     3
 10
-100.0
 20
-97.02950899999999
 30
0.0
 40
65.0
 50
180.0
 51
270.0
  0
ARC
  5
1DA
  8
OUTLINE
  6
CONTINUOUS
 62
     3
 10
-163.5
 20
-54.232250000000001
 30
0.0
 40
2.0
 50
90.0
 51
180.0
  0
LINE
  5
1DB
  8
OUTLINE
  6
CONTINUOUS
 62
     3
 10
-165.0
 20
-67.849999999999994
 30
0.0
 11
-140.0
 21
-67.849999999999994
 31
0.0
  0
LINE
  5
1DC
  8
DETAIL
  6
CONTINUOUS
 62
     5
 10
-165.0
 20
-67.849999999999994
 30
0.0
 11
-140.0
 21
-67.849999999999994
 31
0.0
  0
ARC
  5
1DD
  8
DETAIL
  6
CONTINUOUS
 62
     5
 10
-163.5
 20
-54.232250000000001
 30
0.0
 40
2.0
 50
90.0
 51
180.0
  0
ARC
  5
1DE
  8
DETAIL
  6
CONTINUOUS
 62
     5
 10
-100.0
 20
-95.308779999999985
 30
0.0
 40
65.0
 50
180.0
 51
270.0
  0
ARC
  5
1DF
  8
DETAIL
  6
CONTINUOUS
 62
     5
 10
-100.0
 20
-97.02950899999999
 30
0.0
 40
65.0
 50
180.0
 51
270.0
  0
LINE
  5
1E0
  8
OUTLINE
  6
CONTINUOUS
 62
     3
 10
-170.09999999999999
 20
-91.822582999999995
 30
0.0
 11
-170.09999999999999
 21
-101.90000000000001
 31
0.0
  0
LINE
  5
1E1
  8
OUTLINE
  6
CONTINUOUS
 62
     3
 10
-165.5
 20
-69.400000000000006
 30
0.0
 11
-165.5
 21
-54.232250000000001
 31
0.0
  0
LINE
  5
1E2
  8
OUTLINE
  6
CONTINUOUS
 62
     3
 10
-165.0
 20
-53.527124000000001
 30
0.0
 11
-165.0
 21
-69.400000000000006
 31
0.0
  0
LINE
  5
1E3
  8
DETAIL
  6
CONTINUOUS
 62
     5
 10
-165.5
 20
-69.400000000000006
 30
0.0
 11
-165.5
 21
-54.232250000000001
 31
0.0
  0
LINE
  5
1E4
  8
DETAIL
  6
CONTINUOUS
 62
     5
 10
-165.0
 20
-53.527124000000001
 30
0.0
 11
-165.0
 21
-69.400000000000006
 31
0.0
  0
LINE
  5
1E5
  8
DETAIL
  6
CONTINUOUS
 62
     5
 10
-170.09999999999999
 20
-91.822582999999995
 30
0.0
 11
-170.09999999999999
 21
-101.90000000000001
 31
0.0
  0
ARC
  5
1E6
  8
OUTLINE
  6
CONTINUOUS
 62
     3
 10
-173.50794200000001
 20
-57.5
 30
0.0
 40
3.399999999999999
 50
0.0
 51
39.155434
  0
LINE
  5
1E7
  8
OUTLINE
  6
CONTINUOUS
 62
     3
 10
-170.87146000000001
 20
-55.353149999999999
 30
0.0
 11
-174.774947
 21
-50.559395000000002
 31
0.0
  0
ARC
  5
1E8
  8
OUTLINE
  6
CONTINUOUS
 62
     3
 10
-168.86619300000001
 20
-46.337125
 30
0.0
 40
7.2622949999999991
 50
190.453948
 51
215.54879199999999
  0
ARC
  5
1E9
  8
DETAIL
  6
CONTINUOUS
 62
     5
 10
-173.50794200000001
 20
-57.5
 30
0.0
 40
3.399999999999999
 50
0.0
 51
39.155434
  0
ARC
  5
1EA
  8
DETAIL
  6
CONTINUOUS
 62
     5
 10
-168.86619300000001
 20
-46.337125
 30
0.0
 40
7.2622949999999991
 50
190.453948
 51
215.54879199999999
  0
LINE
  5
1EB
  8
DETAIL
  6
CONTINUOUS
 62
     5
 10
-170.87146000000001
 20
-55.353149999999999
 30
0.0
 11
-174.774947
 21
-50.559395000000002
 31
0.0
  0
LINE
  5
1EC
  8
OUTLINE
  6
CONTINUOUS
 62
     3
 10
-165.0
 20
-61.100000000000001
 30
0.0
 11
-165.0
 21
-65.303482999999986
 31
0.0
  0
LINE
  5
1ED
  8
OUTLINE
  6
CONTINUOUS
 62
     3
 10
-165.5
 20
-103.5
 30
0.0
 11
-168.5
 21
-103.5
 31
0.0
  0
ARC
  5
1EE
  8
OUTLINE
  6
CONTINUOUS
 62
     3
 10
-168.5
 20
-101.90000000000001
 30
0.0
 40
1.6000000000000001
 50
180.0
 51
270.0
  0
LINE
  5
1EF
  8
OUTLINE
  6
CONTINUOUS
 62
     3
 10
-165.5
 20
-69.400000000000006
 30
0.0
 11
-165.07712699999999
 21
-69.372915000000006
 31
0.0
  0
LINE
  5
1F0
  8
OUTLINE
  6
CONTINUOUS
 62
     3
 10
-165.0
 20
-95.308779999999985
 30
0.0
 11
-165.0
 21
-69.400000000000006
 31
0.0
  0
LINE
  5
1F1
  8
DETAIL
  6
CONTINUOUS
 62
     5
 10
-165.0
 20
-95.308779999999985
 30
0.0
 11
-165.0
 21
-69.400000000000006
 31
0.0
  0
LINE
  5
1F2
  8
DETAIL
  6
CONTINUOUS
 62
     5
 10
-165.5
 20
-69.400000000000006
 30
0.0
 11
-165.07712699999999
 21
-69.372915000000006
 31
0.0
  0
LINE
  5
1F3
  8
DETAIL
  6
CONTINUOUS
 62
     5
 10
-165.5
 20
-103.5
 30
0.0
 11
-168.5
 21
-103.5
 31
0.0
  0
LINE
  5
1F4
  8
DETAIL
  6
CONTINUOUS
 62
     5
 10
-165.0
 20
-61.100000000000001
 30
0.0
 11
-165.0
 21
-65.303482999999986
 31
0.0
  0
ARC
  5
1F5
  8
DETAIL
  6
CONTINUOUS
 62
     5
 10
-168.5
 20
-101.90000000000001
 30
0.0
 40
1.6000000000000001
 50
180.0
 51
270.0
  0
ARC
  5
1F6
  8
OUTLINE
  6
CONTINUOUS
 62
     3
 10
-99.90876999999999
 20
-99.609729999999999
 30
0.0
 40
40.220351999999998
 50
184.592311
 51
269.87003900000002
  0
LINE
  5
1F7
  8
DETAIL
  6
CONTINUOUS
 62
     5
 10
-89.028134999999978
 20
-115.65862799999999
 30
0.0
 11
-95.791714999999996
 21
-133.5242669999999
 31
0.0
  0
LINE
  5
1F8
  8
DETAIL
  6
CONTINUOUS
 62
     5
 10
-70.166508999999991
 20
-97.742931000000013
 30
0.0
 11
-80.495829999999998
 21
-116.05547199999999
 31
0.0
  0
ARC
  5
1F9
  8
DETAIL
  6
CONTINUOUS
 62
     5
 10
-99.90876999999999
 20
-99.609729999999999
 30
0.0
 40
40.220351999999998
 50
184.592311
 51
269.87003900000002
  0
LINE
  5
1FA
  8
DETAIL
  6
CONTINUOUS
 62
     5
 10
-81.783400999999984
 20
-97.232197999999997
 30
0.0
 11
-89.028090000000006
 21
-115.65863899999999
 31
0.0
  0
LINE
  5
1FB
  8
DETAIL
  6
CONTINUOUS
 62
     5
 10
-80.495806000000002
 20
-28.041778000000011
 30
0.0
 11
-88.886595000000014
 21
-2.2424349999999991
 31
0.0
  0
LINE
  5
1FC
  8
DETAIL
  6
CONTINUOUS
 62
     5
 10
-134.80000000000001
 20
-59.482250000000001
 30
0.0
 11
-134.80000000000001
 21
-51.632249999999999
 31
0.0
  0
LINE
  5
1FD
  8
DETAIL
  6
CONTINUOUS
 62
     5
 10
-136.0
 20
-59.482250000000001
 30
0.0
 11
-136.0
 21
-11.18225
 31
0.0
  0
LINE
  5
1FE
  8
OUTLINE
  6
CONTINUOUS
 62
     3
 10
-137.0
 20
-9.2322500000000005
 30
0.0
 11
-137.0
 21
-55.232250000000001
 31
0.0
  0
ARC
  5
1FF
  8
OUTLINE
  6
CONTINUOUS
 62
     3
 10
-162.5
 20
-49.232250000000001
 30
0.0
 40
3.0
 50
270.0
 51
0.0
  0
LINE
  5
200
  8
OUTLINE
  6
CONTINUOUS
 62
     3
 10
-163.5
 20
-52.232250000000001
 30
0.0
 11
-162.5
 21
-52.232250000000001
 31
0.0
  0
LINE
  5
201
  8
DETAIL
  6
CONTINUOUS
 62
     5
 10
-88.290515999999997
 20
-4.075213999999999
 30
0.0
 11
-97.650000000000006
 21
-4.0360820000000004
 31
0.0
  0
LINE
  5
202
  8
DETAIL
  6
CONTINUOUS
 62
     5
 10
-97.650000000000006
 20
-44.232250000000001
 30
0.0
 11
-97.650000000000006
 21
-11.346622999999999
 31
0.0
  0
ARC
  5
203
  8
DETAIL
  6
CONTINUOUS
 62
     5
 10
-103.34999999999999
 20
-44.232250000000001
 30
0.0
 40
5.7000000000000002
 50
271.765556
 51
0.0
  0
ARC
  5
204
  8
DETAIL
  6
CONTINUOUS
 62
     5
 10
-133.59999999999999
 20
-51.632249999999999
 30
0.0
 40
1.1999999999999991
 50
120.882385
 51
180.0
  0
LINE
  5
205
  8
DETAIL
  6
CONTINUOUS
 62
     5
 10
-128.400002
 20
-43.502383000000002
 30
0.0
 11
-130.80000200000001
 21
-43.502383000000002
 31
0.0
  0
LINE
  5
206
  8
DETAIL
  6
CONTINUOUS
 62
     5
 10
-128.400002
 20
-48.502383000000002
 30
0.0
 11
-130.80000200000001
 21
-48.502383000000002
 31
0.0
  0
LINE
  5
207
  8
DETAIL
  6
CONTINUOUS
 62
     5
 10
-128.400002
 20
-48.502383000000002
 30
0.0
 11
-128.400002
 21
-43.502383000000002
 31
0.0
  0
LINE
  5
208
  8
DETAIL
  6
CONTINUOUS
 62
     5
 10
-134.80000000000001
 20
-50.602384000000001
 30
0.0
 11
-134.80000000000001
 21
-41.402383
 31
0.0
  0
LINE
  5
209
  8
DETAIL
  6
CONTINUOUS
 62
     5
 10
-134.80000100000001
 20
-41.402383999999998
 30
0.0
 11
-131.20000099999999
 21
-41.402383999999998
 31
0.0
  0
LINE
  5
20A
  8
DETAIL
  6
CONTINUOUS
 62
     5
 10
-131.200007
 20
-41.402388000000002
 30
0.0
 11
-130.80000699999999
 21
-42.102389000000002
 31
0.0
  0
LINE
  5
20B
  8
DETAIL
  6
CONTINUOUS
 62
     5
 10
-130.80000000000001
 20
-42.102384999999991
 30
0.0
 11
-130.80000000000001
 21
-49.902382000000003
 31
0.0
  0
LINE
  5
20C
  8
DETAIL
  6
CONTINUOUS
 62
     5
 10
-130.80000699999999
 20
-49.902377999999999
 30
0.0
 11
-131.200007
 21
-50.602378000000002
 31
0.0
  0
LINE
  5
20D
  8
DETAIL
  6
CONTINUOUS
 62
     5
 10
-131.20000099999999
 20
-50.602383000000003
 30
0.0
 11
-134.79999900000001
 21
-50.602383000000003
 31
0.0
  0
LINE
  5
20E
  8
DETAIL
  6
CONTINUOUS
 62
     5
 10
-131.20000099999999
 20
-48.302384000000004
 30
0.0
 11
-134.80000000000001
 21
-48.302384000000004
 31
0.0
  0
LINE
  5
20F
  8
DETAIL
  6
CONTINUOUS
 62
     5
 10
-131.20000099999999
 20
-43.702382999999998
 30
0.0
 11
-134.80000000000001
 21
-43.702382999999998
 31
0.0
  0
ARC
  5
210
  8
DETAIL
  6
CONTINUOUS
 62
     5
 10
-132.65313800000001
 20
-49.452382
 30
0.0
 40
1.8531349999999991
 50
0.000018
 51
38.357734999999998
  0
ARC
  5
211
  8
DETAIL
  6
CONTINUOUS
 62
     5
 10
-137.61250000000001
 20
-46.002383000000002
 30
0.0
 40
6.8124979999999988
 50
340.26842099999999
 51
19.731670000000001
  0
ARC
  5
212
  8
DETAIL
  6
CONTINUOUS
 62
     5
 10
-132.65313599999999
 20
-42.552384999999987
 30
0.0
 40
1.8531329999999999
 50
321.64233100000001
 51
0.000018
  0
LINE
  5
213
  8
DETAIL
  6
CONTINUOUS
 62
     5
 10
-120.502944
 20
-50.432250000000003
 30
0.0
 11
-119.63691799999999
 21
-49.932250000000003
 31
0.0
  0
LINE
  5
214
  8
DETAIL
  6
CONTINUOUS
 62
     5
 10
-120.502944
 20
-50.432250000000003
 30
0.0
 11
-131.102791
 21
-50.432250000000003
 31
0.0
  0
LINE
  5
215
  8
DETAIL
  6
CONTINUOUS
 62
     5
 10
-133.0
 20
-55.732250000000001
 30
0.0
 11
-133.0
 21
-56.732250000000001
 31
0.0
  0
LINE
  5
216
  8
DETAIL
  6
CONTINUOUS
 62
     5
 10
-134.80000000000001
 20
-56.732250000000001
 30
0.0
 11
-133.0
 21
-56.732250000000001
 31
0.0
  0
ARC
  5
217
  8
DETAIL
  6
CONTINUOUS
 62
     5
 10
-135.5
 20
-55.232250000000001
 30
0.0
 40
1.5
 50
180.0
 51
250.52877899999999
  0
LINE
  5
218
  8
DETAIL
  6
CONTINUOUS
 62
     5
 10
-134.80000000000001
 20
-55.732250000000001
 30
0.0
 11
-133.0
 21
-55.732250000000001
 31
0.0
  0
LINE
  5
219
  8
DETAIL
  6
CONTINUOUS
 62
     5
 10
-134.80000000000001
 20
-54.232250000000001
 30
0.0
 11
-134.80000000000001
 21
-51.632249999999999
 31
0.0
  0
LINE
  5
21A
  8
DETAIL
  6
CONTINUOUS
 62
     5
 10
-103.174384
 20
-49.929544
 30
0.0
 11
-119.63691799999999
 21
-49.932250000000003
 31
0.0
  0
LINE
  5
21B
  8
DETAIL
  6
CONTINUOUS
 62
     5
 10
-137.0
 20
-0.9322499999999999
 30
0.0
 11
-137.0
 21
-55.232250000000001
 31
0.0
  0
ARC
  5
21C
  8
DETAIL
  6
CONTINUOUS
 62
     5
 10
-162.5
 20
-49.232250000000001
 30
0.0
 40
3.0
 50
270.0
 51
0.0
  0
LINE
  5
21D
  8
DETAIL
  6
CONTINUOUS
 62
     5
 10
-163.5
 20
-52.232250000000001
 30
0.0
 11
-162.5
 21
-52.232250000000001
 31
0.0
  0
LINE
  5
21E
  8
DETAIL
  6
CONTINUOUS
 62
     5
 10
-134.80000000000001
 20
-0.65225
 30
0.0
 11
-134.80000000000001
 21
-42.402250000000002
 31
0.0
  0
LINE
  5
21F
  8
OUTLINE
  6
CONTINUOUS
 62
     3
 10
-140.0
 20
-58.650326
 30
0.0
 11
-140.0
 21
-70.171701999999996
 31
0.0
  0
LINE
  5
220
  8
OUTLINE
  6
CONTINUOUS
 62
     3
 10
-140.0
 20
-103.5
 30
0.0
 11
-137.0
 21
-103.5
 31
0.0
  0
LINE
  5
221
  8
OUTLINE
  6
CONTINUOUS
 62
     3
 10
-137.0
 20
-99.200000000000017
 30
0.0
 11
-137.0
 21
-97.900000000000006
 31
0.0
  0
LINE
  5
222
  8
OUTLINE
  6
CONTINUOUS
 62
     3
 10
-140.0
 20
-102.82997899999999
 30
0.0
 11
-140.0
 21
-70.171701999999996
 31
0.0
  0
LINE
  5
223
  8
DETAIL
  6
CONTINUOUS
 62
     5
 10
-140.0
 20
-102.82997899999999
 30
0.0
 11
-140.0
 21
-70.171701999999996
 31
0.0
  0
LINE
  5
224
  8
DETAIL
  6
CONTINUOUS
 62
     5
 10
-140.0
 20
-103.5
 30
0.0
 11
-137.0
 21
-103.5
 31
0.0
  0
ARC
  5
225
  8
DETAIL
  6
CONTINUOUS
 62
     5
 10
-136.0
 20
-67.805622999999997
 30
0.0
 40
0.5
 50
270.0
 51
0.0
  0
LINE
  5
226
  8
DETAIL
  6
CONTINUOUS
 62
     5
 10
-137.0
 20
-68.305622999999997
 30
0.0
 11
-136.0
 21
-68.305622999999997
 31
0.0
  0
LINE
  5
227
  8
DETAIL
  6
CONTINUOUS
 62
     5
 10
-135.5
 20
-67.805622999999997
 30
0.0
 11
-135.5
 21
-63.805622999999997
 31
0.0
  0
LINE
  5
228
  8
DETAIL
  6
CONTINUOUS
 62
     5
 10
-137.0
 20
-99.200000000000017
 30
0.0
 11
-137.0
 21
-97.900000000000006
 31
0.0
  0
ARC
  5
229
  8
DETAIL
  6
CONTINUOUS
 62
     5
 10
-136.0
 20
-59.80562299999999
 30
0.0
 40
0.5
 50
0.0
 51
90.0
  0
LINE
  5
22A
  8
DETAIL
  6
CONTINUOUS
 62
     5
 10
-137.0
 20
-59.305622999999997
 30
0.0
 11
-136.0
 21
-59.305622999999997
 31
0.0
  0
LINE
  5
22B
  8
DETAIL
  6
CONTINUOUS
 62
     5
 10
-135.5
 20
-63.805622999999997
 30
0.0
 11
-135.5
 21
-59.80562299999999
 31
0.0
  0
LINE
  5
22C
  8
DETAIL
  6
CONTINUOUS
 62
     5
 10
-136.0
 20
-59.482250000000001
 30
0.0
 11
-134.80000000000001
 21
-59.482250000000001
 31
0.0
  0
LINE
  5
22D
  8
DETAIL
  6
CONTINUOUS
 62
     5
 10
-140.0
 20
-58.650326
 30
0.0
 11
-140.0
 21
-70.171701999999996
 31
0.0
  0
LINE
  5
22E
  8
DETAIL
  6
CONTINUOUS
 62
     5
 10
-70.166511999999997
 20
-53.057189999999999
 30
0.0
 11
-59.989761000000001
 21
-72.371883999999994
 31
0.0
  0
LINE
  5
22F
  8
DETAIL
  6
CONTINUOUS
 62
     5
 10
-65.850825999999984
 20
-16.624970999999999
 30
0.0
 11
-59.989761000000001
 21
-20.043306999999999
 31
0.0
  0
LINE
  5
230
  8
DETAIL
  6
CONTINUOUS
 62
     5
 10
-74.057670000000002
 20
-7.953441999999999
 30
0.0
 11
-65.850802999999999
 21
-16.624965
 31
0.0
  0
LINE
  5
231
  8
DETAIL
  6
CONTINUOUS
 62
     5
 10
-80.495824999999996
 20
-28.041775000000001
 30
0.0
 11
-70.166499000000002
 21
-53.057192999999998
 31
0.0
  0
LINE
  5
232
  8
DETAIL
  6
CONTINUOUS
 62
     5
 10
-76.543719999999993
 20
-4.0189879999999993
 30
0.0
 11
-60.0
 21
-4.0
 31
0.0
  0
LINE
  5
233
  8
DETAIL
  6
CONTINUOUS
 62
     5
 10
-74.057665
 20
-78.88453299999999
 30
0.0
 11
-65.841135999999992
 21
-61.266527000000011
 31
0.0
  0
LINE
  5
234
  8
DETAIL
  6
CONTINUOUS
 62
     5
 10
-65.850825999999984
 20
-61.287469999999992
 30
0.0
 11
-65.841131000000004
 21
-61.266527000000011
 31
0.0
  0
LINE
  5
235
  8
DETAIL
  6
CONTINUOUS
 62
     5
 10
-74.057699
 20
-78.884523999999999
 30
0.0
 11
-81.783454000000006
 21
-97.232205000000008
 31
0.0
  0
LINE
  5
236
  8
OUTLINE
  6
CONTINUOUS
 62
     3
 10
-99.989761000000001
 20
-162.02950899999999
 30
0.0
 11
-19.989761000000001
 21
-162.02950899999999
 31
0.0
  0
LINE
  5
237
  8
OUTLINE
  6
CONTINUOUS
 62
     3
 10
-99.952767000000009
 20
-160.309575
 30
0.0
 11
-19.989761000000001
 21
-160.30878000000001
 31
0.0
  0
LINE
  5
238
  8
OUTLINE
  6
CONTINUOUS
 62
     3
 10
-99.989761000000001
 20
-139.82997900000001
 30
0.0
 11
-27.989758999999999
 21
-139.82997900000001
 31
0.0
  0
LINE
  5
239
  8
OUTLINE
  6
CONTINUOUS
 62
     3
 10
-94.0
 20
-139.82997900000001
 30
0.0
 11
-50.0
 21
-139.82997900000001
 31
0.0
  0
LINE
  5
23A
  8
DETAIL
  6
CONTINUOUS
 62
     5
 10
-80.495793999999975
 20
-116.055476
 30
0.0
 11
-88.886584999999997
 21
-130.90988400000001
 31
0.0
  0
LINE
  5
23B
  8
DETAIL
  6
CONTINUOUS
 62
     5
 10
-99.989761000000001
 20
-139.82997900000001
 30
0.0
 11
-27.989758999999999
 21
-139.82997900000001
 31
0.0
  0
LINE
  5
23C
  8
DETAIL
  6
CONTINUOUS
 62
     5
 10
-99.952767000000009
 20
-160.309575
 30
0.0
 11
-19.989761000000001
 21
-160.30878000000001
 31
0.0
  0
LINE
  5
23D
  8
DETAIL
  6
CONTINUOUS
 62
     5
 10
-99.989761000000001
 20
-162.02950899999999
 30
0.0
 11
-19.989761000000001
 21
-162.02950899999999
 31
0.0
  0
LINE
  5
23E
  8
DETAIL
  6
CONTINUOUS
 62
     5
 10
-94.0
 20
-139.82997900000001
 30
0.0
 11
-50.0
 21
-139.82997900000001
 31
0.0
  0
LINE
  5
23F
  8
DETAIL
  6
CONTINUOUS
 62
     5
 10
-88.886583999999999
 20
-130.909874
 30
0.0
 11
-94.0
 21
-139.82997900000001
 31
0.0
  0
LINE
  5
240
  8
DETAIL
  6
CONTINUOUS
 62
     5
 10
-95.791678999999988
 20
-133.52425500000001
 30
0.0
 11
-98.168671000000003
 21
-139.82997900000001
 31
0.0
  0
ARC
  5
241
  8
OUTLINE
  6
DASHED
 62
     3
 10
-12.5
 20
-141.696091
 30
0.0
 40
2.5
 50
0.0
 51
1.435597
  0
ARC
  5
242
  8
OUTLINE
  6
DASHED
 62
     3
 10
-12.5
 20
-142.5
 30
0.0
 40
2.5
 50
0.0
 51
5.1872239999999987
  0
ARC
  5
243
  8
OUTLINE
  6
CONTINUOUS
 62
     3
 10
-25.673355000000001
 20
-140.61352600000001
 30
0.0
 40
2.3164060000000002
 50
180.0
 51
218.35805300000001
  0
LINE
  5
244
  8
OUTLINE
  6
CONTINUOUS
 62
     3
 10
-27.989758999999999
 20
-149.82602499999999
 30
0.0
 11
-27.989758999999999
 21
-140.026028
 31
0.0
  0
LINE
  5
245
  8
OUTLINE
  6
CONTINUOUS
 62
     3
 10
-22.989761000000001
 20
-139.176027
 30
0.0
 11
-22.989761000000001
 21
-150.67602600000001
 31
0.0
  0
LINE
  5
246
  8
OUTLINE
  6
CONTINUOUS
 62
     3
 10
-19.989761000000001
 20
-128.950861
 30
0.0
 11
-19.989761000000001
 21
-156.02950899999999
 31
0.0
  0
LINE
  5
247
  8
OUTLINE
  6
CONTINUOUS
 62
     3
 10
-22.989761000000001
 20
-147.80102500000001
 30
0.0
 11
-27.489761000000001
 21
-147.80102500000001
 31
0.0
  0
ARC
  5
248
  8
OUTLINE
  6
CONTINUOUS
 62
     3
 10
-25.673355000000001
 20
-149.23852600000001
 30
0.0
 40
2.3164060000000002
 50
141.64200299999999
 51
180.0
  0
ARC
  5
249
  8
OUTLINE
  6
CONTINUOUS
 62
     3
 10
-19.474136000000001
 20
-144.92602600000001
 30
0.0
 40
8.515625
 50
160.26842099999999
 51
199.73167000000001
  0
LINE
  5
24A
  8
OUTLINE
  6
CONTINUOUS
 62
     3
 10
-22.989761000000001
 20
-142.05102600000001
 30
0.0
 11
-27.489761000000001
 21
-142.05102600000001
 31
0.0
  0
LINE
  5
24B
  8
OUTLINE
  6
CONTINUOUS
 62
     3
 10
-27.489771000000001
 20
-150.67603099999999
 30
0.0
 11
-27.989771000000001
 21
-149.826031
 31
0.0
  0
LINE
  5
24C
  8
OUTLINE
  6
CONTINUOUS
 62
     3
 10
-22.989761000000001
 20
-150.67602600000001
 30
0.0
 11
-27.489761000000001
 21
-150.67602600000001
 31
0.0
  0
ARC
  5
24D
  8
OUTLINE
  6
DASHED
 62
     3
 10
-29.989761000000001
 20
-149.82602600000001
 30
0.0
 40
10.0
 50
0.0
 51
0.116247
  0
LINE
  5
24E
  8
OUTLINE
  6
CONTINUOUS
 62
     3
 10
-27.489761000000001
 20
-139.17602600000001
 30
0.0
 11
-22.989761000000001
 21
-139.17602600000001
 31
0.0
  0
LINE
  5
24F
  8
OUTLINE
  6
CONTINUOUS
 62
     3
 10
-27.989771000000001
 20
-140.02602200000001
 30
0.0
 11
-27.489771000000001
 21
-139.17602199999999
 31
0.0
  0
LINE
  5
250
  8
OUTLINE
  6
CONTINUOUS
 62
     3
 10
-12.489761
 20
-170.92211699999999
 30
0.0
 11
-17.489761000000001
 21
-170.92211699999999
 31
0.0
  0
LINE
  5
251
  8
OUTLINE
  6
CONTINUOUS
 62
     3
 10
-12.489761
 20
-171.72602599999999
 30
0.0
 11
-17.489761000000001
 21
-171.72602599999999
 31
0.0
  0
ARC
  5
252
  8
OUTLINE
  6
CONTINUOUS
 62
     3
 10
-12.489761
 20
-174.22602599999999
 30
0.0
 40
2.5
 50
5.1872239999999987
 51
90.0
  0
ARC
  5
253
  8
OUTLINE
  6
CONTINUOUS
 62
     3
 10
-12.489761
 20
-173.42211699999999
 30
0.0
 40
2.5
 50
1.435597
 51
90.0
  0
ARC
  5
254
  8
OUTLINE
  6
CONTINUOUS
 62
     3
 10
-17.489761000000001
 20
-168.42211699999999
 30
0.0
 40
2.5
 50
180.00000299999991
 51
270.0
  0
ARC
  5
255
  8
OUTLINE
  6
CONTINUOUS
 62
     3
 10
-17.489761000000001
 20
-169.22602599999999
 30
0.0
 40
2.5
 50
180.0
 51
270.0
  0
ARC
  5
256
  8
OUTLINE
  6
CONTINUOUS
 62
     3
 10
-25.989761000000001
 20
-153.022074
 30
0.0
 40
3.0
 50
0.0
 51
51.445520999999999
  0
LINE
  5
257
  8
OUTLINE
  6
CONTINUOUS
 62
     3
 10
-22.989761000000001
 20
-160.30878000000001
 30
0.0
 11
-22.989761000000001
 21
-139.17602600000001
 31
0.0
  0
LINE
  5
258
  8
OUTLINE
  6
CONTINUOUS
 62
     3
 10
-19.989761000000001
 20
-160.41004000000001
 30
0.0
 11
-22.989761000000001
 21
-160.41004000000001
 31
0.0
  0
LINE
  5
259
  8
OUTLINE
  6
CONTINUOUS
 62
     3
 10
-19.989761000000001
 20
-143.20784699999999
 30
0.0
 11
-22.989761000000001
 21
-143.20784699999999
 31
0.0
  0
LINE
  5
25A
  8
OUTLINE
  6
CONTINUOUS
 62
     3
 10
-19.989761000000001
 20
-139.82997900000001
 30
0.0
 11
-22.989761000000001
 21
-139.82997900000001
 31
0.0
  0
LINE
  5
25B
  8
DETAIL
  6
CONTINUOUS
 62
     5
 10
-19.989761000000001
 20
-139.82997900000001
 30
0.0
 11
-22.989761000000001
 21
-139.82997900000001
 31
0.0
  0
LINE
  5
25C
  8
DETAIL
  6
CONTINUOUS
 62
     5
 10
-19.989761000000001
 20
-143.20784699999999
 30
0.0
 11
-22.989761000000001
 21
-143.20784699999999
 31
0.0
  0
LINE
  5
25D
  8
DETAIL
  6
CONTINUOUS
 62
     5
 10
-19.989761000000001
 20
-160.41004000000001
 30
0.0
 11
-22.989761000000001
 21
-160.41004000000001
 31
0.0
  0
LINE
  5
25E
  8
DETAIL
  6
CONTINUOUS
 62
     5
 10
-22.989761000000001
 20
-160.30878000000001
 30
0.0
 11
-22.989761000000001
 21
-139.17602600000001
 31
0.0
  0
ARC
  5
25F
  8
DETAIL
  6
CONTINUOUS
 62
     5
 10
-25.989761000000001
 20
-153.022074
 30
0.0
 40
3.0
 50
0.0
 51
51.445520999999999
  0
ARC
  5
260
  8
DETAIL
  6
CONTINUOUS
 62
     5
 10
-17.489761000000001
 20
-169.22602599999999
 30
0.0
 40
2.5
 50
180.0
 51
270.0
  0
ARC
  5
261
  8
DETAIL
  6
CONTINUOUS
 62
     5
 10
-17.489761000000001
 20
-168.42211699999999
 30
0.0
 40
2.5
 50
180.00000299999991
 51
270.0
  0
ARC
  5
262
  8
DETAIL
  6
CONTINUOUS
 62
     5
 10
-12.489761
 20
-173.42211699999999
 30
0.0
 40
2.5
 50
1.435597
 51
90.0
  0
ARC
  5
263
  8
DETAIL
  6
CONTINUOUS
 62
     5
 10
-12.489761
 20
-174.22602599999999
 30
0.0
 40
2.5
 50
5.1872239999999987
 51
90.0
  0
ARC
  5
264
  8
DETAIL
  6
DASHED
 62
     5
 10
-12.5
 20
-141.696091
 30
0.0
 40
2.5
 50
0.0
 51
1.435597
  0
ARC
  5
265
  8
DETAIL
  6
DASHED
 62
     5
 10
-12.5
 20
-142.5
 30
0.0
 40
2.5
 50
0.0
 51
5.1872239999999987
  0
LINE
  5
266
  8
DETAIL
  6
CONTINUOUS
 62
     5
 10
-12.489761
 20
-171.72602599999999
 30
0.0
 11
-17.489761000000001
 21
-171.72602599999999
 31
0.0
  0
LINE
  5
267
  8
DETAIL
  6
CONTINUOUS
 62
     5
 10
-12.489761
 20
-170.92211699999999
 30
0.0
 11
-17.489761000000001
 21
-170.92211699999999
 31
0.0
  0
LINE
  5
268
  8
DETAIL
  6
CONTINUOUS
 62
     5
 10
-27.989771000000001
 20
-140.02602200000001
 30
0.0
 11
-27.489771000000001
 21
-139.17602199999999
 31
0.0
  0
LINE
  5
269
  8
DETAIL
  6
CONTINUOUS
 62
     5
 10
-27.489761000000001
 20
-139.17602600000001
 30
0.0
 11
-22.989761000000001
 21
-139.17602600000001
 31
0.0
  0
ARC
  5
26A
  8
DETAIL
  6
DASHED
 62
     5
 10
-29.989761000000001
 20
-149.82602600000001
 30
0.0
 40
10.0
 50
0.0
 51
0.116247
  0
LINE
  5
26B
  8
DETAIL
  6
CONTINUOUS
 62
     5
 10
-22.989761000000001
 20
-150.67602600000001
 30
0.0
 11
-27.489761000000001
 21
-150.67602600000001
 31
0.0
  0
LINE
  5
26C
  8
DETAIL
  6
CONTINUOUS
 62
     5
 10
-27.489771000000001
 20
-150.67603099999999
 30
0.0
 11
-27.989771000000001
 21
-149.826031
 31
0.0
  0
LINE
  5
26D
  8
DETAIL
  6
CONTINUOUS
 62
     5
 10
-22.989761000000001
 20
-142.05102600000001
 30
0.0
 11
-27.489761000000001
 21
-142.05102600000001
 31
0.0
  0
ARC
  5
26E
  8
DETAIL
  6
CONTINUOUS
 62
     5
 10
-19.474136000000001
 20
-144.92602600000001
 30
0.0
 40
8.515625
 50
160.26842099999999
 51
199.73167000000001
  0
ARC
  5
26F
  8
DETAIL
  6
CONTINUOUS
 62
     5
 10
-25.673355000000001
 20
-149.23852600000001
 30
0.0
 40
2.3164060000000002
 50
141.64200299999999
 51
180.0
  0
LINE
  5
270
  8
DETAIL
  6
CONTINUOUS
 62
     5
 10
-22.989761000000001
 20
-147.80102500000001
 30
0.0
 11
-27.489761000000001
 21
-147.80102500000001
 31
0.0
  0
LINE
  5
271
  8
DETAIL
  6
CONTINUOUS
 62
     5
 10
-19.989761000000001
 20
-128.950861
 30
0.0
 11
-19.989761000000001
 21
-156.02950899999999
 31
0.0
  0
LINE
  5
272
  8
DETAIL
  6
CONTINUOUS
 62
     5
 10
-22.989761000000001
 20
-139.176027
 30
0.0
 11
-22.989761000000001
 21
-150.67602600000001
 31
0.0
  0
LINE
  5
273
  8
DETAIL
  6
CONTINUOUS
 62
     5
 10
-27.989758999999999
 20
-149.82602499999999
 30
0.0
 11
-27.989758999999999
 21
-140.026028
 31
0.0
  0
ARC
  5
274
  8
DETAIL
  6
CONTINUOUS
 62
     5
 10
-25.673355000000001
 20
-140.61352600000001
 30
0.0
 40
2.3164060000000002
 50
180.0
 51
218.35805300000001
  0
LINE
  5
275
  8
OUTLINE
  6
CONTINUOUS
 62
     3
 10
-5.2000000000000002
 20
-207.80000000000001
 30
0.0
 11
-7.5
 21
-207.80000000000001
 31
0.0
  0
ARC
  5
276
  8
OUTLINE
  6
CONTINUOUS
 62
     3
 10
-7.5
 20
-205.30000000000001
 30
0.0
 40
2.5
 50
180.0
 51
270.0
  0
ARC
  5
277
  8
OUTLINE
  6
CONTINUOUS
 62
     3
 10
-4.4000000000000004
 20
-208.59999999999999
 30
0.0
 40
0.8
 50
180.0
 51
258.24116400000003
  0
LINE
  5
278
  8
OUTLINE
  6
CONTINUOUS
 62
     3
 10
-1.6000000000000001
 20
-210.0
 30
0.0
 11
-4.563034
 21
-209.38321099999999
 31
0.0
  0
LINE
  5
279
  8
DETAIL
  6
CONTINUOUS
 62
     5
 10
-1.6000000000000001
 20
-210.0
 30
0.0
 11
-4.563034
 21
-209.38321099999999
 31
0.0
  0
ARC
  5
27A
  8
DETAIL
  6
CONTINUOUS
 62
     5
 10
-4.4000000000000004
 20
-208.59999999999999
 30
0.0
 40
0.8
 50
180.0
 51
258.24116400000003
  0
LINE
  5
27B
  8
DETAIL
  6
CONTINUOUS
 62
     5
 10
-5.2000000000000002
 20
-207.80000000000001
 30
0.0
 11
-7.5
 21
-207.80000000000001
 31
0.0
  0
ARC
  5
27C
  8
DETAIL
  6
CONTINUOUS
 62
     5
 10
-7.5
 20
-205.30000000000001
 30
0.0
 40
2.5
 50
180.0
 51
270.0
  0
LINE
  5
27D
  8
NOTE
  6
CONTINUOUS
 62
     4
 39
50.0
 10
-40.0
 20
-162.02950899999999
 30
0.0
 11
-149.57965300000001
 21
-251.616232
 31
0.0
  0
LINE
  5
27E
  8
NOTE
  6
CONTINUOUS
 62
     4
 39
50.0
 10
-149.57965300000001
 20
-251.616232
 30
0.0
 11
-279.43240200000002
 21
-251.61625100000001
 31
0.0
  0
TEXT
  5
27F
  8
NOTE
  6
CONTINUOUS
 62
     4
 10
-257.19131299999998
 20
-239.81551200000001
 30
0.0
 40
64.0
  1
EL
 50
0.000012
 41
0.9
  0
LINE
  5
280
  8
NOTE
  6
CONTINUOUS
 62
     4
 10
-76.949100999999999
 20
-177.351518
 30
0.0
 11
-40.0
 21
-162.02950899999999
 31
0.0
  0
LINE
  5
281
  8
NOTE
  6
CONTINUOUS
 62
     4
 10
-40.0
 20
-162.02950899999999
 30
0.0
 11
-64.337855000000005
 21
-193.77330799999999
 31
0.0
  0
TEXT
  5
28D
  8
ETC
  6
CONTINUOUS
 62
    61
 10
228.47067570356299
 20
843.53529388712013
 30
0.0
 40
40.0
  1
EF-30BSB3_4
 41
0.9
  0
TEXT
  5
28E
  8
ETC
  6
CONTINUOUS
 62
    61
 10
273.43655019561822
 20
719.60606388711994
 30
0.0
 40
40.0
  1
EF-30BSB1
 41
0.9
  0
TEXT
  5
28F
  8
ETC
  6
CONTINUOUS
 62
    61
 10
273.00715519561822
 20
656.39710088712013
 30
0.0
 40
40.0
  1
EF-30BTB1
 41
0.9
  0
TEXT
  5
290
  8
ETC
  6
CONTINUOUS
 62
    61
 10
228.47067570356299
 20
782.34938088712011
 30
0.0
 40
40.0
  1
産業扇
 41
0.9
  0
TEXT
  5
291
  8
ETC
  6
CONTINUOUS
 62
    61
 10
273.43655019561822
 20
593.74430640562889
 30
0.0
 40
40.0
  1
EF-30BSB3
 41
0.9
  0
TEXT
  5
292
  8
ETC
  6
CONTINUOUS
 62
    61
 10
273.00715519561822
 20
530.53534340562885
 30
0.0
 40
40.0
  1
EF-30BTB3
 41
0.9
  0
TEXT
  5
293
  8
ETC
  6
CONTINUOUS
 62
    61
 10
273.00715519561822
 20
467.60446360566908
 30
0.0
 40
40.0
  1
EF-30BTB40A5
 41
0.9
  0
ENDSEC
  0
EOF
