  0
SECTION
  2
HEADER
  9
$ACADVER
  1
AC1009
  9
$DWGCODEPAGE
  3
dos932
  9
$INSBASE
 10
0.0
 20
0.0
 30
0.0
  9
$EXTMIN
 10
-530.68083049808774
 20
-539.61180481083284
 30
-0.0000000000112498
  9
$EXTMAX
 10
1234.4787715753521
 20
368.82019819321607
 30
0.0000000000002956
  9
$LIMMIN
 10
-2970.0
 20
-2100.0
  9
$LIMMAX
 10
2970.0
 20
2100.0
  9
$ORTHOMODE
 70
     1
  9
$REGENMODE
 70
     1
  9
$FILLMODE
 70
     1
  9
$QTEXTMODE
 70
     0
  9
$MIRRTEXT
 70
     0
  9
$LTSCALE
 40
20.0
  9
$ATTMODE
 70
     1
  9
$TEXTSIZE
 40
64.0
  9
$TRACEWID
 40
0.05
  9
$TEXTSTYLE
  7
STANDARD
  9
$CLAYER
  8
SIZE
  9
$CELTYPE
  6
CONTINUOUS
  9
$CECOLOR
 62
     7
  9
$DIMSCALE
 40
1.0
  9
$DIMASZ
 40
12.0
  9
$DIMEXO
 40
20.0
  9
$DIMDLI
 40
200.0
  9
$DIMRND
 40
0.0
  9
$DIMDLE
 40
0.0
  9
$DIMEXE
 40
20.0
  9
$DIMTP
 40
0.0
  9
$DIMTM
 40
0.0
  9
$DIMTXT
 40
64.0
  9
$DIMCEN
 40
0.09
  9
$DIMTSZ
 40
0.0
  9
$DIMTOL
 70
     0
  9
$DIMLIM
 70
     0
  9
$DIMTIH
 70
     0
  9
$DIMTOH
 70
     0
  9
$DIMSE1
 70
     0
  9
$DIMSE2
 70
     0
  9
$DIMTAD
 70
     1
  9
$DIMZIN
 70
     8
  9
$DIMBLK
  1

  9
$DIMASO
 70
     1
  9
$DIMSHO
 70
     0
  9
$DIMPOST
  1

  9
$DIMAPOST
  1

  9
$DIMALT
 70
     0
  9
$DIMALTD
 70
     2
  9
$DIMALTF
 40
25.399999999999999
  9
$DIMLFAC
 40
1.0
  9
$DIMTOFL
 70
     1
  9
$DIMTVP
 40
0.0
  9
$DIMTIX
 70
     1
  9
$DIMSOXD
 70
     0
  9
$DIMSAH
 70
     0
  9
$DIMBLK1
  1

  9
$DIMBLK2
  1

  9
$DIMSTYLE
  2
STANDARD
  9
$DIMCLRD
 70
     7
  9
$DIMCLRE
 70
     7
  9
$DIMCLRT
 70
     7
  9
$DIMTFAC
 40
1.0
  9
$DIMGAP
 40
25.0
  9
$LUNITS
 70
     2
  9
$LUPREC
 70
     4
  9
$SKETCHINC
 40
0.1
  9
$FILLETRAD
 40
3.0
  9
$AUNITS
 70
     1
  9
$AUPREC
 70
     3
  9
$MENU
  1
ACAD
  9
$ELEVATION
 40
0.0
  9
$PELEVATION
 40
0.0
  9
$THICKNESS
 40
0.0
  9
$LIMCHECK
 70
     0
  9
$CHAMFERA
 40
0.0
  9
$CHAMFERB
 40
0.0
  9
$SKPOLY
 70
     0
  9
$TDCREATE
 40
2453019.62301037
  9
$TDUPDATE
 40
2459389.495493519
  9
$TDINDWG
 40
1.7244372801
  9
$TDUSRTIMER
 40
1.7244372801
  9
$USRTIMER
 70
     1
  9
$ANGBASE
 50
0.0
  9
$ANGDIR
 70
     0
  9
$PDMODE
 70
     3
  9
$PDSIZE
 40
-2.0
  9
$PLINEWID
 40
0.0
  9
$SPLFRAME
 70
     0
  9
$SPLINETYPE
 70
     6
  9
$SPLINESEGS
 70
     8
  9
$SURFTAB1
 70
     6
  9
$SURFTAB2
 70
     6
  9
$SURFTYPE
 70
     6
  9
$SURFU
 70
     6
  9
$SURFV
 70
     6
  9
$UCSNAME
  2

  9
$UCSORG
 10
0.0
 20
0.0
 30
0.0
  9
$UCSXDIR
 10
1.0
 20
0.0
 30
0.0
  9
$UCSYDIR
 10
0.0
 20
1.0
 30
0.0
  9
$PUCSNAME
  2

  9
$PUCSORG
 10
0.0
 20
0.0
 30
0.0
  9
$PUCSXDIR
 10
1.0
 20
0.0
 30
0.0
  9
$PUCSYDIR
 10
0.0
 20
1.0
 30
0.0
  9
$USERI1
 70
     0
  9
$USERI2
 70
     0
  9
$USERI3
 70
     0
  9
$USERI4
 70
     0
  9
$USERI5
 70
     0
  9
$USERR1
 40
20.0
  9
$USERR2
 40
0.0
  9
$USERR3
 40
0.0
  9
$USERR4
 40
0.0
  9
$USERR5
 40
0.0
  9
$WORLDVIEW
 70
     1
  9
$SHADEDGE
 70
     3
  9
$SHADEDIF
 70
    70
  9
$TILEMODE
 70
     1
  9
$MAXACTVP
 70
    48
  9
$PINSBASE
 10
0.0
 20
0.0
 30
0.0
  9
$PLIMCHECK
 70
     0
  9
$PEXTMIN
 10
-100000000000000000000.0
 20
-100000000000000000000.0
 30
-100000000000000000000.0
  9
$PEXTMAX
 10
100000000000000000000.0
 20
100000000000000000000.0
 30
100000000000000000000.0
  9
$PLIMMIN
 10
0.0
 20
0.0
  9
$PLIMMAX
 10
12.0
 20
9.0
  9
$UNITMODE
 70
     0
  9
$VISRETAIN
 70
     0
  9
$PLINEGEN
 70
     0
  9
$PSLTSCALE
 70
     0
  9
$TREEDEPTH
 70
  3020
  9
$ATTDIA
 70
     0
  9
$ATTREQ
 70
     1
  9
$BLIPMODE
 70
     1
  9
$COORDS
 70
     1
  9
$DRAGMODE
 70
     2
  9
$OSMODE
 70
     0
  9
$HANDLING
 70
     0
  9
$HANDSEED
  5
10546
  0
ENDSEC
  0
SECTION
  2
TABLES
  0
TABLE
  2
LTYPE
 70
     2
  0
LTYPE
  2
CONTINUOUS
 70
     0
  3
実線
 72
    65
 73
     0
 40
0.0
  0
LTYPE
  2
DASHDOT
 70
     0
  3
____ _ ____ _ ____ _ ____ _ ____ _ ____ _ ____
 72
    65
 73
     4
 40
5.5
 49
4.0
 49
-0.6
 49
0.3
 49
-0.6
  0
ENDTAB
  0
TABLE
  2
LAYER
 70
    12
  0
LAYER
  2
0
 70
     0
 62
     7
  6
CONTINUOUS
  0
LAYER
  2
BASIS
 70
     0
 62
     6
  6
DASHDOT
  0
LAYER
  2
OUTLINE
 70
     0
 62
     3
  6
CONTINUOUS
  0
LAYER
  2
DETAIL
 70
     0
 62
     5
  6
CONTINUOUS
  0
LAYER
  2
SIZE
 70
     0
 62
    30
  6
CONTINUOUS
  0
LAYER
  2
ARRANGE
 70
     0
 62
     1
  6
CONTINUOUS
  0
LAYER
  2
DEFPOINTS
 70
     0
 62
     7
  6
CONTINUOUS
  0
LAYER
  2
ETC
 70
     0
 62
    61
  6
CONTINUOUS
  0
LAYER
  2
FIX
 70
     0
 62
    11
  6
CONTINUOUS
  0
LAYER
  2
NOTE
 70
     0
 62
     4
  6
CONTINUOUS
  0
LAYER
  2
SERVICESPACE
 70
    64
 62
     2
  6
DASHDOT
  0
LAYER
  2
SYMBOLLINE
 70
    64
 62
    15
  6
CONTINUOUS
  0
ENDTAB
  0
TABLE
  2
STYLE
 70
     1
  0
STYLE
  2
STANDARD
 70
     0
 40
64.0
 41
0.9
 50
0.0
 71
     0
 42
64.0
  3
SIMPLEX.shx
  4
BIGFONT.shx
  0
ENDTAB
  0
TABLE
  2
APPID
 70
    20
  0
APPID
  2
ACAD
 70
     0
  0
APPID
  2
AUTOCAD_POSTSCRIPT_FIGURE
 70
     0
  0
APPID
  2
ACAD_EXEMPT_FROM_CAD_STANDARDS
 70
     0
  0
APPID
  2
ACAD_PSEXT
 70
     0
  0
APPID
  2
ACAUTHENVIRON
 70
     0
  0
APPID
  2
GENIUS_GENOENT_13
 70
     0
  0
APPID
  2
GENIUS_GENCFG_13
 70
     0
  0
APPID
  2
GENIUS_GENCFG0_13
 70
     0
  0
APPID
  2
GENIUS_GENCFG1_13
 70
     0
  0
APPID
  2
GENIUS_GENCFG2_13
 70
     0
  0
APPID
  2
GENIUS_GENCFG3_13
 70
     0
  0
APPID
  2
GENIUS_GENCFG4_13
 70
     0
  0
APPID
  2
GENIUS_GEVCFG0_13
 70
     0
  0
APPID
  2
CONTENTBLOCKICON
 70
     0
  0
APPID
  2
CONTENTBLOCKDESCRIPTION
 70
     0
  0
APPID
  2
ACAD_NAV_VCDISPLAY
 70
     0
  0
APPID
  2
ACAD_MLEADERVER
 70
     0
  0
APPID
  2
ACDBDYNAMICBLOCKTRUENAME
 70
     0
  0
APPID
  2
ACDBDYNAMICBLOCKGUID
 70
     0
  0
APPID
  2
ACAD_DSTYLE_DIMRADIAL_EXTENSION
 70
     0
  0
ENDTAB
  0
TABLE
  2
DIMSTYLE
 70
     1
  0
DIMSTYLE
  2
STANDARD
 70
     0
  3

  4

  5
_ORIGIN
  6

  7

 40
1.0
 41
12.0
 42
20.0
 43
200.0
 44
20.0
 45
0.0
 46
0.0
 47
0.0
 48
0.0
140
64.0
141
0.09
142
0.0
143
25.399999999999999
144
1.0
145
0.0
146
1.0
147
25.0
 71
     0
 72
     0
 73
     0
 74
     0
 75
     0
 76
     0
 77
     1
 78
     8
170
     0
171
     2
172
     1
173
     0
174
     1
175
     0
176
     7
177
     7
178
     7
  0
ENDTAB
  0
TABLE
  2
VIEW
 70
     1
  0
VIEW
  2
ALL
 70
     0
 40
4282.6198079999986
 10
0.0
 20
41.309904000000003
 41
5940.0
 11
0.0
 21
0.0
 31
1.0
 12
0.0
 22
0.0
 32
0.0
 42
50.0
 43
0.0
 44
0.0
 50
0.0
 71
     0
  0
ENDTAB
  0
TABLE
  2
UCS
 70
     0
  0
ENDTAB
  0
TABLE
  2
VPORT
 70
     1
  0
VPORT
  2
*ACTIVE
 70
     0
 10
0.0
 20
0.0
 11
1.0
 21
1.0
 12
351.89897053863189
 22
-85.395803308808354
 13
0.0
 23
0.0
 14
1.0
 24
1.0
 15
0.0
 25
0.0
 16
0.0
 26
0.0
 36
1.0
 17
0.0
 27
0.0
 37
0.0
 40
927.57153992235385
 41
1.857315598548972
 42
50.0
 43
0.0
 44
0.0
 50
0.0
 51
0.0
 71
     0
 72
  1000
 73
     1
 74
     3
 75
     0
 76
     0
 77
     0
 78
     0
  0
ENDTAB
  0
ENDSEC
  0
SECTION
  2
BLOCKS
  0
BLOCK
  8
0
  2
_ORIGIN
 70
     0
 10
0.0
 20
0.0
 30
0.0
  3
_ORIGIN
  1
_ORIGIN
  0
CIRCLE
  8
SIZE
  6
CONTINUOUS
 62
    30
 10
0.0
 20
0.0
 30
0.0
 40
0.5
  0
LINE
  8
SIZE
  6
CONTINUOUS
 62
    30
 10
0.0
 20
0.0
 30
0.0
 11
-1.0
 21
0.0
 31
0.0
  0
ENDBLK
  8
0
  0
ENDSEC
  0
SECTION
  2
ENTITIES
  0
LINE
  8
DETAIL
  6
CONTINUOUS
 62
     5
 10
-210.0
 20
-4.9999999999990914
 30
0.0
 11
-210.0
 21
0.0000000000009095
 31
0.0
  0
LINE
  8
DETAIL
  6
CONTINUOUS
 62
     5
 10
-189.2563209110003
 20
-9.9999999999990905
 30
0.0
 11
-189.2563209110003
 21
-12.999999999995451
 31
0.0
  0
LINE
  8
DETAIL
  6
CONTINUOUS
 62
     5
 10
-179.47938543300009
 20
-16.799999999994721
 30
0.0
 11
-179.47938543300009
 21
-13.19999999999982
 31
0.0
  0
LINE
  8
DETAIL
  6
CONTINUOUS
 62
     5
 10
-174.47938543300009
 20
-16.999999999995449
 30
0.0
 11
-174.47938543300009
 21
-12.999999999995451
 31
0.0
  0
LINE
  8
DETAIL
  6
CONTINUOUS
 62
     5
 10
-174.0
 20
-49.999999999999091
 30
0.0
 11
-174.0
 21
-49.199999999999818
 31
0.0
  0
LINE
  8
DETAIL
  6
CONTINUOUS
 62
     5
 10
-173.0450521249995
 20
-15.999999999999091
 30
0.0
 11
-173.0450521249995
 21
-82.499462299000697
 31
0.0
  0
LINE
  8
DETAIL
  6
CONTINUOUS
 62
     5
 10
-171.116689296
 20
-15.999999999999091
 30
0.0
 11
-171.116689296
 21
-82.499462299000697
 31
0.0
  0
LINE
  8
DETAIL
  6
CONTINUOUS
 62
     5
 10
-155.6137443920006
 20
-16.799999999994721
 30
0.0
 11
-155.6137443920006
 21
-13.19999999999982
 31
0.0
  0
LINE
  8
DETAIL
  6
CONTINUOUS
 62
     5
 10
-151.96557821799979
 20
-16.999999999995449
 30
0.0
 11
-151.96557821799979
 21
-82.499462299000697
 31
0.0
  0
LINE
  8
DETAIL
  6
CONTINUOUS
 62
     5
 10
-150.6137443920006
 20
-16.999999999995449
 30
0.0
 11
-150.6137443920006
 21
-12.999999999995451
 31
0.0
  0
LINE
  8
DETAIL
  6
CONTINUOUS
 62
     5
 10
-145.6137443920006
 20
-16.799999999994721
 30
0.0
 11
-145.6137443920006
 21
-13.19999999999982
 31
0.0
  0
LINE
  8
DETAIL
  6
CONTINUOUS
 62
     5
 10
-135.83680891399939
 20
-9.9999999999990905
 30
0.0
 11
-135.83680891399939
 21
-12.999999999995451
 31
0.0
  0
LINE
  8
DETAIL
  6
CONTINUOUS
 62
     5
 10
42.0
 20
-163.59995660799899
 30
0.0
 11
-42.0
 21
-163.59995660799899
 31
0.0
  0
LINE
  8
DETAIL
  6
CONTINUOUS
 62
     5
 10
67.867859318999763
 20
-137.8867079539996
 30
0.0
 11
64.037637104000169
 21
-140.77345929999859
 31
0.0
  0
LINE
  8
DETAIL
  6
CONTINUOUS
 62
     5
 10
56.292143649000543
 20
-137.8867079539996
 30
0.0
 11
52.461921433000498
 21
-140.77345929999859
 31
0.0
  0
LINE
  8
DETAIL
  6
CONTINUOUS
 62
     5
 10
-63.955137620000642
 20
-140.77345929999859
 30
0.0
 11
-67.78535983599977
 21
-137.8867079539996
 31
0.0
  0
LINE
  8
DETAIL
  6
CONTINUOUS
 62
     5
 10
-52.464470973999603
 20
-140.77345929999859
 30
0.0
 11
-56.2946931890001
 21
-137.8867079539996
 31
0.0
  0
LINE
  8
DETAIL
  6
CONTINUOUS
 62
     5
 10
-43.942087733000328
 20
-147.49995660799689
 30
0.0
 11
-123.3342841419999
 21
-147.49995660799601
 31
0.0
  0
LINE
  8
DETAIL
  6
CONTINUOUS
 62
     5
 10
43.94208773399987
 20
-147.49995660799689
 30
0.0
 11
123.33428414299939
 21
-147.49995660799689
 31
0.0
  0
LINE
  8
DETAIL
  6
CONTINUOUS
 62
     5
 10
-72.682006072000149
 20
-122.49995660799689
 30
0.0
 11
-72.682006072000149
 21
-121.9999566080005
 31
0.0
  0
LINE
  8
DETAIL
  6
CONTINUOUS
 62
     5
 10
-70.753643242999715
 20
-122.49995660799689
 30
0.0
 11
-70.753643242999715
 21
-121.9999566080005
 31
0.0
  0
LINE
  8
DETAIL
  6
CONTINUOUS
 62
     5
 10
-67.78535983599977
 20
-137.8867079539996
 30
0.0
 11
-67.78535983599977
 21
-132.11320526199779
 31
0.0
  0
LINE
  8
DETAIL
  6
CONTINUOUS
 62
     5
 10
-63.5
 20
-115.99995660799689
 30
0.0
 11
-63.5
 21
-111.9999566080005
 31
0.0
  0
LINE
  8
DETAIL
  6
CONTINUOUS
 62
     5
 10
-62.050000000000182
 20
-111.9999566080005
 30
0.0
 11
-62.050000000000182
 21
-108.7999566079998
 31
0.0
  0
LINE
  8
DETAIL
  6
CONTINUOUS
 62
     5
 10
-60.022437298000114
 20
-111.9999566080005
 30
0.0
 11
-60.022437298000114
 21
-108.7999566079998
 31
0.0
  0
LINE
  8
DETAIL
  6
CONTINUOUS
 62
     5
 10
-59.5
 20
-108.7999566079998
 30
0.0
 11
-59.5
 21
-105.99995660799689
 31
0.0
  0
LINE
  8
DETAIL
  6
CONTINUOUS
 62
     5
 10
64.037637104000169
 20
-140.77345929999859
 30
0.0
 11
61.110756422999657
 21
-140.77345929999859
 31
0.0
  0
LINE
  8
DETAIL
  6
CONTINUOUS
 62
     5
 10
52.461921433000498
 20
-140.77345929999859
 30
0.0
 11
49.535040752999521
 21
-140.77345929999859
 31
0.0
  0
LINE
  8
DETAIL
  6
CONTINUOUS
 62
     5
 10
-63.955137620000642
 20
-140.77345929999859
 30
0.0
 11
-61.028256939999658
 21
-140.77345929999859
 31
0.0
  0
LINE
  8
DETAIL
  6
CONTINUOUS
 62
     5
 10
-52.464470973999603
 20
-140.77345929999859
 30
0.0
 11
-49.537590292999987
 21
-140.77345929999859
 31
0.0
  0
LINE
  8
DETAIL
  6
CONTINUOUS
 62
     5
 10
64.037637104000169
 20
-129.22645391599869
 30
0.0
 11
61.110756422999657
 21
-129.22645391599869
 31
0.0
  0
LINE
  8
DETAIL
  6
CONTINUOUS
 62
     5
 10
52.461921433000498
 20
-129.22645391699919
 30
0.0
 11
49.535040752999521
 21
-129.22645391699919
 31
0.0
  0
LINE
  8
DETAIL
  6
CONTINUOUS
 62
     5
 10
-63.955137620000642
 20
-129.22645391599869
 30
0.0
 11
-61.028256939999658
 21
-129.22645391599869
 31
0.0
  0
LINE
  8
DETAIL
  6
CONTINUOUS
 62
     5
 10
-52.464470973999603
 20
-129.22645391599869
 30
0.0
 11
-49.537590292999987
 21
-129.22645391599869
 31
0.0
  0
LINE
  8
DETAIL
  6
CONTINUOUS
 62
     5
 10
-56.5
 20
-108.7999566079998
 30
0.0
 11
-56.5
 21
-105.99995660799689
 31
0.0
  0
LINE
  8
DETAIL
  6
CONTINUOUS
 62
     5
 10
-56.2946931890001
 20
-137.8867079539996
 30
0.0
 11
-56.2946931890001
 21
-132.11320526199779
 31
0.0
  0
LINE
  8
DETAIL
  6
CONTINUOUS
 62
     5
 10
-55.977562700999442
 20
-111.9999566080005
 30
0.0
 11
-55.977562700999442
 21
-108.7999566079998
 31
0.0
  0
LINE
  8
DETAIL
  6
CONTINUOUS
 62
     5
 10
-53.949999999999818
 20
-111.9999566080005
 30
0.0
 11
-53.949999999999818
 21
-108.7999566079998
 31
0.0
  0
LINE
  8
DETAIL
  6
CONTINUOUS
 62
     5
 10
-49.5
 20
-156.09995660799899
 30
0.0
 11
-49.5
 21
-147.49995660799689
 31
0.0
  0
LINE
  8
DETAIL
  6
CONTINUOUS
 62
     5
 10
-42.081681360999937
 20
-122.9999566080005
 30
0.0
 11
-32.481681361000483
 21
-122.9999566080005
 31
0.0
  0
LINE
  8
DETAIL
  6
CONTINUOUS
 62
     5
 10
32.481681362000018
 20
-122.9999566080005
 30
0.0
 11
42.081681361999472
 21
-122.9999566080005
 31
0.0
  0
LINE
  8
DETAIL
  6
CONTINUOUS
 62
     5
 10
-44.718977518000429
 20
-122.49995660799689
 30
0.0
 11
-121.3234218299995
 21
-122.499956607996
 31
0.0
  0
LINE
  8
DETAIL
  6
CONTINUOUS
 62
     5
 10
44.801477001999963
 20
-122.49995660799689
 30
0.0
 11
121.4059213139999
 21
-122.49995660799689
 31
0.0
  0
LINE
  8
DETAIL
  6
CONTINUOUS
 62
     5
 10
-68.82528041400019
 20
-118.9999566080005
 30
0.0
 11
68.82528041400019
 21
-118.9999566080005
 31
0.0
  0
LINE
  8
DETAIL
  6
CONTINUOUS
 62
     5
 10
-68.82528041400019
 20
-115.99995660799689
 30
0.0
 11
68.82528041400019
 21
-115.99995660799689
 31
0.0
  0
LINE
  8
DETAIL
  6
CONTINUOUS
 62
     5
 10
-63.499877848000317
 20
-111.9999566080005
 30
0.0
 11
63.499877847999407
 21
-111.9999566080005
 31
0.0
  0
LINE
  8
DETAIL
  6
CONTINUOUS
 62
     5
 10
-42.420844188999581
 20
-144.4999566080005
 30
0.0
 11
-42.420844188999581
 21
-125.4999566080005
 31
0.0
  0
LINE
  8
DETAIL
  6
CONTINUOUS
 62
     5
 10
-42.281681360999762
 20
-122.7999566079998
 30
0.0
 11
-42.281681360999762
 21
-119.19995660799761
 31
0.0
  0
LINE
  8
DETAIL
  6
CONTINUOUS
 62
     5
 10
-42.281681360999762
 20
-111.9999566080005
 30
0.0
 11
-42.281681360999762
 21
-106.9999566080005
 31
0.0
  0
LINE
  8
DETAIL
  6
CONTINUOUS
 62
     5
 10
-41.643954403999487
 20
-122.9999566080005
 30
0.0
 11
-41.643954403999487
 21
-144.4999566080005
 31
0.0
  0
LINE
  8
DETAIL
  6
CONTINUOUS
 62
     5
 10
-40.281681360999762
 20
-106.9999566080005
 30
0.0
 11
-40.281681360999762
 21
-104.99995660799689
 31
0.0
  0
LINE
  8
DETAIL
  6
CONTINUOUS
 62
     5
 10
-37.281681360999762
 20
-122.9999566080005
 30
0.0
 11
-37.281681360999762
 21
-118.9999566080005
 31
0.0
  0
LINE
  8
DETAIL
  6
CONTINUOUS
 62
     5
 10
-37.281681360999762
 20
-111.9999566080005
 30
0.0
 11
-37.281681360999762
 21
-106.9999566080005
 31
0.0
  0
LINE
  8
DETAIL
  6
CONTINUOUS
 62
     5
 10
-34.281681360999762
 20
-106.9999566080005
 30
0.0
 11
-34.281681360999762
 21
-104.99995660799689
 31
0.0
  0
LINE
  8
DETAIL
  6
CONTINUOUS
 62
     5
 10
-32.281681360999762
 20
-122.7999566079998
 30
0.0
 11
-32.281681360999762
 21
-119.19995660799761
 31
0.0
  0
LINE
  8
DETAIL
  6
CONTINUOUS
 62
     5
 10
-32.281681360999762
 20
-111.9999566080005
 30
0.0
 11
-32.281681360999762
 21
-106.9999566080005
 31
0.0
  0
LINE
  8
DETAIL
  6
CONTINUOUS
 62
     5
 10
62.050000000000182
 20
-108.7999566079998
 30
0.0
 11
53.949999999999818
 21
-108.7999566079998
 31
0.0
  0
LINE
  8
DETAIL
  6
CONTINUOUS
 62
     5
 10
-53.949999999999818
 20
-108.7999566079998
 30
0.0
 11
-62.050000000000182
 21
-108.7999566079998
 31
0.0
  0
LINE
  8
DETAIL
  6
CONTINUOUS
 62
     5
 10
42.281681362000199
 20
-106.9999566080005
 30
0.0
 11
32.281681362000199
 21
-106.9999566080005
 31
0.0
  0
LINE
  8
DETAIL
  6
CONTINUOUS
 62
     5
 10
-32.281681360999762
 20
-106.9999566080005
 30
0.0
 11
-42.281681360999762
 21
-106.9999566080005
 31
0.0
  0
LINE
  8
DETAIL
  6
CONTINUOUS
 62
     5
 10
59.494698137000341
 20
-105.99995660799689
 30
0.0
 11
56.505301864000103
 21
-105.99995660799689
 31
0.0
  0
LINE
  8
DETAIL
  6
CONTINUOUS
 62
     5
 10
-56.505301862999659
 20
-105.99995660799689
 30
0.0
 11
-59.494698135999897
 21
-105.99995660799689
 31
0.0
  0
LINE
  8
DETAIL
  6
CONTINUOUS
 62
     5
 10
40.281681362000199
 20
-104.99995660799689
 30
0.0
 11
34.281681362000199
 21
-104.99995660799689
 31
0.0
  0
LINE
  8
DETAIL
  6
CONTINUOUS
 62
     5
 10
-34.281681360999762
 20
-104.99995660799689
 30
0.0
 11
-40.281681360999762
 21
-104.99995660799689
 31
0.0
  0
LINE
  8
DETAIL
  6
CONTINUOUS
 62
     5
 10
-56.2946931890001
 20
-132.11320526199779
 30
0.0
 11
-52.464470973999603
 21
-129.22645391599869
 31
0.0
  0
LINE
  8
DETAIL
  6
CONTINUOUS
 62
     5
 10
-67.78535983599977
 20
-132.11320526199779
 30
0.0
 11
-63.955137620000642
 21
-129.22645391599869
 31
0.0
  0
LINE
  8
DETAIL
  6
CONTINUOUS
 62
     5
 10
-6.5
 20
-59.899956608001958
 30
0.0
 11
-6.6274270879994219
 21
-60.806647456000057
 31
0.0
  0
LINE
  8
DETAIL
  6
CONTINUOUS
 62
     5
 10
-13.0
 20
-50.0
 30
0.0
 11
-13.0
 21
-52.999956608000502
 31
0.0
  0
LINE
  8
DETAIL
  6
CONTINUOUS
 62
     5
 10
-11.5
 20
-62.399956608001958
 30
0.0
 11
-11.5
 21
-63.39995660799832
 31
0.0
  0
LINE
  8
DETAIL
  6
CONTINUOUS
 62
     5
 10
-5.0
 20
-64.39995660799832
 30
0.0
 11
-5.0
 21
-63.39995660799832
 31
0.0
  0
LINE
  8
DETAIL
  6
CONTINUOUS
 62
     5
 10
-5.0
 20
-59.899956608001958
 30
0.0
 11
-5.0
 21
-53.599956607999047
 31
0.0
  0
LINE
  8
BASIS
  6
DASHDOT
 62
     6
 10
0.0
 20
-194.68036032199959
 30
0.0
 11
0.0
 21
50.0
 31
0.0
  0
LINE
  8
DETAIL
  6
CONTINUOUS
 62
     5
 10
52.461921433000498
 20
-129.22645391699919
 30
0.0
 11
56.292143649000543
 21
-132.11320526199779
 31
0.0
  0
LINE
  8
DETAIL
  6
CONTINUOUS
 62
     5
 10
64.037637104000169
 20
-129.22645391599869
 30
0.0
 11
67.867859318999763
 21
-132.11320526199779
 31
0.0
  0
LINE
  8
DETAIL
  6
CONTINUOUS
 62
     5
 10
5.0
 20
-64.39995660799832
 30
0.0
 11
5.0
 21
-63.39995660799832
 31
0.0
  0
LINE
  8
DETAIL
  6
CONTINUOUS
 62
     5
 10
5.0
 20
-59.899956608001958
 30
0.0
 11
5.0
 21
-53.599956607999047
 31
0.0
  0
LINE
  8
DETAIL
  6
CONTINUOUS
 62
     5
 10
11.5
 20
-62.399956608001958
 30
0.0
 11
11.5
 21
-63.39995660799832
 31
0.0
  0
LINE
  8
DETAIL
  6
CONTINUOUS
 62
     5
 10
13.0
 20
-50.0
 30
0.0
 11
13.0
 21
-52.999956608000502
 31
0.0
  0
LINE
  8
DETAIL
  6
CONTINUOUS
 62
     5
 10
6.5
 20
-59.899956608001958
 30
0.0
 11
6.6274270889998661
 21
-60.806647456000057
 31
0.0
  0
LINE
  8
DETAIL
  6
CONTINUOUS
 62
     5
 10
7.9820955780005534
 20
-62.092179851995752
 30
0.0
 11
11.5
 21
-62.399956608001958
 31
0.0
  0
LINE
  8
DETAIL
  6
CONTINUOUS
 62
     5
 10
38.699999999999818
 20
-64.39995660799832
 30
0.0
 11
-38.699999999999818
 21
-64.39995660799832
 31
0.0
  0
LINE
  8
DETAIL
  6
CONTINUOUS
 62
     5
 10
-11.5
 20
-63.39995660799832
 30
0.0
 11
11.5
 21
-63.39995660799832
 31
0.0
  0
LINE
  8
DETAIL
  6
CONTINUOUS
 62
     5
 10
-11.5
 20
-62.399956608001958
 30
0.0
 11
11.5
 21
-62.399956608001958
 31
0.0
  0
LINE
  8
DETAIL
  6
CONTINUOUS
 62
     5
 10
-6.4994829440001922
 20
-59.899956608001958
 30
0.0
 11
6.4994829449997269
 21
-59.899956608001958
 31
0.0
  0
LINE
  8
DETAIL
  6
CONTINUOUS
 62
     5
 10
-12.400000000000549
 20
-53.599956607999047
 30
0.0
 11
12.400000000000549
 21
-53.599956607999047
 31
0.0
  0
LINE
  8
DETAIL
  6
CONTINUOUS
 62
     5
 10
-7.9820955770001092
 20
-62.092179851995752
 30
0.0
 11
-11.5
 21
-62.399956608001958
 31
0.0
  0
LINE
  8
DETAIL
  6
CONTINUOUS
 62
     5
 10
174.0
 20
-50.0
 30
0.0
 11
173.12755160799949
 21
-50.0
 31
0.0
  0
LINE
  8
DETAIL
  6
CONTINUOUS
 62
     5
 10
152.04807770099981
 20
-50.0
 30
0.0
 11
-151.96557821799979
 21
-49.999999999999091
 31
0.0
  0
LINE
  8
DETAIL
  6
CONTINUOUS
 62
     5
 10
-173.0450521249995
 20
-49.999999999999091
 30
0.0
 11
-174.0
 21
-49.999999999999091
 31
0.0
  0
LINE
  8
DETAIL
  6
CONTINUOUS
 62
     5
 10
174.0
 20
-49.200000000000728
 30
0.0
 11
173.12755160799949
 21
-49.200000000000728
 31
0.0
  0
LINE
  8
DETAIL
  6
CONTINUOUS
 62
     5
 10
152.04807770099981
 20
-49.200000000000728
 30
0.0
 11
-151.96557821799979
 21
-49.199999999999818
 31
0.0
  0
LINE
  8
DETAIL
  6
CONTINUOUS
 62
     5
 10
-173.0450521249995
 20
-49.199999999999818
 30
0.0
 11
-174.0
 21
-49.199999999999818
 31
0.0
  0
LINE
  8
DETAIL
  6
CONTINUOUS
 62
     5
 10
32.281681362000199
 20
-122.7999566079998
 30
0.0
 11
32.281681362000199
 21
-119.19995660799761
 31
0.0
  0
LINE
  8
DETAIL
  6
CONTINUOUS
 62
     5
 10
32.281681362000199
 20
-111.9999566080005
 30
0.0
 11
32.281681362000199
 21
-106.9999566080005
 31
0.0
  0
LINE
  8
DETAIL
  6
CONTINUOUS
 62
     5
 10
34.281681362000199
 20
-106.9999566080005
 30
0.0
 11
34.281681362000199
 21
-104.99995660799689
 31
0.0
  0
LINE
  8
DETAIL
  6
CONTINUOUS
 62
     5
 10
37.281681362000199
 20
-122.9999566080005
 30
0.0
 11
37.281681362000199
 21
-118.9999566080005
 31
0.0
  0
LINE
  8
DETAIL
  6
CONTINUOUS
 62
     5
 10
37.281681362000199
 20
-111.9999566080005
 30
0.0
 11
37.281681362000199
 21
-106.9999566080005
 31
0.0
  0
LINE
  8
DETAIL
  6
CONTINUOUS
 62
     5
 10
40.281681362000199
 20
-106.9999566080005
 30
0.0
 11
40.281681362000199
 21
-104.99995660799689
 31
0.0
  0
LINE
  8
DETAIL
  6
CONTINUOUS
 62
     5
 10
41.643954404999931
 20
-122.9999566080005
 30
0.0
 11
41.643954404999931
 21
-144.4999566080005
 31
0.0
  0
LINE
  8
DETAIL
  6
CONTINUOUS
 62
     5
 10
42.281681362000199
 20
-122.7999566079998
 30
0.0
 11
42.281681362000199
 21
-119.19995660799761
 31
0.0
  0
LINE
  8
DETAIL
  6
CONTINUOUS
 62
     5
 10
42.281681362000199
 20
-111.9999566080005
 30
0.0
 11
42.281681362000199
 21
-106.9999566080005
 31
0.0
  0
LINE
  8
DETAIL
  6
CONTINUOUS
 62
     5
 10
42.503343673000018
 20
-144.4999566080005
 30
0.0
 11
42.503343673000018
 21
-125.4999566080005
 31
0.0
  0
LINE
  8
DETAIL
  6
CONTINUOUS
 62
     5
 10
49.5
 20
-156.09995660799899
 30
0.0
 11
49.5
 21
-147.49995660799689
 31
0.0
  0
LINE
  8
DETAIL
  6
CONTINUOUS
 62
     5
 10
49.199999999999818
 20
-107.49995660799689
 30
0.0
 11
49.199999999999818
 21
-74.899956608001958
 31
0.0
  0
LINE
  8
DETAIL
  6
CONTINUOUS
 62
     5
 10
53.949999999999818
 20
-111.9999566080005
 30
0.0
 11
53.949999999999818
 21
-108.7999566079998
 31
0.0
  0
LINE
  8
DETAIL
  6
CONTINUOUS
 62
     5
 10
55.977562701999886
 20
-111.9999566080005
 30
0.0
 11
55.977562701999886
 21
-108.7999566079998
 31
0.0
  0
LINE
  8
DETAIL
  6
CONTINUOUS
 62
     5
 10
56.292143649000543
 20
-132.11320526199779
 30
0.0
 11
56.292143649000543
 21
-137.8867079539996
 31
0.0
  0
LINE
  8
DETAIL
  6
CONTINUOUS
 62
     5
 10
56.5
 20
-108.7999566079998
 30
0.0
 11
56.5
 21
-105.99995660799689
 31
0.0
  0
LINE
  8
DETAIL
  6
CONTINUOUS
 62
     5
 10
59.5
 20
-108.7999566079998
 30
0.0
 11
59.5
 21
-105.99995660799689
 31
0.0
  0
LINE
  8
DETAIL
  6
CONTINUOUS
 62
     5
 10
60.022437299000558
 20
-111.9999566080005
 30
0.0
 11
60.022437299000558
 21
-108.7999566079998
 31
0.0
  0
LINE
  8
DETAIL
  6
CONTINUOUS
 62
     5
 10
62.050000000000182
 20
-111.9999566080005
 30
0.0
 11
62.050000000000182
 21
-108.7999566079998
 31
0.0
  0
LINE
  8
DETAIL
  6
CONTINUOUS
 62
     5
 10
-179.27938543300019
 20
-16.999999999995449
 30
0.0
 11
-173.0450521249995
 21
-16.999999999995449
 31
0.0
  0
LINE
  8
DETAIL
  6
CONTINUOUS
 62
     5
 10
-155.4137443919999
 20
-16.999999999995449
 30
0.0
 11
-145.81374439199951
 21
-16.999999999995449
 31
0.0
  0
LINE
  8
DETAIL
  6
CONTINUOUS
 62
     5
 10
173.12755160799949
 20
-16.999999999996358
 30
0.0
 11
179.27938543399981
 21
-16.999999999996358
 31
0.0
  0
LINE
  8
DETAIL
  6
CONTINUOUS
 62
     5
 10
-189.2563209110003
 20
-12.999999999995451
 30
0.0
 11
-172.52343166999981
 21
-12.999999999995451
 31
0.0
  0
LINE
  8
DETAIL
  6
CONTINUOUS
 62
     5
 10
-169.18832646700051
 20
-12.999999999995451
 30
0.0
 11
-135.83680891399939
 21
-12.999999999995451
 31
0.0
  0
LINE
  8
DETAIL
  6
CONTINUOUS
 62
     5
 10
175.05591443700001
 20
-12.99999999999636
 30
0.0
 11
189.25632091199989
 21
-12.99999999999636
 31
0.0
  0
LINE
  8
DETAIL
  6
CONTINUOUS
 62
     5
 10
-205.0
 20
-9.9999999999990905
 30
0.0
 11
205.0
 21
-10.0
 31
0.0
  0
LINE
  8
DETAIL
  6
CONTINUOUS
 62
     5
 10
63.5
 20
-115.99995660799689
 30
0.0
 11
63.5
 21
-111.9999566080005
 31
0.0
  0
LINE
  8
DETAIL
  6
CONTINUOUS
 62
     5
 10
67.867859318999763
 20
-132.11320526199779
 30
0.0
 11
67.867859318999763
 21
-137.8867079539996
 31
0.0
  0
LINE
  8
DETAIL
  6
CONTINUOUS
 62
     5
 10
70.753643242999715
 20
-122.49995660799689
 30
0.0
 11
70.753643242999715
 21
-121.9999566080005
 31
0.0
  0
LINE
  8
DETAIL
  6
CONTINUOUS
 62
     5
 10
72.682006072000149
 20
-122.49995660799689
 30
0.0
 11
72.682006072000149
 21
-121.9999566080005
 31
0.0
  0
LINE
  8
DETAIL
  6
CONTINUOUS
 62
     5
 10
-210.0
 20
0.0000000000009095
 30
0.0
 11
210.0
 21
0.0
 31
0.0
  0
LINE
  8
DETAIL
  6
CONTINUOUS
 62
     5
 10
152.04807770099981
 20
-82.499462299001607
 30
0.0
 11
152.04807770099981
 21
-16.0
 31
0.0
  0
LINE
  8
DETAIL
  6
CONTINUOUS
 62
     5
 10
171.199188779
 20
-16.0
 30
0.0
 11
171.199188779
 21
-82.499462299001607
 31
0.0
  0
LINE
  8
DETAIL
  6
CONTINUOUS
 62
     5
 10
173.12755160799949
 20
-16.0
 30
0.0
 11
173.12755160799949
 21
-82.499462299001607
 31
0.0
  0
LINE
  8
DETAIL
  6
CONTINUOUS
 62
     5
 10
174.0
 20
-50.0
 30
0.0
 11
174.0
 21
-49.200000000000728
 31
0.0
  0
LINE
  8
DETAIL
  6
CONTINUOUS
 62
     5
 10
174.4793854339996
 20
-16.999999999996358
 30
0.0
 11
174.47952337686641
 21
-13.36078133595038
 31
0.0
  0
LINE
  8
DETAIL
  6
CONTINUOUS
 62
     5
 10
179.4793854339996
 20
-16.799999999995631
 30
0.0
 11
179.4793854339996
 21
-13.200000000000729
 31
0.0
  0
LINE
  8
DETAIL
  6
CONTINUOUS
 62
     5
 10
189.25632091199989
 20
-10.0
 30
0.0
 11
189.25632091199989
 21
-12.99999999999636
 31
0.0
  0
LINE
  8
DETAIL
  6
CONTINUOUS
 62
     5
 10
210.0
 20
-5.0
 30
0.0
 11
210.0
 21
0.0
 31
0.0
  0
ARC
  8
DETAIL
  6
CONTINUOUS
 62
     5
 10
-121.3226537840001
 20
-109.3399753350013
 30
0.0
 40
38.159981281
 50
267.10463971367642
 51
269.99884680709181
  0
ARC
  8
DETAIL
  6
CONTINUOUS
 62
     5
 10
-42.0
 20
-156.09995660799899
 30
0.0
 40
7.5
 50
180.0
 51
270.0
  0
ARC
  8
DETAIL
  6
CONTINUOUS
 62
     5
 10
-53.699999999999818
 20
-107.49995660799689
 30
0.0
 40
4.5
 50
270.0
 51
0.0
  0
ARC
  8
DETAIL
  6
CONTINUOUS
 62
     5
 10
-12.400000000000549
 20
-52.999956608000502
 30
0.0
 40
0.6
 50
180.0
 51
270.0
  0
ARC
  8
DETAIL
  6
CONTINUOUS
 62
     5
 10
-32.481681361000483
 20
-122.7999566079998
 30
0.0
 40
0.2
 50
270.0
 51
0.0
  0
ARC
  8
DETAIL
  6
CONTINUOUS
 62
     5
 10
-42.081681360999937
 20
-122.7999566079998
 30
0.0
 40
0.2
 50
180.00000000010431
 51
269.99999999989569
  0
ARC
  8
DETAIL
  6
CONTINUOUS
 62
     5
 10
-42.081681360999937
 20
-119.19995660799761
 30
0.0
 40
0.2
 50
90.000000000104222
 51
180.00000000010431
  0
ARC
  8
DETAIL
  6
CONTINUOUS
 62
     5
 10
-32.481681361000483
 20
-119.19995660799761
 30
0.0
 40
0.2
 50
0.0
 51
90.0
  0
ARC
  8
DETAIL
  6
CONTINUOUS
 62
     5
 10
-205.0
 20
-4.9999999999990914
 30
0.0
 40
5.0
 50
180.0
 51
270.0
  0
ARC
  8
DETAIL
  6
CONTINUOUS
 62
     5
 10
-179.27938543300019
 20
-16.799999999994721
 30
0.0
 40
0.2
 50
180.00000000010431
 51
269.99999999989569
  0
ARC
  8
DETAIL
  6
CONTINUOUS
 62
     5
 10
-179.27938543300019
 20
-13.19999999999982
 30
0.0
 40
0.2
 50
90.000000000104222
 51
180.00000000010431
  0
ARC
  8
DETAIL
  6
CONTINUOUS
 62
     5
 10
-145.81374439199951
 20
-16.799999999994721
 30
0.0
 40
0.2
 50
270.0
 51
0.0
  0
ARC
  8
DETAIL
  6
CONTINUOUS
 62
     5
 10
-155.4137443919999
 20
-16.799999999994721
 30
0.0
 40
0.2
 50
180.00000000010431
 51
269.99999999989569
  0
ARC
  8
DETAIL
  6
CONTINUOUS
 62
     5
 10
-145.81374439199951
 20
-13.19999999999982
 30
0.0
 40
0.2
 50
0.0
 51
90.0
  0
ARC
  8
DETAIL
  6
CONTINUOUS
 62
     5
 10
-155.4137443919999
 20
-13.19999999999982
 30
0.0
 40
0.2
 50
90.000000000104222
 51
180.00000000010431
  0
ARC
  8
DETAIL
  6
CONTINUOUS
 62
     5
 10
121.4051532670001
 20
-109.33997533500219
 30
0.0
 40
38.159981281
 50
270.0011531929083
 51
272.8953602862714
  0
ARC
  8
DETAIL
  6
CONTINUOUS
 62
     5
 10
38.699999999999818
 20
-74.899956608001958
 30
0.0
 40
10.5
 50
0.0
 51
90.0
  0
ARC
  8
DETAIL
  6
CONTINUOUS
 62
     5
 10
42.0
 20
-156.09995660799899
 30
0.0
 40
7.5
 50
270.0
 51
0.0
  0
ARC
  8
DETAIL
  6
CONTINUOUS
 62
     5
 10
205.0
 20
-5.0
 30
0.0
 40
5.0
 50
270.0
 51
0.0
  0
ARC
  8
DETAIL
  6
CONTINUOUS
 62
     5
 10
53.699999999999818
 20
-107.49995660799689
 30
0.0
 40
4.5
 50
180.0
 51
270.0
  0
ARC
  8
DETAIL
  6
CONTINUOUS
 62
     5
 10
-8.1128291909999461
 20
-60.597887804000493
 30
0.0
 40
1.5
 50
274.9999999999738
 51
351.99999999995953
  0
ARC
  8
DETAIL
  6
CONTINUOUS
 62
     5
 10
8.1128291920003903
 20
-60.597887804000493
 30
0.0
 40
1.5
 50
188.0000000000405
 51
264.99999999997402
  0
ARC
  8
DETAIL
  6
CONTINUOUS
 62
     5
 10
12.400000000000549
 20
-52.999956608000502
 30
0.0
 40
0.6
 50
270.0
 51
0.0
  0
ARC
  8
DETAIL
  6
CONTINUOUS
 62
     5
 10
42.081681361999472
 20
-122.7999566079998
 30
0.0
 40
0.2
 50
270.0
 51
0.0
  0
ARC
  8
DETAIL
  6
CONTINUOUS
 62
     5
 10
179.27938543399981
 20
-13.200000000000729
 30
0.0
 40
0.2
 50
0.0
 51
90.0
  0
ARC
  8
DETAIL
  6
CONTINUOUS
 62
     5
 10
32.481681362000018
 20
-122.7999566079998
 30
0.0
 40
0.2
 50
180.00000000010431
 51
269.99999999989569
  0
ARC
  8
DETAIL
  6
CONTINUOUS
 62
     5
 10
32.481681362000018
 20
-119.19995660799761
 30
0.0
 40
0.2
 50
90.000000000104222
 51
180.00000000010431
  0
ARC
  8
DETAIL
  6
CONTINUOUS
 62
     5
 10
42.081681361999472
 20
-119.19995660799761
 30
0.0
 40
0.2
 50
0.0
 51
90.0
  0
ARC
  8
DETAIL
  6
CONTINUOUS
 62
     5
 10
179.27938543399981
 20
-16.799999999995631
 30
0.0
 40
0.2
 50
269.99999999989569
 51
0.0
  0
LINE
  8
SIZE
  6
CONTINUOUS
 62
    30
 10
230.00000000000011
 20
0.0000000000000032
 30
0.0
 11
360.75536459061652
 21
0.0000000000000242
 31
0.0
  0
LINE
  8
SIZE
  6
CONTINUOUS
 62
    30
 10
225.00000000000011
 20
-10.0
 30
0.0
 11
360.75536459061652
 21
-9.9999999999999787
 31
0.0
  0
LINE
  8
SIZE
  6
CONTINUOUS
 62
    30
 10
340.75536459061652
 20
-21.999999999999989
 30
0.0
 11
340.75536459061652
 21
-33.999999999999993
 31
0.0
  0
LINE
  8
SIZE
  6
CONTINUOUS
 62
    30
 10
340.75536459061652
 20
12.00000000000002
 30
0.0
 11
340.75536459061641
 21
156.28571428571431
 31
0.0
  0
LINE
  8
SIZE
  6
CONTINUOUS
 62
    30
 10
340.75536459061652
 20
-9.9999999999999822
 30
0.0
 11
340.75536459061652
 21
0.000000000000021
 31
0.0
  0
CIRCLE
  8
SIZE
  6
CONTINUOUS
 62
    30
 10
340.75536459061652
 20
-9.9999999999999822
 30
0.0
 40
6.0
  0
LINE
  8
SIZE
  6
CONTINUOUS
 62
    30
 10
340.75536459061652
 20
-9.9999999999999822
 30
0.0
 11
340.75536459061652
 21
-21.999999999999982
 31
0.0
  0
CIRCLE
  8
SIZE
  6
CONTINUOUS
 62
    30
 10
340.75536459061652
 20
0.000000000000021
 30
0.0
 40
6.0
  0
LINE
  8
SIZE
  6
CONTINUOUS
 62
    30
 10
340.75536459061652
 20
0.000000000000021
 30
0.0
 11
340.75536459061652
 21
12.000000000000021
 31
0.0
  0
TEXT
  8
SIZE
  6
CONTINUOUS
 62
    30
 10
315.75536459061641
 20
41.758857142857053
 30
0.0
 40
64.0
  1
10
 50
90.0
 41
0.9
 51
0.0
  7
STANDARD
 71
     0
 72
     1
 11
315.75536459061641
 21
90.142857142857068
 31
0.0
210
0.0
220
0.0
230
1.0
  0
POINT
  8
DEFPOINTS
  6
CONTINUOUS
 62
    30
 10
210.00000000000011
 20
0.0
 30
0.0
  0
POINT
  8
DEFPOINTS
  6
CONTINUOUS
 62
    30
 10
205.00000000000011
 20
-10.0
 30
0.0
  0
POINT
  8
DEFPOINTS
  6
CONTINUOUS
 62
    30
 10
340.75536459061652
 20
-9.9999999999999822
 30
0.0
  0
LINE
  8
SIZE
  6
CONTINUOUS
 62
    30
 10
-62.000000000000021
 20
-163.5999566079991
 30
0.0
 11
-461.53542431183558
 21
-163.59995660799919
 31
0.0
  0
LINE
  8
SIZE
  6
CONTINUOUS
 62
    30
 10
-230.00000000000011
 20
0.0000000000009063
 30
0.0
 11
-461.53542431183558
 21
0.000000000000869
 31
0.0
  0
LINE
  8
SIZE
  6
CONTINUOUS
 62
    30
 10
-441.53542431183558
 20
-175.59995660799919
 30
0.0
 11
-441.53542431183558
 21
-187.59995660799919
 31
0.0
  0
LINE
  8
SIZE
  6
CONTINUOUS
 62
    30
 10
-441.53542431183558
 20
12.000000000000879
 30
0.0
 11
-441.53542431183558
 21
24.000000000000881
 31
0.0
  0
LINE
  8
SIZE
  6
CONTINUOUS
 62
    30
 10
-441.53542431183558
 20
-163.59995660799919
 30
0.0
 11
-441.53542431183558
 21
0.0000000000008723
 31
0.0
  0
CIRCLE
  8
SIZE
  6
CONTINUOUS
 62
    30
 10
-441.53542431183558
 20
-163.59995660799919
 30
0.0
 40
6.0
  0
LINE
  8
SIZE
  6
CONTINUOUS
 62
    30
 10
-441.53542431183558
 20
-163.59995660799919
 30
0.0
 11
-441.53542431183558
 21
-175.59995660799919
 31
0.0
  0
CIRCLE
  8
SIZE
  6
CONTINUOUS
 62
    30
 10
-441.53542431183558
 20
0.0000000000008723
 30
0.0
 40
6.0
  0
LINE
  8
SIZE
  6
CONTINUOUS
 62
    30
 10
-441.53542431183558
 20
0.0000000000008723
 30
0.0
 11
-441.53542431183558
 21
12.000000000000872
 31
0.0
  0
TEXT
  8
SIZE
  6
CONTINUOUS
 62
    30
 10
-466.53542431183553
 20
-156.96797830399902
 30
0.0
 40
64.0
  1
164
 50
90.0
 41
0.9
 51
0.0
  7
STANDARD
 71
     0
 72
     1
 11
-466.53542431183553
 21
-81.799978303999012
 31
0.0
210
0.0
220
0.0
230
1.0
  0
POINT
  8
DEFPOINTS
  6
CONTINUOUS
 62
    30
 10
-42.000000000000007
 20
-163.5999566079991
 30
0.0
  0
POINT
  8
DEFPOINTS
  6
CONTINUOUS
 62
    30
 10
-210.00000000000011
 20
0.0000000000009095
 30
0.0
  0
POINT
  8
DEFPOINTS
  6
CONTINUOUS
 62
    30
 10
-441.53542431183558
 20
0.0000000000008723
 30
0.0
  0
ARC
  8
DETAIL
  6
CONTINUOUS
 62
     5
 10
-121.3139609612126
 20
-101.5161792627059
 30
0.0
 40
46.028137966857138
 50
211.23312697690571
 51
267.48429551090737
  0
ARC
  8
DETAIL
  6
CONTINUOUS
 62
     5
 10
-95.468322788942714
 20
-83.341470850557926
 30
0.0
 40
77.581298731593932
 50
179.37814287361809
 51
212.81305686050581
  0
LINE
  8
SIZE
  6
CONTINUOUS
 62
    30
 10
-194.00000000000011
 20
-49.999999999999133
 30
0.0
 11
-315.71968273988762
 21
-49.999999999999147
 31
0.0
  0
LINE
  8
SIZE
  6
CONTINUOUS
 62
    30
 10
-230.00000000000011
 20
0.0000000000009063
 30
0.0
 11
-315.71968273988762
 21
0.0000000000008925
 31
0.0
  0
LINE
  8
SIZE
  6
CONTINUOUS
 62
    30
 10
-295.71968273988762
 20
-61.99999999999914
 30
0.0
 11
-295.71968273988762
 21
-73.999999999999147
 31
0.0
  0
LINE
  8
SIZE
  6
CONTINUOUS
 62
    30
 10
-295.71968273988762
 20
12.000000000000901
 30
0.0
 11
-295.71968273988762
 21
167.2571428571438
 31
0.0
  0
LINE
  8
SIZE
  6
CONTINUOUS
 62
    30
 10
-295.71968273988762
 20
-49.99999999999914
 30
0.0
 11
-295.71968273988762
 21
0.0000000000008957
 31
0.0
  0
CIRCLE
  8
SIZE
  6
CONTINUOUS
 62
    30
 10
-295.71968273988762
 20
-49.99999999999914
 30
0.0
 40
6.0
  0
LINE
  8
SIZE
  6
CONTINUOUS
 62
    30
 10
-295.71968273988762
 20
-49.99999999999914
 30
0.0
 11
-295.71968273988762
 21
-61.99999999999914
 31
0.0
  0
CIRCLE
  8
SIZE
  6
CONTINUOUS
 62
    30
 10
-295.71968273988762
 20
0.0000000000008957
 30
0.0
 40
6.0
  0
LINE
  8
SIZE
  6
CONTINUOUS
 62
    30
 10
-295.71968273988762
 20
0.0000000000008957
 30
0.0
 11
-295.71968273988762
 21
12.000000000000895
 31
0.0
  0
TEXT
  8
SIZE
  6
CONTINUOUS
 62
    30
 10
-320.7196827398875
 20
41.484571428572409
 30
0.0
 40
64.0
  1
50
 50
90.0
 41
0.9
 51
0.0
  7
STANDARD
 71
     0
 72
     1
 11
-320.7196827398875
 21
95.628571428572414
 31
0.0
210
0.0
220
0.0
230
1.0
  0
POINT
  8
DEFPOINTS
  6
CONTINUOUS
 62
    30
 10
-174.00000000000011
 20
-49.999999999999119
 30
0.0
  0
POINT
  8
DEFPOINTS
  6
CONTINUOUS
 62
    30
 10
-210.00000000000011
 20
0.0000000000009095
 30
0.0
  0
POINT
  8
DEFPOINTS
  6
CONTINUOUS
 62
    30
 10
-295.71968273988762
 20
0.0000000000008957
 30
0.0
  0
ARC
  8
DETAIL
  6
CONTINUOUS
 62
     5
 10
-118.7254618267543
 20
-100.63583153389661
 30
0.0
 40
47.090205585602753
 50
210.56076995284121
 51
264.38334422904131
  0
ARC
  8
DETAIL
  6
CONTINUOUS
 62
     5
 10
-93.241169879525842
 20
-83.289291075469009
 30
0.0
 40
77.879524612582131
 50
179.41891490161279
 51
212.01716722431101
  0
ARC
  8
DETAIL
  6
CONTINUOUS
 62
     5
 10
121.22185946618541
 20
-101.2133966748288
 30
0.0
 40
46.334738247475073
 50
272.61304995181757
 51
328.55867963680191
  0
ARC
  8
DETAIL
  6
CONTINUOUS
 62
     5
 10
93.705496386271079
 20
-82.808998421747674
 30
0.0
 40
79.422658405864723
 50
327.58549927719559
 51
0.2233009911015575
  0
ARC
  8
DETAIL
  6
CONTINUOUS
 62
     5
 10
119.083631168146
 20
-100.7759830405821
 30
0.0
 40
46.78157267749738
 50
272.84349636992738
 51
329.4153697339828
  0
ARC
  8
DETAIL
  6
CONTINUOUS
 62
     5
 10
91.373384113126122
 20
-82.740427940510926
 30
0.0
 40
79.826168359721649
 50
328.39096287292472
 51
0.1729550034970116
  0
ARC
  8
DETAIL
  6
CONTINUOUS
 62
     5
 10
67.258059528695412
 20
-121.24687450810509
 30
0.0
 40
5.4759774245160129
 50
352.09536404333483
 51
73.36945037436
  0
ARC
  8
DETAIL
  6
CONTINUOUS
 62
     5
 10
68.041669971131341
 20
-121.6234155581933
 30
0.0
 40
2.7379887124529589
 50
352.09536404680603
 51
73.369450370824637
  0
ARC
  8
DETAIL
  6
CONTINUOUS
 62
     5
 10
-67.258059528695412
 20
-121.24687450810509
 30
0.0
 40
5.4759774245160129
 50
106.63054962564
 51
187.90463595666509
  0
ARC
  8
DETAIL
  6
CONTINUOUS
 62
     5
 10
-68.041669971131341
 20
-121.6234155581933
 30
0.0
 40
2.7379887124529589
 50
106.63054962917541
 51
187.90463595319409
  0
ARC
  8
DETAIL
  6
CONTINUOUS
 62
     5
 10
-167.29948036992121
 20
-15.453654601189561
 30
0.0
 40
5.7714892434764504
 50
109.10327270360629
 51
185.4319128788454
  0
ARC
  8
DETAIL
  6
CONTINUOUS
 62
     5
 10
-167.6394175710675
 20
-16.115383313513121
 30
0.0
 40
3.4791855308451418
 50
116.43568478611471
 51
178.09950079634899
  0
ARC
  8
DETAIL
  6
CONTINUOUS
 62
     5
 10
176.9447605340774
 20
-15.453654601190459
 30
0.0
 40
5.7714892434764504
 50
109.10327270360629
 51
185.4319128788454
  0
ARC
  8
DETAIL
  6
CONTINUOUS
 62
     5
 10
176.60482333293109
 20
-16.11538331351403
 30
0.0
 40
3.4791855308451418
 50
116.43568478611471
 51
178.09950079634899
  0
ARC
  8
DETAIL
  6
CONTINUOUS
 62
     5
 10
111.33570695875819
 20
-83.048850893193958
 30
0.0
 40
40.716077405382038
 50
284.31943623879658
 51
0.7731246477971118
  0
ARC
  8
DETAIL
  6
CONTINUOUS
 62
     5
 10
-111.33570695875819
 20
-83.048850893193048
 30
0.0
 40
40.716077405382038
 50
179.22687535220291
 51
255.68056376120339
  0
ARC
  8
DETAIL
  6
CONTINUOUS
 62
     5
 10
159.12623083615739
 20
-16.310221401718991
 30
0.0
 40
7.0849480677583792
 50
117.0447398112469
 51
177.4904457576024
  0
ARC
  8
DETAIL
  6
CONTINUOUS
 62
     5
 10
-44.732100642670957
 20
-144.5145354756678
 30
0.0
 40
3.0881806512569732
 50
284.82207455151791
 51
0.2704863427919458
  0
ARC
  8
DETAIL
  6
CONTINUOUS
 62
     5
 10
-45.665739284263509
 20
-144.3944588851291
 30
0.0
 40
3.2466096083136091
 50
286.95469994277289
 51
358.13786095146401
  0
ARC
  8
DETAIL
  6
CONTINUOUS
 62
     5
 10
44.732100642670957
 20
-144.5145354756678
 30
0.0
 40
3.0881806512569732
 50
179.72951365720809
 51
255.17792544848211
  0
ARC
  8
DETAIL
  6
CONTINUOUS
 62
     5
 10
45.540405948720952
 20
-144.57512284136371
 30
0.0
 40
3.0379923023658701
 50
178.58223884974939
 51
254.31280484942889
  0
ARC
  8
DETAIL
  6
CONTINUOUS
 62
     5
 10
45.242182801628587
 20
-125.21779296977731
 30
0.0
 40
2.7533354483688122
 50
99.210524898643229
 51
185.88203599592941
  0
ARC
  8
DETAIL
  6
CONTINUOUS
 62
     5
 10
-45.329182211763509
 20
-125.3632828190366
 30
0.0
 40
2.9115476604787638
 50
357.30943436853431
 51
79.557678971335108
  0
LINE
  8
DETAIL
  6
CONTINUOUS
 62
     5
 10
-61.028256939999658
 20
-140.77345929999859
 30
0.0
 11
-57.198034723999633
 21
-137.8867079539996
 31
0.0
  0
LINE
  8
DETAIL
  6
CONTINUOUS
 62
     5
 10
-57.198034723999633
 20
-137.8867079539996
 30
0.0
 11
-57.198034723999633
 21
-132.11320526199779
 31
0.0
  0
LINE
  8
DETAIL
  6
CONTINUOUS
 62
     5
 10
-57.198034723999633
 20
-132.11320526199779
 30
0.0
 11
-61.028256939999658
 21
-129.22645391599869
 31
0.0
  0
LINE
  8
DETAIL
  6
CONTINUOUS
 62
     5
 10
-49.537590292999987
 20
-140.77345929999859
 30
0.0
 11
-45.707368076999963
 21
-137.8867079539996
 31
0.0
  0
LINE
  8
DETAIL
  6
CONTINUOUS
 62
     5
 10
-45.707368076999963
 20
-137.8867079539996
 30
0.0
 11
-45.707368076999963
 21
-132.11320526199779
 31
0.0
  0
LINE
  8
DETAIL
  6
CONTINUOUS
 62
     5
 10
-45.707368076999963
 20
-132.11320526199779
 30
0.0
 11
-49.537590292999987
 21
-129.22645391599869
 31
0.0
  0
LINE
  8
DETAIL
  6
CONTINUOUS
 62
     5
 10
61.110756422999657
 20
-140.77345929999859
 30
0.0
 11
57.280534208000063
 21
-137.8867079539996
 31
0.0
  0
LINE
  8
DETAIL
  6
CONTINUOUS
 62
     5
 10
57.280534208000063
 20
-137.8867079539996
 30
0.0
 11
57.280534208000063
 21
-132.11320526199779
 31
0.0
  0
LINE
  8
DETAIL
  6
CONTINUOUS
 62
     5
 10
57.280534208000063
 20
-132.11320526199779
 30
0.0
 11
61.110756422999657
 21
-129.22645391599869
 31
0.0
  0
LINE
  8
DETAIL
  6
CONTINUOUS
 62
     5
 10
49.535040752999521
 20
-140.77345929999859
 30
0.0
 11
45.704818537999927
 21
-137.8867079539996
 31
0.0
  0
LINE
  8
DETAIL
  6
CONTINUOUS
 62
     5
 10
45.704818537999927
 20
-137.8867079539996
 30
0.0
 11
45.704818537999927
 21
-132.11320526199779
 31
0.0
  0
LINE
  8
DETAIL
  6
CONTINUOUS
 62
     5
 10
45.704818537999927
 20
-132.11320526199779
 30
0.0
 11
49.535040752999521
 21
-129.22645391599869
 31
0.0
  0
LINE
  8
SIZE
  6
CONTINUOUS
 62
    30
 10
210.0
 20
20.0
 30
0.0
 11
210.0
 21
251.47112675891091
 31
0.0
  0
LINE
  8
SIZE
  6
CONTINUOUS
 62
    30
 10
-210.0
 20
20.000000000000909
 30
0.0
 11
-210.0
 21
251.47112675891091
 31
0.0
  0
LINE
  8
SIZE
  6
CONTINUOUS
 62
    30
 10
198.0
 20
231.47112675891091
 30
0.0
 11
-198.0
 21
231.47112675891091
 31
0.0
  0
CIRCLE
  8
SIZE
  6
CONTINUOUS
 62
    30
 10
210.0
 20
231.47112675891091
 30
0.0
 40
6.0
  0
LINE
  8
SIZE
  6
CONTINUOUS
 62
    30
 10
210.0
 20
231.47112675891091
 30
0.0
 11
198.0
 21
231.47112675891091
 31
0.0
  0
CIRCLE
  8
SIZE
  6
CONTINUOUS
 62
    30
 10
-210.0
 20
231.47112675891091
 30
0.0
 40
6.0
  0
LINE
  8
SIZE
  6
CONTINUOUS
 62
    30
 10
-210.0
 20
231.47112675891091
 30
0.0
 11
-198.0
 21
231.47112675891091
 31
0.0
  0
TEXT
  8
SIZE
  6
CONTINUOUS
 62
    30
 10
-81.504000000000005
 20
256.47112675891088
 30
0.0
 40
64.0
  1
420
 50
0.0
 41
0.9
 51
0.0
  7
STANDARD
 71
     0
 72
     1
 11
0.0
 21
256.47112675891088
 31
0.0
210
0.0
220
0.0
230
1.0
  0
POINT
  8
DEFPOINTS
  6
CONTINUOUS
 62
    30
 10
210.0
 20
0.0
 30
0.0
  0
POINT
  8
DEFPOINTS
  6
CONTINUOUS
 62
    30
 10
-210.0
 20
0.0000000000009095
 30
0.0
  0
POINT
  8
DEFPOINTS
  6
CONTINUOUS
 62
    30
 10
-210.0
 20
231.47112675891091
 30
0.0
  0
LINE
  8
SIZE
  6
CONTINUOUS
 62
    30
 10
-174.0
 20
-69.999999999999091
 30
0.0
 11
-174.0
 21
-539.52128163886482
 31
0.0
  0
LINE
  8
SIZE
  6
CONTINUOUS
 62
    30
 10
174.0
 20
-70.0
 30
0.0
 11
174.0
 21
-539.52128163886482
 31
0.0
  0
LINE
  8
SIZE
  6
CONTINUOUS
 62
    30
 10
-162.0
 20
-519.52128163886482
 30
0.0
 11
162.0
 21
-519.52128163886482
 31
0.0
  0
CIRCLE
  8
SIZE
  6
CONTINUOUS
 62
    30
 10
-174.0
 20
-519.52128163886482
 30
0.0
 40
6.0
  0
LINE
  8
SIZE
  6
CONTINUOUS
 62
    30
 10
-174.0
 20
-519.52128163886482
 30
0.0
 11
-162.0
 21
-519.52128163886482
 31
0.0
  0
CIRCLE
  8
SIZE
  6
CONTINUOUS
 62
    30
 10
174.0
 20
-519.52128163886482
 30
0.0
 40
6.0
  0
LINE
  8
SIZE
  6
CONTINUOUS
 62
    30
 10
174.0
 20
-519.52128163886482
 30
0.0
 11
162.0
 21
-519.52128163886482
 31
0.0
  0
TEXT
  8
SIZE
  6
CONTINUOUS
 62
    30
 10
-115.48800000000003
 20
-494.52128163886482
 30
0.0
 40
64.0
  1
φ348
 50
0.0
 41
0.9
 51
0.0
  7
STANDARD
 71
     0
 72
     1
 11
-0.0000000000000284
 21
-494.52128163886482
 31
0.0
210
0.0
220
0.0
230
1.0
  0
POINT
  8
DEFPOINTS
  6
CONTINUOUS
 62
    30
 10
-174.0
 20
-49.999999999999091
 30
0.0
  0
POINT
  8
DEFPOINTS
  6
CONTINUOUS
 62
    30
 10
174.0
 20
-50.0
 30
0.0
  0
POINT
  8
DEFPOINTS
  6
CONTINUOUS
 62
    30
 10
174.0
 20
-519.52128163886482
 30
0.0
  0
LINE
  8
BASIS
  6
DASHDOT
 62
     6
 10
-190.0
 20
20.739287195997349
 30
0.0
 11
-190.0
 21
-20.739287195002358
 31
0.0
  0
LINE
  8
BASIS
  6
DASHDOT
 62
     6
 10
209.76906066999979
 20
0.0
 30
0.0
 11
170.23093933099969
 21
0.0
 31
0.0
  0
LINE
  8
BASIS
  6
DASHDOT
 62
     6
 10
-169.26071280399989
 20
0.0000000000009095
 30
0.0
 11
-210.73928719500049
 21
0.0000000000009095
 31
0.0
  0
LINE
  8
BASIS
  6
DASHDOT
 62
     6
 10
190.0
 20
19.769060669998002
 30
0.0
 11
190.0
 21
-19.769060669001188
 31
0.0
  0
CIRCLE
  8
FIX
  6
CONTINUOUS
 62
    11
 10
190.0
 20
0.0
 30
0.0
 40
5.0
  0
CIRCLE
  8
FIX
  6
CONTINUOUS
 62
    11
 10
-190.0
 20
0.0000000000009095
 30
0.0
 40
5.0
  0
LINE
  8
SIZE
  6
CONTINUOUS
 62
    30
 10
190.0
 20
39.769060669997998
 30
0.0
 11
190.0
 21
132.25267574138249
 31
0.0
  0
LINE
  8
SIZE
  6
CONTINUOUS
 62
    30
 10
-190.0
 20
40.739287195997349
 30
0.0
 11
-190.0
 21
132.25267574138249
 31
0.0
  0
LINE
  8
SIZE
  6
CONTINUOUS
 62
    30
 10
178.0
 20
112.2526757413825
 30
0.0
 11
-178.0
 21
112.2526757413825
 31
0.0
  0
CIRCLE
  8
SIZE
  6
CONTINUOUS
 62
    30
 10
190.0
 20
112.2526757413825
 30
0.0
 40
6.0
  0
LINE
  8
SIZE
  6
CONTINUOUS
 62
    30
 10
190.0
 20
112.2526757413825
 30
0.0
 11
178.0
 21
112.2526757413825
 31
0.0
  0
CIRCLE
  8
SIZE
  6
CONTINUOUS
 62
    30
 10
-190.0
 20
112.2526757413825
 30
0.0
 40
6.0
  0
LINE
  8
SIZE
  6
CONTINUOUS
 62
    30
 10
-190.0
 20
112.2526757413825
 30
0.0
 11
-178.0
 21
112.2526757413825
 31
0.0
  0
TEXT
  8
SIZE
  6
CONTINUOUS
 62
    30
 10
-80.927999999999997
 20
137.25267574138249
 30
0.0
 40
64.0
  1
380
 50
0.0
 41
0.9
 51
0.0
  7
STANDARD
 71
     0
 72
     1
 11
0.0
 21
137.25267574138249
 31
0.0
210
0.0
220
0.0
230
1.0
  0
POINT
  8
DEFPOINTS
  6
CONTINUOUS
 62
    30
 10
190.0
 20
19.769060669998002
 30
0.0
  0
POINT
  8
DEFPOINTS
  6
CONTINUOUS
 62
    30
 10
-190.0
 20
20.739287195997349
 30
0.0
  0
POINT
  8
DEFPOINTS
  6
CONTINUOUS
 62
    30
 10
-190.0
 20
112.2526757413825
 30
0.0
  0
POINT
  8
ARRANGE
  6
CONTINUOUS
 62
     1
 10
0.0
 20
0.0
 30
0.0
 50
89.999999999999986
  0
LINE
  8
SIZE
  6
CONTINUOUS
 62
    30
 10
49.5
 20
-176.09995660799899
 30
0.0
 11
49.499999999999993
 21
-387.20202478387642
 31
0.0
  0
LINE
  8
SIZE
  6
CONTINUOUS
 62
    30
 10
-49.5
 20
-176.09995660799899
 30
0.0
 11
-49.500000000000007
 21
-387.20202478387642
 31
0.0
  0
LINE
  8
SIZE
  6
CONTINUOUS
 62
    30
 10
-37.500000000000007
 20
-367.20202478387642
 30
0.0
 11
37.499999999999993
 21
-367.20202478387642
 31
0.0
  0
LINE
  8
SIZE
  6
CONTINUOUS
 62
    30
 10
49.499999999999993
 20
-367.20202478387642
 30
0.0
 11
369.79289753137527
 21
-367.20202478387642
 31
0.0
  0
CIRCLE
  8
SIZE
  6
CONTINUOUS
 62
    30
 10
-49.500000000000007
 20
-367.20202478387642
 30
0.0
 40
6.0
  0
LINE
  8
SIZE
  6
CONTINUOUS
 62
    30
 10
-49.500000000000007
 20
-367.20202478387642
 30
0.0
 11
-37.500000000000007
 21
-367.20202478387642
 31
0.0
  0
CIRCLE
  8
SIZE
  6
CONTINUOUS
 62
    30
 10
49.499999999999993
 20
-367.20202478387642
 30
0.0
 40
6.0
  0
LINE
  8
SIZE
  6
CONTINUOUS
 62
    30
 10
49.499999999999993
 20
-367.20202478387642
 30
0.0
 11
37.499999999999993
 21
-367.20202478387642
 31
0.0
  0
TEXT
  8
SIZE
  6
CONTINUOUS
 62
    30
 10
185.3506118170896
 20
-342.20202478387642
 30
0.0
 40
64.0
  1
φ99
 50
0.0
 41
0.9
 51
0.0
  7
STANDARD
 71
     0
 72
     1
 11
273.47861181708959
 21
-342.20202478387642
 31
0.0
210
0.0
220
0.0
230
1.0
  0
POINT
  8
DEFPOINTS
  6
CONTINUOUS
 62
    30
 10
49.5
 20
-156.09995660799899
 30
0.0
  0
POINT
  8
DEFPOINTS
  6
CONTINUOUS
 62
    30
 10
-49.5
 20
-156.09995660799899
 30
0.0
  0
POINT
  8
DEFPOINTS
  6
CONTINUOUS
 62
    30
 10
-49.500000000000007
 20
-367.20202478387642
 30
0.0
  0
ARC
  8
DETAIL
  6
CONTINUOUS
 62
     5
 10
-116.5593750257885
 20
-323.19140627889101
 30
0.0
 40
347.11940909872999
 50
42.686306032116029
 51
51.894914053437802
  0
ARC
  8
DETAIL
  6
CONTINUOUS
 62
     5
 10
132.8187219732836
 20
-95.486434977453428
 30
0.0
 40
9.5780120480582873
 50
227.51694854031831
 51
52.871909275871459
  0
ARC
  8
DETAIL
  6
CONTINUOUS
 62
     5
 10
2947.0947924588831
 20
4909.9968763932293
 30
0.0
 40
5751.7151678626742
 50
239.5815779274117
 51
240.63193915875181
  0
ARC
  8
DETAIL
  6
CONTINUOUS
 62
     5
 10
-160.08405137997761
 20
269.66818981562119
 30
0.0
 40
378.79171549666808
 50
298.12381987424078
 51
301.73728950822169
  0
ARC
  8
DETAIL
  6
CONTINUOUS
 62
     5
 10
-160.08405137997761
 20
269.66818981562119
 30
0.0
 40
378.79171549666808
 50
278.0941686026726
 51
283.17333728553621
  0
ARC
  8
DETAIL
  6
CONTINUOUS
 62
     5
 10
-191.03654038888271
 20
229.75255162376291
 30
0.0
 40
344.01177696976379
 50
284.06224192729792
 51
288.46282792273809
  0
ARC
  8
DETAIL
  6
CONTINUOUS
 62
     5
 10
-106.8117007270212
 20
-104.50585036298889
 30
0.0
 40
0.8464015529016618
 50
138.94966364228719
 51
274.18043870050491
  0
ARC
  8
DETAIL
  6
CONTINUOUS
 62
     5
 10
-45.377085250364871
 20
6.3491688328249438
 30
0.0
 40
109.2554649422832
 50
211.0786155691024
 51
267.99477672464951
  0
CIRCLE
  8
ARRANGE
  6
CONTINUOUS
 62
     1
 10
0.0
 20
0.0
 30
0.0
 40
40.0
  0
LINE
  8
DETAIL
  6
CONTINUOUS
 62
     5
 10
-49.199999999999818
 20
-107.49995660799689
 30
0.0
 11
-49.199999999999818
 21
-74.899956608001958
 31
0.0
  0
ARC
  8
DETAIL
  6
CONTINUOUS
 62
     5
 10
-38.699999999999818
 20
-74.899956608001958
 30
0.0
 40
10.5
 50
90.0
 51
180.0
  0
CIRCLE
  8
DETAIL
  6
CONTINUOUS
 62
     5
 10
161.9647684286856
 20
-25.119504069744831
 30
0.0
 40
5.0
  0
TEXT
  8
ETC
  6
CONTINUOUS
 62
    61
 10
435.9868535391879
 20
304.68960444895862
 30
0.0
 40
64.0
  1
EF-30BSXC2-HC_6
 41
0.9
  0
TEXT
  8
ETC
  6
CONTINUOUS
 62
    61
 10
431.80085953918842
 20
186.73429443412721
 30
0.0
 40
64.0
  1
有圧換気扇
 41
0.9
  0
TEXT
  8
ETC
  6
CONTINUOUS
 62
    61
 10
482.50225778774347
 20
78.585521547902303
 30
0.0
 40
40.0
  1
EF-30BSXC2-HC
 50
0.0
 41
0.9
 51
0.0
  7
STANDARD
 71
     0
 11
0.0
 21
0.0
 31
0.0
210
0.0
220
0.0
230
1.0
  0
ARC
  8
OUTLINE
  6
CONTINUOUS
 62
     3
 10
-121.22185946618647
 20
-101.21339667482854
 30
0.0
 40
46.334738247475634
 50
211.44132036320696
 51
267.38695004819806
  0
ARC
  8
OUTLINE
  6
CONTINUOUS
 62
     3
 10
-93.705496386271051
 20
-82.80899842174864
 30
0.0
 40
79.422658405864951
 50
179.77669900890578
 51
212.41450072279133
  0
LINE
  8
OUTLINE
  6
CONTINUOUS
 62
     3
 10
-173.1275516080004
 20
-82.499462299003426
 30
0.0
 11
-173.1275516080004
 21
-50.0
 31
0.0
  0
LINE
  8
OUTLINE
  6
CONTINUOUS
 62
     3
 10
-173.1275516080004
 20
-50.0
 30
0.0
 11
-174.00000000000091
 21
-50.0
 31
0.0
  0
LINE
  8
OUTLINE
  6
CONTINUOUS
 62
     3
 10
-174.00000000000091
 20
-50.0
 30
0.0
 11
-174.00000000000091
 21
-49.200000000000728
 31
0.0
  0
LINE
  8
OUTLINE
  6
CONTINUOUS
 62
     3
 10
-174.00000000000091
 20
-49.200000000000728
 30
0.0
 11
-173.1275516080004
 21
-49.200000000000728
 31
0.0
  0
LINE
  8
OUTLINE
  6
CONTINUOUS
 62
     3
 10
-173.1275516080004
 20
-49.200000000000728
 30
0.0
 11
-173.1275516080004
 21
-16.999999999996358
 31
0.0
  0
LINE
  8
OUTLINE
  6
CONTINUOUS
 62
     3
 10
-173.1275516080004
 20
-16.999999999996358
 30
0.0
 11
-179.47938543400051
 21
-16.999999999996358
 31
0.0
  0
LINE
  8
OUTLINE
  6
CONTINUOUS
 62
     3
 10
-179.47938543400051
 20
-16.999999999996358
 30
0.0
 11
-179.4793854339996
 21
-12.99999999999636
 31
0.0
  0
LINE
  8
OUTLINE
  6
CONTINUOUS
 62
     3
 10
-179.4793854339996
 20
-12.99999999999636
 30
0.0
 11
-189.25632091199989
 21
-12.99999999999636
 31
0.0
  0
LINE
  8
OUTLINE
  6
CONTINUOUS
 62
     3
 10
-189.25632091199989
 20
-12.99999999999636
 30
0.0
 11
-189.25632091199989
 21
-10.0
 31
0.0
  0
LINE
  8
OUTLINE
  6
CONTINUOUS
 62
     3
 10
-189.25632091199989
 20
-10.0
 30
0.0
 11
-205.0
 21
-10.0
 31
0.0
  0
ARC
  8
OUTLINE
  6
CONTINUOUS
 62
     3
 10
-205.0
 20
-5.0000000000000009
 30
0.0
 40
4.9999999999999991
 50
180.0
 51
270.0
  0
LINE
  8
OUTLINE
  6
CONTINUOUS
 62
     3
 10
-210.0
 20
-5.0
 30
0.0
 11
-210.0
 21
0.0
 31
0.0
  0
LINE
  8
OUTLINE
  6
CONTINUOUS
 62
     3
 10
-210.0
 20
0.0
 30
0.0
 11
210.0
 21
0.0
 31
0.0
  0
LINE
  8
OUTLINE
  6
CONTINUOUS
 62
     3
 10
210.0
 20
0.0
 30
0.0
 11
210.0
 21
-5.0
 31
0.0
  0
ARC
  8
OUTLINE
  6
CONTINUOUS
 62
     3
 10
205.00000000000705
 20
-5.0000000000029035
 30
0.0
 40
4.999999999992939
 50
308.31613447361951
 51
0.0
  0
LINE
  8
OUTLINE
  6
CONTINUOUS
 62
     3
 10
208.09999999999951
 20
-8.9230090491864757
 30
0.0
 11
208.09999999999951
 21
-44.799999999999272
 31
0.0
  0
LINE
  8
OUTLINE
  6
CONTINUOUS
 62
     3
 10
208.09999999999951
 20
-44.799999999999272
 30
0.0
 11
173.0450521249995
 21
-44.799999999999272
 31
0.0
  0
LINE
  8
OUTLINE
  6
CONTINUOUS
 62
     3
 10
173.0450521249995
 20
-44.799999999999272
 30
0.0
 11
173.0450521249995
 21
-49.200000000000728
 31
0.0
  0
LINE
  8
OUTLINE
  6
CONTINUOUS
 62
     3
 10
173.0450521249995
 20
-49.200000000000728
 30
0.0
 11
173.99999999999909
 21
-49.200000000000728
 31
0.0
  0
LINE
  8
OUTLINE
  6
CONTINUOUS
 62
     3
 10
173.99999999999909
 20
-49.200000000000728
 30
0.0
 11
173.99999999999909
 21
-50.0
 31
0.0
  0
LINE
  8
OUTLINE
  6
CONTINUOUS
 62
     3
 10
173.99999999999909
 20
-50.0
 30
0.0
 11
173.0450521249995
 21
-50.0
 31
0.0
  0
LINE
  8
OUTLINE
  6
CONTINUOUS
 62
     3
 10
173.0450521249995
 20
-50.0
 30
0.0
 11
173.0450521249995
 21
-82.499462299011611
 31
0.0
  0
ARC
  8
OUTLINE
  6
CONTINUOUS
 62
     3
 10
95.468322788941521
 20
-83.341470850558792
 30
0.0
 40
77.581298731594316
 50
327.18694313949436
 51
0.6218571264010393
  0
ARC
  8
OUTLINE
  6
CONTINUOUS
 62
     3
 10
121.31396096121242
 20
-101.51617926270725
 30
0.0
 40
46.028137966856754
 50
272.5157044890791
 51
328.76687302308756
  0
LINE
  8
OUTLINE
  6
CONTINUOUS
 62
     3
 10
123.3342841419999
 20
-147.49995660799689
 30
0.0
 11
74.258000843999071
 21
-147.49995660799689
 31
0.0
  0
LINE
  8
OUTLINE
  6
CONTINUOUS
 62
     3
 10
74.258000843999071
 20
-147.49995660799689
 30
0.0
 11
49.499999999999091
 21
-147.49995660799689
 31
0.0
  0
LINE
  8
OUTLINE
  6
CONTINUOUS
 62
     3
 10
49.499999999999091
 20
-147.49995660799689
 30
0.0
 11
49.499999999999091
 21
-156.09995660799899
 31
0.0
  0
ARC
  8
OUTLINE
  6
CONTINUOUS
 62
     3
 10
41.999999999999041
 20
-156.09995660799893
 30
0.0
 40
7.500000000000048
 50
270.0
 51
0.0
  0
LINE
  8
OUTLINE
  6
CONTINUOUS
 62
     3
 10
41.999999999999091
 20
-163.59995660799899
 30
0.0
 11
-42.000000000000909
 21
-163.59995660799899
 31
0.0
  0
ARC
  8
OUTLINE
  6
CONTINUOUS
 62
     3
 10
-42.00000000000086
 20
-156.09995660799893
 30
0.0
 40
7.500000000000048
 50
180.0
 51
270.0
  0
LINE
  8
OUTLINE
  6
CONTINUOUS
 62
     3
 10
-49.500000000000909
 20
-156.09995660799899
 30
0.0
 11
-49.500000000000909
 21
-147.49995660799689
 31
0.0
  0
LINE
  8
OUTLINE
  6
CONTINUOUS
 62
     3
 10
-49.500000000000909
 20
-147.49995660799689
 30
0.0
 11
-123.3342841430003
 21
-147.4999566079978
 31
0.0
  0
LINE
  8
DETAIL
  6
CONTINUOUS
 62
     5
 10
208.09999999999951
 20
-44.799999999998818
 30
0.0
 11
208.09999999999951
 21
-8.9230090491864757
 31
0.0
  0
LINE
  8
DETAIL
  6
CONTINUOUS
 62
     5
 10
208.09999999999951
 20
-44.799999999999272
 30
0.0
 11
173.0450521249995
 21
-44.799999999999272
 31
0.0
  0
TEXT
  8
NOTE
  6
CONTINUOUS
 62
     4
 10
318.90086834354503
 20
-229.58897001880001
 30
0.0
 40
64.0
  1
EL
 50
0.0
 41
0.9
 51
0.0
  7
STANDARD
 71
     0
 11
0.0
 21
0.0
 31
0.0
210
0.0
220
0.0
230
1.0
  0
LINE
  8
NOTE
  6
CONTINUOUS
 62
     4
 10
318.81086834354483
 20
-242.38897001880011
 30
0.0
 11
403.92943977211633
 21
-242.38897001880011
 31
0.0
  0
LINE
  8
NOTE
  6
CONTINUOUS
 62
     4
 10
171.15130053634306
 20
-54.788092005219255
 30
0.0
 11
161.9647684286856
 21
-25.119504069744831
 31
0.0
  0
LINE
  8
NOTE
  6
CONTINUOUS
 62
     4
 10
161.9647684286856
 20
-25.119504069744831
 30
0.0
 11
184.75486437155308
 21
-46.219954519081099
 31
0.0
  0
LINE
  8
NOTE
  6
CONTINUOUS
 62
     4
 10
161.9647684286856
 20
-25.119504069744831
 30
0.0
 11
193.94139647921054
 21
-75.88854245455552
 31
0.0
  0
LINE
  8
NOTE
  6
CONTINUOUS
 62
     4
 10
193.94139647921051
 20
-75.888542454555548
 30
0.0
 11
298.81086834354483
 21
-242.38897001880011
 31
0.0
  0
LINE
  8
NOTE
  6
CONTINUOUS
 62
     4
 10
298.81086834354483
 20
-242.38897001880011
 30
0.0
 11
318.81086834354483
 21
-242.38897001880011
 31
0.0
  0
TEXT
  8
NOTE
  6
CONTINUOUS
 62
     4
 10
289.97737579598919
 20
-124.20891881230909
 30
0.0
 40
64.0
  1
4-10×10
 50
0.0
 41
0.9
 51
0.0
  7
STANDARD
 71
     0
 11
0.0
 21
0.0
 31
0.0
210
0.0
220
0.0
230
1.0
  0
LINE
  8
NOTE
  6
CONTINUOUS
 62
     4
 10
289.8873757959891
 20
-137.0089188123093
 30
0.0
 11
668.49166151027475
 21
-137.0089188123093
 31
0.0
  0
LINE
  8
NOTE
  6
CONTINUOUS
 62
     4
 10
198.16701484861369
 20
-29.96526907458906
 30
0.0
 11
190.0
 21
0.0
 31
0.0
  0
LINE
  8
NOTE
  6
CONTINUOUS
 62
     4
 10
190.0
 20
0.0
 30
0.0
 11
212.05550982185881
 21
-21.867143589135949
 31
0.0
  0
LINE
  8
NOTE
  6
CONTINUOUS
 62
     4
 10
190.0
 20
0.0
 30
0.0
 11
220.2225246704725
 21
-51.832412663725009
 31
0.0
  0
LINE
  8
NOTE
  6
CONTINUOUS
 62
     4
 10
220.2225246704725
 20
-51.832412663724988
 30
0.0
 11
269.8873757959891
 21
-137.0089188123093
 31
0.0
  0
LINE
  8
NOTE
  6
CONTINUOUS
 62
     4
 10
269.8873757959891
 20
-137.0089188123093
 30
0.0
 11
289.8873757959891
 21
-137.0089188123093
 31
0.0
  0
ENDSEC
  0
EOF
