  0
SECTION
  2
HEADER
  9
$ACADVER
  1
AC1009
  9
$DWGCODEPAGE
  3
dos932
  9
$INSBASE
 10
0.0
 20
0.0
 30
0.0
  9
$EXTMIN
 10
-539.29136517608094
 20
-391.57103315411592
 30
-0.000000000000013
  9
$EXTMAX
 10
1238.1042598608219
 20
504.36402159319732
 30
0.0000000000000023
  9
$LIMMIN
 10
-2970.0
 20
-2100.0
  9
$LIMMAX
 10
2970.0
 20
2100.0
  9
$ORTHOMODE
 70
     1
  9
$REGENMODE
 70
     1
  9
$FILLMODE
 70
     1
  9
$QTEXTMODE
 70
     0
  9
$MIRRTEXT
 70
     0
  9
$LTSCALE
 40
20.0
  9
$ATTMODE
 70
     1
  9
$TEXTSIZE
 40
64.0
  9
$TRACEWID
 40
0.05
  9
$TEXTSTYLE
  7
STANDARD
  9
$CLAYER
  8
SIZE
  9
$CELTYPE
  6
CONTINUOUS
  9
$CECOLOR
 62
     7
  9
$DIMSCALE
 40
1.0
  9
$DIMASZ
 40
12.0
  9
$DIMEXO
 40
20.0
  9
$DIMDLI
 40
200.0
  9
$DIMRND
 40
0.0
  9
$DIMDLE
 40
0.0
  9
$DIMEXE
 40
20.0
  9
$DIMTP
 40
0.0
  9
$DIMTM
 40
0.0
  9
$DIMTXT
 40
64.0
  9
$DIMCEN
 40
0.09
  9
$DIMTSZ
 40
0.0
  9
$DIMTOL
 70
     0
  9
$DIMLIM
 70
     0
  9
$DIMTIH
 70
     0
  9
$DIMTOH
 70
     0
  9
$DIMSE1
 70
     0
  9
$DIMSE2
 70
     0
  9
$DIMTAD
 70
     1
  9
$DIMZIN
 70
     8
  9
$DIMBLK
  1

  9
$DIMASO
 70
     1
  9
$DIMSHO
 70
     0
  9
$DIMPOST
  1

  9
$DIMAPOST
  1

  9
$DIMALT
 70
     0
  9
$DIMALTD
 70
     2
  9
$DIMALTF
 40
25.399999999999999
  9
$DIMLFAC
 40
1.0
  9
$DIMTOFL
 70
     1
  9
$DIMTVP
 40
0.0
  9
$DIMTIX
 70
     1
  9
$DIMSOXD
 70
     0
  9
$DIMSAH
 70
     0
  9
$DIMBLK1
  1

  9
$DIMBLK2
  1

  9
$DIMSTYLE
  2
STANDARD
  9
$DIMCLRD
 70
     7
  9
$DIMCLRE
 70
     7
  9
$DIMCLRT
 70
     7
  9
$DIMTFAC
 40
1.0
  9
$DIMGAP
 40
25.0
  9
$LUNITS
 70
     2
  9
$LUPREC
 70
     4
  9
$SKETCHINC
 40
0.1
  9
$FILLETRAD
 40
3.0
  9
$AUNITS
 70
     1
  9
$AUPREC
 70
     3
  9
$MENU
  1
ACAD
  9
$ELEVATION
 40
0.0
  9
$PELEVATION
 40
0.0
  9
$THICKNESS
 40
0.0
  9
$LIMCHECK
 70
     0
  9
$CHAMFERA
 40
0.0
  9
$CHAMFERB
 40
0.0
  9
$SKPOLY
 70
     0
  9
$TDCREATE
 40
2453019.62301037
  9
$TDUPDATE
 40
2459362.655353681
  9
$TDINDWG
 40
1.8528516319
  9
$TDUSRTIMER
 40
1.8528516319
  9
$USRTIMER
 70
     1
  9
$ANGBASE
 50
0.0
  9
$ANGDIR
 70
     0
  9
$PDMODE
 70
     3
  9
$PDSIZE
 40
-2.0
  9
$PLINEWID
 40
0.0
  9
$SPLFRAME
 70
     0
  9
$SPLINETYPE
 70
     6
  9
$SPLINESEGS
 70
     8
  9
$SURFTAB1
 70
     6
  9
$SURFTAB2
 70
     6
  9
$SURFTYPE
 70
     6
  9
$SURFU
 70
     6
  9
$SURFV
 70
     6
  9
$UCSNAME
  2

  9
$UCSORG
 10
0.0
 20
0.0
 30
0.0
  9
$UCSXDIR
 10
1.0
 20
0.0
 30
0.0
  9
$UCSYDIR
 10
0.0
 20
1.0
 30
0.0
  9
$PUCSNAME
  2

  9
$PUCSORG
 10
0.0
 20
0.0
 30
0.0
  9
$PUCSXDIR
 10
1.0
 20
0.0
 30
0.0
  9
$PUCSYDIR
 10
0.0
 20
1.0
 30
0.0
  9
$USERI1
 70
     0
  9
$USERI2
 70
     0
  9
$USERI3
 70
     0
  9
$USERI4
 70
     0
  9
$USERI5
 70
     0
  9
$USERR1
 40
20.0
  9
$USERR2
 40
0.0
  9
$USERR3
 40
0.0
  9
$USERR4
 40
0.0
  9
$USERR5
 40
0.0
  9
$WORLDVIEW
 70
     1
  9
$SHADEDGE
 70
     3
  9
$SHADEDIF
 70
    70
  9
$TILEMODE
 70
     1
  9
$MAXACTVP
 70
    48
  9
$PINSBASE
 10
0.0
 20
0.0
 30
0.0
  9
$PLIMCHECK
 70
     0
  9
$PEXTMIN
 10
-100000000000000000000.0
 20
-100000000000000000000.0
 30
-100000000000000000000.0
  9
$PEXTMAX
 10
100000000000000000000.0
 20
100000000000000000000.0
 30
100000000000000000000.0
  9
$PLIMMIN
 10
0.0
 20
0.0
  9
$PLIMMAX
 10
12.0
 20
9.0
  9
$UNITMODE
 70
     0
  9
$VISRETAIN
 70
     0
  9
$PLINEGEN
 70
     0
  9
$PSLTSCALE
 70
     0
  9
$TREEDEPTH
 70
  3020
  9
$ATTDIA
 70
     0
  9
$ATTREQ
 70
     1
  9
$BLIPMODE
 70
     1
  9
$COORDS
 70
     1
  9
$DRAGMODE
 70
     2
  9
$OSMODE
 70
     0
  9
$HANDLING
 70
     0
  9
$HANDSEED
  5
F856
  0
ENDSEC
  0
SECTION
  2
TABLES
  0
TABLE
  2
LTYPE
 70
     2
  0
LTYPE
  2
CONTINUOUS
 70
     0
  3
実線
 72
    65
 73
     0
 40
0.0
  0
LTYPE
  2
DASHDOT
 70
     0
  3
____ _ ____ _ ____ _ ____ _ ____ _ ____ _ ____
 72
    65
 73
     4
 40
5.5
 49
4.0
 49
-0.6
 49
0.3
 49
-0.6
  0
ENDTAB
  0
TABLE
  2
LAYER
 70
    12
  0
LAYER
  2
0
 70
     0
 62
     7
  6
CONTINUOUS
  0
LAYER
  2
BASIS
 70
     0
 62
     6
  6
DASHDOT
  0
LAYER
  2
OUTLINE
 70
     0
 62
     3
  6
CONTINUOUS
  0
LAYER
  2
DETAIL
 70
     0
 62
     5
  6
CONTINUOUS
  0
LAYER
  2
SIZE
 70
     0
 62
    30
  6
CONTINUOUS
  0
LAYER
  2
ARRANGE
 70
     0
 62
     1
  6
CONTINUOUS
  0
LAYER
  2
DEFPOINTS
 70
     0
 62
     7
  6
CONTINUOUS
  0
LAYER
  2
ETC
 70
     0
 62
    61
  6
CONTINUOUS
  0
LAYER
  2
FIX
 70
     0
 62
    11
  6
CONTINUOUS
  0
LAYER
  2
NOTE
 70
     0
 62
     4
  6
CONTINUOUS
  0
LAYER
  2
SERVICESPACE
 70
    64
 62
     2
  6
DASHDOT
  0
LAYER
  2
SYMBOLLINE
 70
    64
 62
    15
  6
CONTINUOUS
  0
ENDTAB
  0
TABLE
  2
STYLE
 70
     1
  0
STYLE
  2
STANDARD
 70
     0
 40
64.0
 41
0.9
 50
0.0
 71
     0
 42
64.0
  3
SIMPLEX.shx
  4
BIGFONT.shx
  0
ENDTAB
  0
TABLE
  2
APPID
 70
    20
  0
APPID
  2
ACAD
 70
     0
  0
APPID
  2
AUTOCAD_POSTSCRIPT_FIGURE
 70
     0
  0
APPID
  2
ACAD_EXEMPT_FROM_CAD_STANDARDS
 70
     0
  0
APPID
  2
ACAD_PSEXT
 70
     0
  0
APPID
  2
ACAUTHENVIRON
 70
     0
  0
APPID
  2
GENIUS_GENOENT_13
 70
     0
  0
APPID
  2
GENIUS_GENCFG_13
 70
     0
  0
APPID
  2
GENIUS_GENCFG0_13
 70
     0
  0
APPID
  2
GENIUS_GENCFG1_13
 70
     0
  0
APPID
  2
GENIUS_GENCFG2_13
 70
     0
  0
APPID
  2
GENIUS_GENCFG3_13
 70
     0
  0
APPID
  2
GENIUS_GENCFG4_13
 70
     0
  0
APPID
  2
GENIUS_GEVCFG0_13
 70
     0
  0
APPID
  2
CONTENTBLOCKICON
 70
     0
  0
APPID
  2
CONTENTBLOCKDESCRIPTION
 70
     0
  0
APPID
  2
ACAD_NAV_VCDISPLAY
 70
     0
  0
APPID
  2
ACAD_MLEADERVER
 70
     0
  0
APPID
  2
ACDBDYNAMICBLOCKTRUENAME
 70
     0
  0
APPID
  2
ACDBDYNAMICBLOCKGUID
 70
     0
  0
APPID
  2
ACAD_DSTYLE_DIMRADIAL_EXTENSION
 70
     0
  0
ENDTAB
  0
TABLE
  2
DIMSTYLE
 70
     1
  0
DIMSTYLE
  2
STANDARD
 70
     0
  3

  4

  5
_ORIGIN
  6

  7

 40
1.0
 41
12.0
 42
20.0
 43
200.0
 44
20.0
 45
0.0
 46
0.0
 47
0.0
 48
0.0
140
64.0
141
0.09
142
0.0
143
25.399999999999999
144
1.0
145
0.0
146
1.0
147
25.0
 71
     0
 72
     0
 73
     0
 74
     0
 75
     0
 76
     0
 77
     1
 78
     8
170
     0
171
     2
172
     1
173
     0
174
     1
175
     0
176
     7
177
     7
178
     7
  0
ENDTAB
  0
TABLE
  2
VIEW
 70
     1
  0
VIEW
  2
ALL
 70
     0
 40
4282.6198079999986
 10
0.0
 20
41.309904000000003
 41
5940.0
 11
0.0
 21
0.0
 31
1.0
 12
0.0
 22
0.0
 32
0.0
 42
50.0
 43
0.0
 44
0.0
 50
0.0
 71
     0
  0
ENDTAB
  0
TABLE
  2
UCS
 70
     0
  0
ENDTAB
  0
TABLE
  2
VPORT
 70
     1
  0
VPORT
  2
*ACTIVE
 70
     0
 10
0.0
 20
0.0
 11
1.0
 21
1.0
 12
349.4064473423706
 22
56.396494219540727
 13
0.0
 23
0.0
 14
1.0
 24
1.0
 15
0.0
 25
0.0
 16
0.0
 26
0.0
 36
1.0
 17
0.0
 27
0.0
 37
0.0
 40
640.6695739117938
 41
2.2504409171075839
 42
50.0
 43
0.0
 44
0.0
 50
0.0
 51
0.0
 71
     0
 72
  1000
 73
     1
 74
     3
 75
     0
 76
     0
 77
     0
 78
     0
  0
ENDTAB
  0
ENDSEC
  0
SECTION
  2
BLOCKS
  0
BLOCK
  8
0
  2
_ORIGIN
 70
     0
 10
0.0
 20
0.0
 30
0.0
  3
_ORIGIN
  1
_ORIGIN
  0
CIRCLE
  8
SIZE
  6
CONTINUOUS
 62
    30
 10
0.0
 20
0.0
 30
0.0
 40
0.5
  0
LINE
  8
SIZE
  6
CONTINUOUS
 62
    30
 10
0.0
 20
0.0
 30
0.0
 11
-1.0
 21
0.0
 31
0.0
  0
ENDBLK
  8
0
  0
ENDSEC
  0
SECTION
  2
ENTITIES
  0
LINE
  8
DETAIL
  6
CONTINUOUS
 62
     5
 10
118.1115406439967
 20
-156.18072863497039
 30
0.0
 11
118.1115406439967
 21
-265.01104462700027
 31
0.0
  0
LINE
  8
DETAIL
  6
CONTINUOUS
 62
     5
 10
63.780557581998437
 20
-93.542982183000277
 30
0.0
 11
66.03031421599735
 21
-96.224137734000237
 31
0.0
  0
LINE
  8
DETAIL
  6
CONTINUOUS
 62
     5
 10
94.320434943998407
 20
-127.82759294500021
 30
0.0
 11
67.100384848999965
 21
-95.324820443000249
 31
0.0
  0
LINE
  8
DETAIL
  6
CONTINUOUS
 62
     5
 10
64.854234400998394
 20
-92.642749074000278
 30
0.0
 11
62.355584229997483
 21
-89.659174180000264
 31
0.0
  0
LINE
  8
DETAIL
  6
CONTINUOUS
 62
     5
 10
128.1115406439967
 20
-168.09826456100021
 30
0.0
 11
128.1115406439967
 21
-265.01104462700027
 31
0.0
  0
LINE
  8
DETAIL
  6
CONTINUOUS
 62
     5
 10
118.1115406439967
 20
-265.01104462700027
 30
0.0
 11
128.1115406439967
 21
-265.01104462700027
 31
0.0
  0
LINE
  8
DETAIL
  6
CONTINUOUS
 62
     5
 10
71.315568676996918
 20
-87.224335133000238
 30
0.0
 11
33.276842983458302
 21
-41.891547131304208
 31
0.0
  0
LINE
  8
DETAIL
  6
CONTINUOUS
 62
     5
 10
37.637197818003187
 20
-42.420844189000263
 30
0.0
 11
73.612397433000297
 21
-85.294417575000296
 31
0.0
  0
LINE
  8
DETAIL
  6
CONTINUOUS
 62
     5
 10
74.633959578997747
 20
-84.435896571000285
 30
0.0
 11
76.883716213000298
 21
-87.117052122000302
 31
0.0
  0
LINE
  8
DETAIL
  6
CONTINUOUS
 62
     5
 10
100.4487904889975
 20
-122.68529206800029
 30
0.0
 11
73.229572517000634
 21
-90.18351318200024
 31
0.0
  0
LINE
  8
DETAIL
  6
CONTINUOUS
 62
     5
 10
70.98121931300193
 20
-87.498811559000274
 30
0.0
 11
68.818593432999478
 21
-84.916474761000245
 31
0.0
  0
LINE
  8
DETAIL
  6
CONTINUOUS
 62
     5
 10
-200.0
 20
-210.00000000000031
 30
0.0
 11
118.1115406439967
 21
-210.00000000000031
 31
0.0
  0
LINE
  8
DETAIL
  6
CONTINUOUS
 62
     5
 10
128.11986641999471
 20
-210.00000000000031
 30
0.0
 11
200.0
 21
-210.00000000000031
 31
0.0
  0
LINE
  8
DETAIL
  6
CONTINUOUS
 62
     5
 10
63.780557581998437
 20
-93.542982183000277
 30
0.0
 11
74.633959578997747
 21
-84.435896571000285
 31
0.0
  0
LINE
  8
DETAIL
  6
CONTINUOUS
 62
     5
 10
66.03031421599735
 20
-96.224137734000237
 30
0.0
 11
76.883716213000298
 21
-87.117052122000302
 31
0.0
  0
LINE
  8
DETAIL
  6
CONTINUOUS
 62
     5
 10
157.69802116400021
 20
-86.846601453000289
 30
0.0
 11
150.53560447999919
 21
-86.846601453000289
 31
0.0
  0
LINE
  8
DETAIL
  6
CONTINUOUS
 62
     5
 10
157.69972497799969
 20
-76.846601453000289
 30
0.0
 11
155.95369611799831
 21
-76.846601453000289
 31
0.0
  0
LINE
  8
DETAIL
  6
CONTINUOUS
 62
     5
 10
-173.44974746799929
 20
188.55025253199969
 30
0.0
 11
-188.5502525310003
 21
173.4497474689997
 31
0.0
  0
LINE
  8
DETAIL
  6
CONTINUOUS
 62
     5
 10
-188.5502525310003
 20
-173.44974746800031
 30
0.0
 11
-173.44974746799929
 21
-188.5502525310003
 31
0.0
  0
LINE
  8
DETAIL
  6
CONTINUOUS
 62
     5
 10
-164.01090061500139
 20
155.68978666399971
 30
0.0
 11
-143.32770065099979
 21
173.04505212499981
 31
0.0
  0
LINE
  8
DETAIL
  6
CONTINUOUS
 62
     5
 10
-124.8443149609993
 20
-188.55445424000021
 30
0.0
 11
-145.52751492599779
 21
-171.1991887790002
 31
0.0
  0
LINE
  8
DETAIL
  6
CONTINUOUS
 62
     5
 10
-210.0
 20
199.9999999999998
 30
0.0
 11
-210.0
 21
-200.00000000000031
 31
0.0
  0
LINE
  8
DETAIL
  6
CONTINUOUS
 62
     5
 10
-200.5
 20
-192.50000000000031
 30
0.0
 11
-200.5
 21
-178.3994949360002
 31
0.0
  0
LINE
  8
DETAIL
  6
CONTINUOUS
 62
     5
 10
-200.5
 20
178.39949493699979
 30
0.0
 11
-200.5
 21
192.4999999999998
 31
0.0
  0
LINE
  8
DETAIL
  6
CONTINUOUS
 62
     5
 10
-153.49580440800131
 20
155.61374439299971
 30
0.0
 11
-156.3637443919979
 21
150.61374439299971
 31
0.0
  0
LINE
  8
DETAIL
  6
CONTINUOUS
 62
     5
 10
-147.73168437600179
 20
145.61374439299971
 30
0.0
 11
-144.86374439200151
 21
150.61374439299971
 31
0.0
  0
LINE
  8
DETAIL
  6
CONTINUOUS
 62
     5
 10
-129.55614373800199
 20
151.96557821799971
 30
0.0
 11
-147.9412103730028
 21
136.5386755859997
 31
0.0
  0
LINE
  8
DETAIL
  6
CONTINUOUS
 62
     5
 10
192.5
 20
-200.50000000000031
 30
0.0
 11
178.3994949370026
 21
-200.50000000000031
 31
0.0
  0
LINE
  8
DETAIL
  6
CONTINUOUS
 62
     5
 10
-178.39949493599849
 20
-200.50000000000031
 30
0.0
 11
-192.5
 21
-200.50000000000031
 31
0.0
  0
LINE
  8
DETAIL
  6
CONTINUOUS
 62
     5
 10
-127.15969135400159
 20
-153.9764405300003
 30
0.0
 11
-108.7746247190007
 21
-169.40334316200031
 31
0.0
  0
LINE
  8
DETAIL
  6
CONTINUOUS
 62
     5
 10
-127.92178094200059
 20
-174.47938543300029
 30
0.0
 11
-125.05384095900079
 21
-179.47938543300029
 31
0.0
  0
LINE
  8
DETAIL
  6
CONTINUOUS
 62
     5
 10
-125.05384095900079
 20
-179.47938543300029
 30
0.0
 11
-119.2897209260009
 21
-179.47938543300029
 31
0.0
  0
LINE
  8
DETAIL
  6
CONTINUOUS
 62
     5
 10
-116.42178094200059
 20
-174.47938543300029
 30
0.0
 11
-119.2897209260009
 21
-169.47938543300029
 31
0.0
  0
LINE
  8
DETAIL
  6
CONTINUOUS
 62
     5
 10
-119.2897209260009
 20
-169.47938543300029
 30
0.0
 11
-125.05384095900079
 21
-169.47938543300029
 31
0.0
  0
LINE
  8
DETAIL
  6
CONTINUOUS
 62
     5
 10
147.73168437599821
 20
-155.61374439200031
 30
0.0
 11
153.49580440900169
 21
-155.61374439200031
 31
0.0
  0
LINE
  8
DETAIL
  6
CONTINUOUS
 62
     5
 10
153.49580440900169
 20
-145.61374439200031
 30
0.0
 11
147.73168437599821
 21
-145.61374439200031
 31
0.0
  0
LINE
  8
DETAIL
  6
CONTINUOUS
 62
     5
 10
162.0
 20
-90.81749773200022
 30
0.0
 11
161.08058480999901
 21
-90.897936139000251
 31
0.0
  0
LINE
  8
DETAIL
  6
CONTINUOUS
 62
     5
 10
203.2000000000007
 20
-111.4253981630002
 30
0.0
 11
179.5
 21
-111.4253981630002
 31
0.0
  0
LINE
  8
DETAIL
  6
CONTINUOUS
 62
     5
 10
181.80000000000291
 20
-110.7000000000003
 30
0.0
 11
189.7999999999993
 21
-110.7000000000003
 31
0.0
  0
LINE
  8
DETAIL
  6
CONTINUOUS
 62
     5
 10
164.30000000000291
 20
-101.8000000000003
 30
0.0
 11
174.5
 21
-101.8000000000003
 31
0.0
  0
LINE
  8
DETAIL
  6
CONTINUOUS
 62
     5
 10
164.30000000000291
 20
-101.0000000000003
 30
0.0
 11
174.5
 21
-101.0000000000003
 31
0.0
  0
LINE
  8
DETAIL
  6
CONTINUOUS
 62
     5
 10
163.7999999999993
 20
-100.5000000000002
 30
0.0
 11
206.80000000000291
 21
-100.5000000000002
 31
0.0
  0
LINE
  8
DETAIL
  6
CONTINUOUS
 62
     5
 10
205.99999999999639
 20
-99.700000000000273
 30
0.0
 11
206.80000000000291
 21
-99.700000000000273
 31
0.0
  0
LINE
  8
DETAIL
  6
CONTINUOUS
 62
     5
 10
163.0
 20
-99.200000000000273
 30
0.0
 11
164.0
 21
-99.200000000000273
 31
0.0
  0
LINE
  8
DETAIL
  6
CONTINUOUS
 62
     5
 10
205.99999999999639
 20
-99.200000000000273
 30
0.0
 11
207.2999999999993
 21
-99.200000000000273
 31
0.0
  0
LINE
  8
DETAIL
  6
CONTINUOUS
 62
     5
 10
-57.411245015002351
 20
70.753643242999715
 30
0.0
 11
-57.460404543002369
 21
70.71239350199977
 31
0.0
  0
LINE
  8
DETAIL
  6
CONTINUOUS
 62
     5
 10
-59.758537871999579
 20
68.784030672999734
 30
0.0
 11
-62.022426088999048
 21
66.884402904999774
 31
0.0
  0
LINE
  8
DETAIL
  6
CONTINUOUS
 62
     5
 10
-57.411245015002351
 20
70.753643242999715
 30
0.0
 11
-55.113111686001503
 21
72.682006071999751
 31
0.0
  0
LINE
  8
DETAIL
  6
CONTINUOUS
 62
     5
 10
-51.364158471998962
 20
74.125928152999734
 30
0.0
 11
-54.121918467000803
 21
71.811892757999772
 31
0.0
  0
LINE
  8
DETAIL
  6
CONTINUOUS
 62
     5
 10
-58.920553541000118
 20
67.78535983699976
 30
0.0
 11
-62.750775757001968
 21
64.571421787999782
 31
0.0
  0
LINE
  8
DETAIL
  6
CONTINUOUS
 62
     5
 10
-61.465200538001227
 20
63.039332901999728
 30
0.0
 11
-63.714174339998863
 21
61.152219813999693
 31
0.0
  0
LINE
  8
DETAIL
  6
CONTINUOUS
 62
     5
 10
-55.706615492999838
 20
63.955137620999722
 30
0.0
 11
-59.536837708808889
 21
60.741199572866208
 31
0.0
  0
LINE
  8
DETAIL
  6
CONTINUOUS
 62
     5
 10
-51.061189306998131
 20
67.853113019999796
 30
0.0
 11
-47.997011535000638
 21
70.424263458999803
 31
0.0
  0
LINE
  8
DETAIL
  6
CONTINUOUS
 62
     5
 10
-57.608474879998539
 20
58.443066242999691
 30
0.0
 11
-59.857448682003451
 21
56.555953154999827
 31
0.0
  0
LINE
  8
DETAIL
  6
CONTINUOUS
 62
     5
 10
-44.936282374997973
 20
66.465483721999703
 30
0.0
 11
-47.694042369999814
 21
64.151448326999741
 31
0.0
  0
LINE
  8
DETAIL
  6
CONTINUOUS
 62
     5
 10
-56.322899660000992
 20
56.910977356999688
 30
0.0
 11
-52.492677444999572
 21
60.124915405999673
 31
0.0
  0
LINE
  8
DETAIL
  6
CONTINUOUS
 62
     5
 10
207.2999999999993
 20
-93.500000000000284
 30
0.0
 11
208.09999999999849
 21
-93.500000000000284
 31
0.0
  0
LINE
  8
DETAIL
  6
CONTINUOUS
 62
     5
 10
159.19999999999709
 20
-87.550000000000296
 30
0.0
 11
158.0
 21
-87.550000000000296
 31
0.0
  0
LINE
  8
DETAIL
  6
CONTINUOUS
 62
     5
 10
162.0
 20
-97.782502267000211
 30
0.0
 11
161.08058480999901
 21
-97.702063861000283
 31
0.0
  0
LINE
  8
DETAIL
  6
CONTINUOUS
 62
     5
 10
-57.362085487999138
 20
-70.794892984000285
 30
0.0
 11
-55.113111686001503
 21
-72.682006072000263
 31
0.0
  0
LINE
  8
DETAIL
  6
CONTINUOUS
 62
     5
 10
-59.660218816999993
 20
-68.866530155000191
 30
0.0
 11
-62.022426088999048
 21
-66.884402904000297
 31
0.0
  0
LINE
  8
DETAIL
  6
CONTINUOUS
 62
     5
 10
-51.364158471998962
 20
-74.125928152000256
 30
0.0
 11
-54.121918467000803
 21
-71.811892757000237
 31
0.0
  0
LINE
  8
DETAIL
  6
CONTINUOUS
 62
     5
 10
-58.822234487000969
 20
-67.867859319000274
 30
0.0
 11
-62.652456702002382
 21
-64.653921270000296
 31
0.0
  0
LINE
  8
DETAIL
  6
CONTINUOUS
 62
     5
 10
-61.366881483001627
 20
-63.121832384000243
 30
0.0
 11
-63.714174339998863
 21
-61.152219813000222
 31
0.0
  0
LINE
  8
DETAIL
  6
CONTINUOUS
 62
     5
 10
-55.608296438000252
 20
-64.037637103000236
 30
0.0
 11
-59.438518653805659
 21
-60.823699054863937
 31
0.0
  0
LINE
  8
DETAIL
  6
CONTINUOUS
 62
     5
 10
-57.510155824998947
 20
-58.525565725000263
 30
0.0
 11
-59.857448682003451
 21
-56.555953155000282
 31
0.0
  0
LINE
  8
DETAIL
  6
CONTINUOUS
 62
     5
 10
-44.936282374997973
 20
-66.465483721000169
 30
0.0
 11
-47.694042369999814
 21
-64.151448326000263
 31
0.0
  0
LINE
  8
DETAIL
  6
CONTINUOUS
 62
     5
 10
-52.394358389999979
 20
-60.207414887000247
 30
0.0
 11
-56.224580605001393
 21
-56.993476839000273
 31
0.0
  0
LINE
  8
DETAIL
  6
CONTINUOUS
 62
     5
 10
-41.722344326000893
 20
62.635261505999722
 30
0.0
 11
-44.480104321999526
 21
60.32122611099976
 31
0.0
  0
LINE
  8
DETAIL
  6
CONTINUOUS
 62
     5
 10
-49.278739396002493
 20
56.294693189999748
 30
0.0
 11
-53.108961612000712
 21
53.080755141999823
 31
0.0
  0
LINE
  8
DETAIL
  6
CONTINUOUS
 62
     5
 10
-51.82338639199952
 20
51.548666254999773
 30
0.0
 11
-54.072360194000787
 21
49.661553166999738
 31
0.0
  0
LINE
  8
DETAIL
  6
CONTINUOUS
 62
     5
 10
-46.064801347998582
 20
52.46447097399971
 30
0.0
 11
-49.895023563105497
 21
49.250532925532298
 31
0.0
  0
LINE
  8
DETAIL
  6
CONTINUOUS
 62
     5
 10
-41.419375162000513
 20
56.362446373999767
 30
0.0
 11
-38.355197389002569
 21
58.933596811999791
 31
0.0
  0
LINE
  8
DETAIL
  6
CONTINUOUS
 62
     5
 10
-47.966660734004108
 20
46.952399596999733
 30
0.0
 11
-50.215634535998113
 21
45.065286508999797
 31
0.0
  0
LINE
  8
DETAIL
  6
CONTINUOUS
 62
     5
 10
-35.294468228999897
 20
54.974817074999812
 30
0.0
 11
-38.052228224998537
 21
52.660781679999793
 31
0.0
  0
LINE
  8
DETAIL
  6
CONTINUOUS
 62
     5
 10
-46.681085514999722
 20
45.420310709999683
 30
0.0
 11
-42.850863299001503
 21
48.634248758999831
 31
0.0
  0
LINE
  8
DETAIL
  6
CONTINUOUS
 62
     5
 10
159.19999999999709
 20
-76.050000000000296
 30
0.0
 11
158.0
 21
-76.050000000000296
 31
0.0
  0
LINE
  8
DETAIL
  6
CONTINUOUS
 62
     5
 10
-6.4989947129979564
 20
-61.700000000000273
 30
0.0
 11
6.4989947130015926
 21
-61.700000000000273
 31
0.0
  0
LINE
  8
DETAIL
  6
CONTINUOUS
 62
     5
 10
162.0
 20
-72.782502267000211
 30
0.0
 11
161.08058480999901
 21
-72.702063861000283
 31
0.0
  0
LINE
  8
DETAIL
  6
CONTINUOUS
 62
     5
 10
3.9082919669963299
 20
-74.538121865000221
 30
0.0
 11
53.933927409001633
 21
-83.916314720000287
 31
0.0
  0
LINE
  8
DETAIL
  6
CONTINUOUS
 62
     5
 10
5.382355205998465
 20
-66.675098428000297
 30
0.0
 11
55.407990647996478
 21
-76.053291283000249
 31
0.0
  0
LINE
  8
DETAIL
  6
CONTINUOUS
 62
     5
 10
-41.722344326000893
 20
-62.635261505000237
 30
0.0
 11
-44.480104321999526
 21
-60.321226110000232
 31
0.0
  0
LINE
  8
DETAIL
  6
CONTINUOUS
 62
     5
 10
-49.109055737000737
 20
-56.292143648000263
 30
0.0
 11
-52.939277952002158
 21
-53.078205600000267
 31
0.0
  0
LINE
  8
DETAIL
  6
CONTINUOUS
 62
     5
 10
-51.725067338000372
 20
-51.631165737000288
 30
0.0
 11
-54.072360194000787
 21
-49.66155316700025
 31
0.0
  0
LINE
  8
DETAIL
  6
CONTINUOUS
 62
     5
 10
-38.355197389002569
 20
-58.933596812000253
 30
0.0
 11
-41.419375162000513
 21
-56.362446373000303
 31
0.0
  0
LINE
  8
DETAIL
  6
CONTINUOUS
 62
     5
 10
-45.895117688003673
 20
-52.461921432000281
 30
0.0
 11
-49.725339903859997
 21
-49.247983383826408
 31
0.0
  0
LINE
  8
DETAIL
  6
CONTINUOUS
 62
     5
 10
-47.868341680001322
 20
-47.034899078000251
 30
0.0
 11
-50.215634535998113
 21
-45.06528650800027
 31
0.0
  0
LINE
  8
DETAIL
  6
CONTINUOUS
 62
     5
 10
-35.294468228999897
 20
-54.974817074000271
 30
0.0
 11
-38.052228224998537
 21
-52.660781679000252
 31
0.0
  0
LINE
  8
DETAIL
  6
CONTINUOUS
 62
     5
 10
-42.681179639999748
 20
-48.631699217000232
 30
0.0
 11
-46.511401856001612
 21
-45.417761168000311
 31
0.0
  0
LINE
  8
DETAIL
  6
CONTINUOUS
 62
     5
 10
-156.3637443919979
 20
150.61374439299971
 30
0.0
 11
-153.49580440800131
 21
145.61374439299971
 31
0.0
  0
LINE
  8
DETAIL
  6
CONTINUOUS
 62
     5
 10
-55.351389130999451
 20
-38.599316599000247
 30
0.0
 11
-61.324667119999503
 21
-58.304516000000319
 31
0.0
  0
LINE
  8
DETAIL
  6
CONTINUOUS
 62
     5
 10
-62.49739504900208
 20
-62.173218867000287
 30
0.0
 11
-62.965055365999433
 21
-63.715979779000293
 31
0.0
  0
LINE
  8
DETAIL
  6
CONTINUOUS
 62
     5
 10
-37.637197816999112
 20
42.420844189999741
 30
0.0
 11
-35.339064487998257
 21
44.349207018999721
 31
0.0
  0
LINE
  8
DETAIL
  6
CONTINUOUS
 62
     5
 10
7.5
 20
-51.700000000000273
 30
0.0
 11
-7.5
 21
-51.700000000000273
 31
0.0
  0
LINE
  8
DETAIL
  6
CONTINUOUS
 62
     5
 10
-8.4999968939991959
 20
-49.200000000000273
 30
0.0
 11
8.4999968939991959
 21
-49.200000000000273
 31
0.0
  0
LINE
  8
DETAIL
  6
CONTINUOUS
 62
     5
 10
-35.289904961002321
 20
-44.390456759000237
 30
0.0
 11
-37.538878762999957
 21
-42.503343672000263
 31
0.0
  0
LINE
  8
DETAIL
  6
CONTINUOUS
 62
     5
 10
-144.86374439200151
 20
150.61374439299971
 30
0.0
 11
-147.73168437600179
 21
155.61374439299971
 31
0.0
  0
LINE
  8
DETAIL
  6
CONTINUOUS
 62
     5
 10
-62.965055365999433
 20
63.71597977999977
 30
0.0
 11
-62.49739504900208
 21
62.173218867999708
 31
0.0
  0
LINE
  8
DETAIL
  6
CONTINUOUS
 62
     5
 10
-61.324667119999503
 20
58.304516000999683
 30
0.0
 11
-55.351389130999451
 21
38.599316599999717
 31
0.0
  0
LINE
  8
DETAIL
  6
CONTINUOUS
 62
     5
 10
-125.05384095900079
 20
-169.47938543300029
 30
0.0
 11
-127.92178094200059
 21
-174.47938543300029
 31
0.0
  0
LINE
  8
DETAIL
  6
CONTINUOUS
 62
     5
 10
108.40485421999981
 20
173.62983932099979
 30
0.0
 11
120.6178188039994
 21
188.1846837409997
 31
0.0
  0
LINE
  8
DETAIL
  6
CONTINUOUS
 62
     5
 10
-152.1677065309996
 20
136.90844608599971
 30
0.0
 11
-164.3806711150028
 21
151.4632905049998
 31
0.0
  0
LINE
  8
DETAIL
  6
CONTINUOUS
 62
     5
 10
-8.5
 20
-50.700000000000273
 30
0.0
 11
-8.5
 21
-49.200000000000273
 31
0.0
  0
LINE
  8
DETAIL
  6
CONTINUOUS
 62
     5
 10
-6.500000000003638
 20
-61.700000000000273
 30
0.0
 11
-6.500000000003638
 21
-52.700000000000273
 31
0.0
  0
LINE
  8
DETAIL
  6
CONTINUOUS
 62
     5
 10
-6.500000000003638
 20
-49.200000000000273
 30
0.0
 11
-6.500000000003638
 21
-48.768739987000231
 31
0.0
  0
LINE
  8
DETAIL
  6
CONTINUOUS
 62
     5
 10
-4.1907625780004309
 20
-61.700000000000273
 30
0.0
 11
-4.1907625780004309
 21
-64.706321594000258
 31
0.0
  0
LINE
  8
BASIS
  6
DASHDOT
 62
     6
 10
0.0
 20
229.19834018999981
 30
0.0
 11
0.0
 21
-229.19834019000029
 31
0.0
  0
LINE
  8
DETAIL
  6
CONTINUOUS
 62
     5
 10
-119.2897209260009
 20
-179.47938543300029
 30
0.0
 11
-116.42178094200059
 21
-174.47938543300029
 31
0.0
  0
LINE
  8
DETAIL
  6
CONTINUOUS
 62
     5
 10
-63.714174339998863
 20
-61.152219813000222
 30
0.0
 11
-59.857448682003451
 21
-56.555953155000282
 31
0.0
  0
LINE
  8
DETAIL
  6
CONTINUOUS
 62
     5
 10
-54.072360194000787
 20
-49.66155316700025
 30
0.0
 11
-50.215634535998113
 21
-45.06528650800027
 31
0.0
  0
LINE
  8
DETAIL
  6
CONTINUOUS
 62
     5
 10
35.269816863001317
 20
55.25658348499968
 30
0.0
 11
41.44057791600062
 21
62.610610138999732
 31
0.0
  0
LINE
  8
DETAIL
  6
CONTINUOUS
 62
     5
 10
44.911631008995762
 20
66.747250131999749
 30
0.0
 11
51.082392062002327
 21
74.101276785999744
 31
0.0
  0
LINE
  8
DETAIL
  6
CONTINUOUS
 62
     5
 10
-62.652456702002382
 20
-64.653921270000296
 30
0.0
 11
-56.224580605001393
 21
-56.993476839000273
 31
0.0
  0
LINE
  8
DETAIL
  6
CONTINUOUS
 62
     5
 10
-52.939277952002158
 20
-53.078205600000267
 30
0.0
 11
-46.511401856001612
 21
-45.417761168000311
 31
0.0
  0
LINE
  8
DETAIL
  6
CONTINUOUS
 62
     5
 10
30.82007214002844
 20
43.730688918463443
 30
0.0
 11
55.113111686998309
 21
72.682006071999751
 31
0.0
  0
LINE
  8
DETAIL
  6
CONTINUOUS
 62
     5
 10
37.169108262998627
 20
46.729839830999708
 30
0.0
 11
143.22938159700061
 21
173.12755160799969
 31
0.0
  0
LINE
  8
DETAIL
  6
CONTINUOUS
 62
     5
 10
33.226551234294128
 20
41.931447543279567
 30
0.0
 11
55.482882186999632
 21
68.455509913999663
 31
0.0
  0
LINE
  8
DETAIL
  6
CONTINUOUS
 62
     5
 10
-145.52751492599779
 20
-171.1991887790002
 30
0.0
 11
-37.538878762999957
 21
-42.503343672000263
 31
0.0
  0
LINE
  8
DETAIL
  6
CONTINUOUS
 62
     5
 10
145.52751492600149
 20
171.1991887789998
 30
0.0
 11
37.538878762999957
 21
42.503343672999733
 31
0.0
  0
LINE
  8
DETAIL
  6
CONTINUOUS
 62
     5
 10
-143.2293815960002
 20
-173.12755160800029
 30
0.0
 11
-33.176209947582578
 21
-41.971288918901962
 31
0.0
  0
LINE
  8
DETAIL
  6
CONTINUOUS
 62
     5
 10
94.320434943998407
 20
-127.82759294500021
 30
0.0
 11
128.1115406439967
 21
-168.09826456100021
 31
0.0
  0
LINE
  8
DETAIL
  6
CONTINUOUS
 62
     5
 10
-50.215634535998113
 20
45.065286508999797
 30
0.0
 11
-54.072360194000787
 21
49.661553166999738
 31
0.0
  0
LINE
  8
DETAIL
  6
CONTINUOUS
 62
     5
 10
-59.857448682003451
 20
56.555953154999827
 30
0.0
 11
-63.714174339998863
 21
61.152219813999693
 31
0.0
  0
LINE
  8
DETAIL
  6
CONTINUOUS
 62
     5
 10
51.082392062002327
 20
-74.101276785000209
 30
0.0
 11
44.911631008995762
 21
-66.747250131000271
 31
0.0
  0
LINE
  8
DETAIL
  6
CONTINUOUS
 62
     5
 10
41.44057791600062
 20
-62.610610139000237
 30
0.0
 11
35.269816863001317
 21
-55.256583485000313
 31
0.0
  0
LINE
  8
DETAIL
  6
CONTINUOUS
 62
     5
 10
-46.681085514999722
 20
45.420310709999683
 30
0.0
 11
-53.108961612000712
 21
53.080755141999823
 31
0.0
  0
LINE
  8
DETAIL
  6
CONTINUOUS
 62
     5
 10
-56.322899660000992
 20
56.910977356999688
 30
0.0
 11
-62.750775757001968
 21
64.571421787999782
 31
0.0
  0
LINE
  8
DETAIL
  6
CONTINUOUS
 62
     5
 10
55.113111686998309
 20
-72.682006072000263
 30
0.0
 11
30.82007214055286
 21
-43.730688918094323
 31
0.0
  0
LINE
  8
DETAIL
  6
CONTINUOUS
 62
     5
 10
100.4487904889975
 20
-122.68529206800029
 30
0.0
 11
134.23989618899941
 21
-162.95596368300031
 31
0.0
  0
LINE
  8
DETAIL
  6
CONTINUOUS
 62
     5
 10
143.32770065099979
 20
-173.04505212500021
 30
0.0
 11
73.565863822997926
 21
-89.906132458000229
 31
0.0
  0
LINE
  8
DETAIL
  6
CONTINUOUS
 62
     5
 10
-143.32770065099979
 20
173.04505212499981
 30
0.0
 11
-33.276842982981726
 21
41.891547131682323
 31
0.0
  0
LINE
  8
DETAIL
  6
CONTINUOUS
 62
     5
 10
145.62583398100111
 20
-171.1166892960002
 30
0.0
 11
75.853800117001811
 21
-87.965617276000273
 31
0.0
  0
LINE
  8
DETAIL
  6
CONTINUOUS
 62
     5
 10
61.245978172999457
 20
-88.285492000000261
 30
0.0
 11
62.369485589999393
 21
-89.666065382000227
 31
0.0
  0
LINE
  8
DETAIL
  6
CONTINUOUS
 62
     5
 10
67.450947500001348
 20
-83.235902349000241
 30
0.0
 11
68.818593432999478
 21
-84.916474761000245
 31
0.0
  0
LINE
  8
DETAIL
  6
CONTINUOUS
 62
     5
 10
3.8092374219995691
 20
-61.700000000000273
 30
0.0
 11
3.8092374219995691
 21
-64.706321594000258
 31
0.0
  0
LINE
  8
DETAIL
  6
CONTINUOUS
 62
     5
 10
6.5
 20
-61.700000000000273
 30
0.0
 11
6.5
 21
-52.700000000000273
 31
0.0
  0
LINE
  8
DETAIL
  6
CONTINUOUS
 62
     5
 10
6.5
 20
-49.200000000000273
 30
0.0
 11
6.5
 21
-48.768739987000231
 31
0.0
  0
LINE
  8
DETAIL
  6
CONTINUOUS
 62
     5
 10
8.499999999996362
 20
-50.700000000000273
 30
0.0
 11
8.499999999996362
 21
-49.200000000000273
 31
0.0
  0
LINE
  8
DETAIL
  6
CONTINUOUS
 62
     5
 10
119.2897209269977
 20
179.47938543399979
 30
0.0
 11
116.4217809429974
 21
174.47938543399979
 31
0.0
  0
LINE
  8
DETAIL
  6
CONTINUOUS
 62
     5
 10
-30.820072140551719
 20
-43.730688918095119
 30
0.0
 11
-55.113111686001503
 21
-72.682006072000263
 31
0.0
  0
LINE
  8
DETAIL
  6
CONTINUOUS
 62
     5
 10
62.652456702999189
 20
64.653921270999774
 30
0.0
 11
56.224580605998199
 21
56.993476839999737
 31
0.0
  0
LINE
  8
DETAIL
  6
CONTINUOUS
 62
     5
 10
52.939277952998957
 20
53.078205599999762
 30
0.0
 11
46.511401855997967
 21
45.417761168999732
 31
0.0
  0
LINE
  8
DETAIL
  6
CONTINUOUS
 62
     5
 10
-35.269816862997693
 20
-55.256583485000313
 30
0.0
 11
-41.44057791600062
 21
-62.610610139000237
 31
0.0
  0
LINE
  8
DETAIL
  6
CONTINUOUS
 62
     5
 10
-44.911631007998949
 20
-66.747250131000271
 30
0.0
 11
-51.082392060998252
 21
-74.101276785000209
 31
0.0
  0
LINE
  8
DETAIL
  6
CONTINUOUS
 62
     5
 10
63.714174339998863
 20
61.152219813999693
 30
0.0
 11
59.857448681999813
 21
56.555953154999827
 31
0.0
  0
LINE
  8
DETAIL
  6
CONTINUOUS
 62
     5
 10
54.0723601949976
 20
49.661553166999738
 30
0.0
 11
50.215634537002188
 21
45.065286508999797
 31
0.0
  0
LINE
  8
DETAIL
  6
CONTINUOUS
 62
     5
 10
207.2999999999993
 20
20.499999999999769
 30
0.0
 11
208.09999999999849
 21
20.499999999999769
 31
0.0
  0
LINE
  8
DETAIL
  6
CONTINUOUS
 62
     5
 10
-30.82007214002731
 20
43.730688918464253
 30
0.0
 11
-55.113111686001503
 21
72.682006071999751
 31
0.0
  0
LINE
  8
DETAIL
  6
CONTINUOUS
 62
     5
 10
46.681085516000167
 20
-45.420310710000251
 30
0.0
 11
53.108961612000712
 21
-53.080755141000218
 31
0.0
  0
LINE
  8
DETAIL
  6
CONTINUOUS
 62
     5
 10
56.322899660997791
 20
-56.91097735600033
 30
0.0
 11
62.750775757998781
 21
-64.571421788000237
 31
0.0
  0
LINE
  8
DETAIL
  6
CONTINUOUS
 62
     5
 10
-51.082392060998252
 20
74.101276785999744
 30
0.0
 11
-44.911631007998949
 21
66.747250131999749
 31
0.0
  0
LINE
  8
DETAIL
  6
CONTINUOUS
 62
     5
 10
-41.44057791600062
 20
62.610610138999732
 30
0.0
 11
-35.269816862997693
 21
55.25658348499968
 31
0.0
  0
LINE
  8
DETAIL
  6
CONTINUOUS
 62
     5
 10
50.215634537002188
 20
-45.06528650800027
 30
0.0
 11
54.0723601949976
 21
-49.66155316700025
 31
0.0
  0
LINE
  8
DETAIL
  6
CONTINUOUS
 62
     5
 10
59.857448681999813
 20
-56.555953155000282
 30
0.0
 11
63.714174339998863
 21
-61.152219813000222
 31
0.0
  0
LINE
  8
DETAIL
  6
CONTINUOUS
 62
     5
 10
55.351389131999888
 20
38.599316599999717
 30
0.0
 11
61.324667120999948
 21
58.304516000999683
 31
0.0
  0
LINE
  8
DETAIL
  6
CONTINUOUS
 62
     5
 10
62.497395049998893
 20
62.173218867999708
 30
0.0
 11
62.965055366999877
 21
63.71597977999977
 31
0.0
  0
LINE
  8
DETAIL
  6
CONTINUOUS
 62
     5
 10
5.2641217119999064
 20
-66.62169993300023
 30
0.0
 11
5.2539440319997084
 21
-66.645601410000268
 31
0.0
  0
LINE
  8
DETAIL
  6
CONTINUOUS
 62
     5
 10
5.2529567719975603
 20
-66.618813935000219
 30
0.0
 11
5.2425838419985666
 21
-66.642661372000248
 31
0.0
  0
LINE
  8
DETAIL
  6
CONTINUOUS
 62
     5
 10
125.0538409589972
 20
169.47938543399979
 30
0.0
 11
127.9217809430011
 21
174.47938543399979
 31
0.0
  0
LINE
  8
DETAIL
  6
CONTINUOUS
 62
     5
 10
-108.4048542189994
 20
-173.6298393210003
 30
0.0
 11
-120.617818802999
 21
-188.18468374000031
 31
0.0
  0
LINE
  8
DETAIL
  6
CONTINUOUS
 62
     5
 10
205.99999999999639
 20
26.199999999999761
 30
0.0
 11
207.2999999999993
 21
26.199999999999761
 31
0.0
  0
LINE
  8
DETAIL
  6
CONTINUOUS
 62
     5
 10
205.99999999999639
 20
26.699999999999761
 30
0.0
 11
206.80000000000291
 21
26.699999999999761
 31
0.0
  0
LINE
  8
DETAIL
  6
CONTINUOUS
 62
     5
 10
171.81077398500199
 20
27.499999999999769
 30
0.0
 11
206.80000000000291
 21
27.499999999999769
 31
0.0
  0
LINE
  8
DETAIL
  6
CONTINUOUS
 62
     5
 10
181.80000000000291
 20
37.699999999999761
 30
0.0
 11
189.7999999999993
 21
37.699999999999761
 31
0.0
  0
LINE
  8
DETAIL
  6
CONTINUOUS
 62
     5
 10
203.2000000000007
 20
38.425398163999724
 30
0.0
 11
179.5
 21
38.425398163999724
 31
0.0
  0
LINE
  8
DETAIL
  6
CONTINUOUS
 62
     5
 10
152.1677065319964
 20
-136.90844608500029
 30
0.0
 11
164.3806711159996
 21
-151.4632905050002
 31
0.0
  0
LINE
  8
DETAIL
  6
CONTINUOUS
 62
     5
 10
62.965055366999877
 20
-63.715979779000293
 30
0.0
 11
62.497395049998893
 21
-62.173218867000287
 31
0.0
  0
LINE
  8
DETAIL
  6
CONTINUOUS
 62
     5
 10
61.324667120999948
 20
-58.304516000000319
 30
0.0
 11
55.351389131999888
 21
-38.599316599000247
 31
0.0
  0
LINE
  8
DETAIL
  6
CONTINUOUS
 62
     5
 10
37.637197818003187
 20
-42.420844189000263
 30
0.0
 11
35.339064488001902
 21
-44.349207018000243
 31
0.0
  0
LINE
  8
DETAIL
  6
CONTINUOUS
 62
     5
 10
35.289904960998683
 20
44.390456759999722
 30
0.0
 11
37.538878762999957
 21
42.503343672999733
 31
0.0
  0
LINE
  8
DETAIL
  6
CONTINUOUS
 62
     5
 10
144.86374439299831
 20
-150.61374439200031
 30
0.0
 11
147.73168437599821
 21
-155.61374439200031
 31
0.0
  0
LINE
  8
DETAIL
  6
CONTINUOUS
 62
     5
 10
156.36374439299831
 20
-150.61374439200031
 30
0.0
 11
153.49580440900169
 21
-145.61374439200031
 31
0.0
  0
LINE
  8
DETAIL
  6
CONTINUOUS
 62
     5
 10
35.29446822999671
 20
-54.974817074000271
 30
0.0
 11
38.052228224998537
 21
-52.660781679000252
 31
0.0
  0
LINE
  8
DETAIL
  6
CONTINUOUS
 62
     5
 10
42.850863299998309
 20
-48.63424875800024
 30
0.0
 11
46.681085516000167
 21
-45.420310710000251
 31
0.0
  0
LINE
  8
DETAIL
  6
CONTINUOUS
 62
     5
 10
41.789145662998642
 20
-52.135950215000257
 30
0.0
 11
41.838305189998209
 21
-52.094700473000273
 31
0.0
  0
LINE
  8
DETAIL
  6
CONTINUOUS
 62
     5
 10
47.966660735000907
 20
-46.952399596000191
 30
0.0
 11
50.215634537002188
 21
-45.06528650800027
 31
0.0
  0
LINE
  8
DETAIL
  6
CONTINUOUS
 62
     5
 10
38.355197389999383
 20
-58.933596812000253
 30
0.0
 11
41.419375161996868
 21
-56.362446373000303
 31
0.0
  0
LINE
  8
DETAIL
  6
CONTINUOUS
 62
     5
 10
46.06480134800222
 20
-52.464470974000278
 30
0.0
 11
49.895023563556613
 21
-49.250532924975403
 31
0.0
  0
LINE
  8
DETAIL
  6
CONTINUOUS
 62
     5
 10
45.645871321001323
 20
-56.732216873000247
 30
0.0
 11
45.695030848000897
 21
-56.690967132000253
 31
0.0
  0
LINE
  8
DETAIL
  6
CONTINUOUS
 62
     5
 10
51.823386392999957
 20
-51.548666255000278
 30
0.0
 11
54.0723601949976
 21
-49.66155316700025
 31
0.0
  0
LINE
  8
DETAIL
  6
CONTINUOUS
 62
     5
 10
41.7223443269977
 20
-62.635261505000237
 30
0.0
 11
44.480104321999526
 21
-60.321226110000232
 31
0.0
  0
LINE
  8
DETAIL
  6
CONTINUOUS
 62
     5
 10
49.278739396999299
 20
-56.29469318900027
 30
0.0
 11
53.108961612000712
 21
-53.080755141000218
 31
0.0
  0
LINE
  8
DETAIL
  6
CONTINUOUS
 62
     5
 10
44.936282374997973
 20
-66.465483721000169
 30
0.0
 11
47.694042370996613
 21
-64.151448326000263
 31
0.0
  0
LINE
  8
DETAIL
  6
CONTINUOUS
 62
     5
 10
52.492677444999572
 20
-60.124915405000252
 30
0.0
 11
56.322899660997791
 21
-56.91097735600033
 31
0.0
  0
LINE
  8
DETAIL
  6
CONTINUOUS
 62
     5
 10
42.681179640996561
 20
48.631699217999767
 30
0.0
 11
46.511401855997967
 21
45.417761168999732
 31
0.0
  0
LINE
  8
DETAIL
  6
CONTINUOUS
 62
     5
 10
35.29446822999671
 20
54.974817074999812
 30
0.0
 11
38.052228224998537
 21
52.660781679999793
 31
0.0
  0
LINE
  8
DETAIL
  6
CONTINUOUS
 62
     5
 10
47.868341679997677
 20
47.034899078999793
 30
0.0
 11
50.215634537002188
 21
45.065286508999797
 31
0.0
  0
LINE
  8
DETAIL
  6
CONTINUOUS
 62
     5
 10
45.895117689000472
 20
52.461921432999702
 30
0.0
 11
49.72533990480224
 21
49.247983384863574
 31
0.0
  0
LINE
  8
DETAIL
  6
CONTINUOUS
 62
     5
 10
41.419375161996868
 20
56.362446373999767
 30
0.0
 11
38.355197389999383
 21
58.933596811999791
 31
0.0
  0
LINE
  8
DETAIL
  6
CONTINUOUS
 62
     5
 10
51.725067338000372
 20
51.631165737999773
 30
0.0
 11
54.0723601949976
 21
49.661553166999738
 31
0.0
  0
LINE
  8
DETAIL
  6
CONTINUOUS
 62
     5
 10
52.939277952998957
 20
53.078205599999762
 30
0.0
 11
49.109055737997551
 21
56.29214364899974
 31
0.0
  0
LINE
  8
DETAIL
  6
CONTINUOUS
 62
     5
 10
41.7223443269977
 20
62.635261505999722
 30
0.0
 11
44.480104321999526
 21
60.32122611099976
 31
0.0
  0
LINE
  8
DETAIL
  6
CONTINUOUS
 62
     5
 10
44.936282374997973
 20
66.465483721999703
 30
0.0
 11
47.694042370996613
 21
64.151448326999741
 31
0.0
  0
LINE
  8
DETAIL
  6
CONTINUOUS
 62
     5
 10
52.394358389999979
 20
60.207414887999789
 30
0.0
 11
56.224580605998199
 21
56.993476839999737
 31
0.0
  0
LINE
  8
DETAIL
  6
CONTINUOUS
 62
     5
 10
51.43095980799626
 20
-63.62661686100023
 30
0.0
 11
51.480119334999472
 21
-63.585367120000228
 31
0.0
  0
LINE
  8
DETAIL
  6
CONTINUOUS
 62
     5
 10
57.608474880002177
 20
-58.443066243000203
 30
0.0
 11
59.857448681999813
 21
-56.555953155000282
 31
0.0
  0
LINE
  8
DETAIL
  6
CONTINUOUS
 62
     5
 10
47.997011535000638
 20
-70.424263458000269
 30
0.0
 11
51.061189307998568
 21
-67.853113020000251
 31
0.0
  0
LINE
  8
DETAIL
  6
CONTINUOUS
 62
     5
 10
55.706615493996651
 20
-63.955137620000301
 30
0.0
 11
59.536837709103573
 21
-60.74119957153323
 31
0.0
  0
LINE
  8
DETAIL
  6
CONTINUOUS
 62
     5
 10
55.287685465998948
 20
-68.222883520000266
 30
0.0
 11
55.33684499300216
 21
-68.181633779000265
 31
0.0
  0
LINE
  8
DETAIL
  6
CONTINUOUS
 62
     5
 10
61.465200537997589
 20
-63.03933290100025
 30
0.0
 11
63.714174339998863
 21
-61.152219813000222
 31
0.0
  0
LINE
  8
DETAIL
  6
CONTINUOUS
 62
     5
 10
51.364158471998962
 20
-74.125928152000256
 30
0.0
 11
54.121918467997602
 21
-71.811892757000237
 31
0.0
  0
LINE
  8
DETAIL
  6
CONTINUOUS
 62
     5
 10
58.920553542000562
 20
-67.785359836000225
 30
0.0
 11
62.750775757998781
 21
-64.571421788000237
 31
0.0
  0
LINE
  8
DETAIL
  6
CONTINUOUS
 62
     5
 10
57.411245015999157
 20
-70.753643243000226
 30
0.0
 11
55.113111686998309
 21
-72.682006072000263
 31
0.0
  0
LINE
  8
DETAIL
  6
CONTINUOUS
 62
     5
 10
57.411245015999157
 20
-70.753643243000226
 30
0.0
 11
57.460404543002369
 21
-70.712393501000292
 31
0.0
  0
LINE
  8
DETAIL
  6
CONTINUOUS
 62
     5
 10
59.758537872996378
 20
-68.784030672000256
 30
0.0
 11
62.022426089999499
 21
-66.884402904000297
 31
0.0
  0
LINE
  8
DETAIL
  6
CONTINUOUS
 62
     5
 10
57.510155825002578
 20
58.525565725999677
 30
0.0
 11
59.857448681999813
 21
56.555953154999827
 31
0.0
  0
LINE
  8
DETAIL
  6
CONTINUOUS
 62
     5
 10
55.608296438997058
 20
64.037637103999828
 30
0.0
 11
59.438518654267682
 21
60.823699055223187
 31
0.0
  0
LINE
  8
DETAIL
  6
CONTINUOUS
 62
     5
 10
51.061189307998568
 20
67.853113019999796
 30
0.0
 11
47.997011535000638
 21
70.424263458999803
 31
0.0
  0
LINE
  8
DETAIL
  6
CONTINUOUS
 62
     5
 10
61.366881483998441
 20
63.12183238499972
 30
0.0
 11
63.714174339998863
 21
61.152219813999693
 31
0.0
  0
LINE
  8
DETAIL
  6
CONTINUOUS
 62
     5
 10
51.364158471998962
 20
74.125928152999734
 30
0.0
 11
54.121918467997602
 21
71.811892757999772
 31
0.0
  0
LINE
  8
DETAIL
  6
CONTINUOUS
 62
     5
 10
62.652456702999189
 20
64.653921270999774
 30
0.0
 11
58.822234487000969
 21
67.867859318999706
 31
0.0
  0
LINE
  8
DETAIL
  6
CONTINUOUS
 62
     5
 10
59.66021881800043
 20
68.866530155999726
 30
0.0
 11
62.022426089999499
 21
66.884402904999774
 31
0.0
  0
LINE
  8
DETAIL
  6
CONTINUOUS
 62
     5
 10
57.362085487999138
 20
70.794892984999706
 30
0.0
 11
55.113111686998309
 21
72.682006071999751
 31
0.0
  0
LINE
  8
DETAIL
  6
CONTINUOUS
 62
     5
 10
157.69999999999709
 20
-87.250000000000284
 30
0.0
 11
157.69999999999709
 21
-76.35000000000025
 31
0.0
  0
LINE
  8
DETAIL
  6
CONTINUOUS
 62
     5
 10
159.19999999999709
 20
-88.050000000000296
 30
0.0
 11
159.19999999999709
 21
-75.550000000000296
 31
0.0
  0
LINE
  8
DETAIL
  6
CONTINUOUS
 62
     5
 10
-153.49580440800131
 20
145.61374439299971
 30
0.0
 11
-147.73168437600179
 21
145.61374439299971
 31
0.0
  0
LINE
  8
DETAIL
  6
CONTINUOUS
 62
     5
 10
-147.73168437600179
 20
155.61374439299971
 30
0.0
 11
-153.49580440800131
 21
155.61374439299971
 31
0.0
  0
LINE
  8
DETAIL
  6
CONTINUOUS
 62
     5
 10
162.0
 20
-63.493014379000329
 30
0.0
 11
162.0
 21
-98.200000000000273
 31
0.0
  0
LINE
  8
DETAIL
  6
CONTINUOUS
 62
     5
 10
163.0
 20
-100.5000000000002
 30
0.0
 11
163.0
 21
-99.200000000000273
 31
0.0
  0
LINE
  8
DETAIL
  6
CONTINUOUS
 62
     5
 10
163.7999999999993
 20
-99.200000000000273
 30
0.0
 11
163.7999999999993
 21
-100.5000000000002
 31
0.0
  0
LINE
  8
DETAIL
  6
CONTINUOUS
 62
     5
 10
164.0
 20
-99.200000000000273
 30
0.0
 11
164.0
 21
-100.5000000000002
 31
0.0
  0
LINE
  8
DETAIL
  6
CONTINUOUS
 62
     5
 10
174.5
 20
-100.5000000000002
 30
0.0
 11
174.5
 21
-101.8000000000003
 31
0.0
  0
LINE
  8
DETAIL
  6
CONTINUOUS
 62
     5
 10
177.5
 20
36.425398163999724
 30
0.0
 11
177.5
 21
29.499999999999769
 31
0.0
  0
LINE
  8
DETAIL
  6
CONTINUOUS
 62
     5
 10
177.5
 20
-109.4253981630002
 30
0.0
 11
177.5
 21
-102.5000000000003
 31
0.0
  0
LINE
  8
DETAIL
  6
CONTINUOUS
 62
     5
 10
179.7999999999993
 20
-100.56429976300019
 30
0.0
 11
179.7999999999993
 21
-108.7000000000003
 31
0.0
  0
LINE
  8
DETAIL
  6
CONTINUOUS
 62
     5
 10
179.7999999999993
 20
27.56429976399971
 30
0.0
 11
179.7999999999993
 21
35.699999999999818
 31
0.0
  0
LINE
  8
DETAIL
  6
CONTINUOUS
 62
     5
 10
119.2897209269977
 20
169.47938543399979
 30
0.0
 11
125.0538409589972
 21
169.47938543399979
 31
0.0
  0
LINE
  8
DETAIL
  6
CONTINUOUS
 62
     5
 10
125.0538409589972
 20
179.47938543399979
 30
0.0
 11
119.2897209269977
 21
179.47938543399979
 31
0.0
  0
LINE
  8
DETAIL
  6
CONTINUOUS
 62
     5
 10
191.80000000000291
 20
-108.7000000000003
 30
0.0
 11
191.80000000000291
 21
-100.56429976300019
 31
0.0
  0
LINE
  8
DETAIL
  6
CONTINUOUS
 62
     5
 10
191.80000000000291
 20
27.56429976399971
 30
0.0
 11
191.80000000000291
 21
35.699999999999818
 31
0.0
  0
LINE
  8
DETAIL
  6
CONTINUOUS
 62
     5
 10
129.5561437389988
 20
-151.96557821800019
 30
0.0
 11
147.94121037299919
 21
-136.53867558500019
 31
0.0
  0
LINE
  8
DETAIL
  6
CONTINUOUS
 62
     5
 10
-192.5
 20
200.4999999999998
 30
0.0
 11
-178.39949493599849
 21
200.4999999999998
 31
0.0
  0
LINE
  8
DETAIL
  6
CONTINUOUS
 62
     5
 10
178.3994949370026
 20
200.4999999999998
 30
0.0
 11
192.5
 21
200.4999999999998
 31
0.0
  0
LINE
  8
DETAIL
  6
CONTINUOUS
 62
     5
 10
127.1596913549984
 20
153.97644052999979
 30
0.0
 11
108.7746247199975
 21
169.4033431629997
 31
0.0
  0
LINE
  8
DETAIL
  6
CONTINUOUS
 62
     5
 10
116.4217809429974
 20
174.47938543399979
 30
0.0
 11
119.2897209269977
 21
169.47938543399979
 31
0.0
  0
LINE
  8
DETAIL
  6
CONTINUOUS
 62
     5
 10
127.9217809430011
 20
174.47938543399979
 30
0.0
 11
125.0538409589972
 21
179.47938543399979
 31
0.0
  0
LINE
  8
DETAIL
  6
CONTINUOUS
 62
     5
 10
200.5
 20
192.4999999999998
 30
0.0
 11
200.5
 21
178.39949493699979
 31
0.0
  0
LINE
  8
DETAIL
  6
CONTINUOUS
 62
     5
 10
200.5
 20
-178.3994949360002
 30
0.0
 11
200.5
 21
-192.50000000000031
 31
0.0
  0
LINE
  8
DETAIL
  6
CONTINUOUS
 62
     5
 10
205.19999999999709
 20
36.425398163999724
 30
0.0
 11
205.19999999999709
 21
27.499999999999769
 31
0.0
  0
LINE
  8
DETAIL
  6
CONTINUOUS
 62
     5
 10
205.19999999999709
 20
-109.4253981630002
 30
0.0
 11
205.19999999999709
 21
-100.5000000000002
 31
0.0
  0
LINE
  8
DETAIL
  6
CONTINUOUS
 62
     5
 10
205.99999999999639
 20
-99.200000000000273
 30
0.0
 11
205.99999999999639
 21
-100.5000000000002
 31
0.0
  0
LINE
  8
DETAIL
  6
CONTINUOUS
 62
     5
 10
205.99999999999639
 20
26.199999999999761
 30
0.0
 11
205.99999999999639
 21
27.499999999999769
 31
0.0
  0
LINE
  8
DETAIL
  6
CONTINUOUS
 62
     5
 10
207.2999999999993
 20
26.199999999999761
 30
0.0
 11
207.2999999999993
 21
-99.200000000000273
 31
0.0
  0
LINE
  8
DETAIL
  6
CONTINUOUS
 62
     5
 10
208.09999999999849
 20
-99.200000000000273
 30
0.0
 11
208.09999999999849
 21
-93.500000000000284
 31
0.0
  0
LINE
  8
DETAIL
  6
CONTINUOUS
 62
     5
 10
208.09999999999849
 20
20.499999999999769
 30
0.0
 11
208.09999999999849
 21
26.199999999999761
 31
0.0
  0
LINE
  8
DETAIL
  6
CONTINUOUS
 62
     5
 10
210.0
 20
-200.00000000000031
 30
0.0
 11
210.0
 21
199.9999999999998
 31
0.0
  0
LINE
  8
DETAIL
  6
CONTINUOUS
 62
     5
 10
147.73168437599821
 20
-145.61374439200031
 30
0.0
 11
144.86374439299831
 21
-150.61374439200031
 31
0.0
  0
LINE
  8
DETAIL
  6
CONTINUOUS
 62
     5
 10
153.49580440900169
 20
-155.61374439200031
 30
0.0
 11
156.36374439299831
 21
-150.61374439200031
 31
0.0
  0
LINE
  8
DETAIL
  6
CONTINUOUS
 62
     5
 10
200.0
 20
209.9999999999998
 30
0.0
 11
-200.0
 21
209.9999999999998
 31
0.0
  0
LINE
  8
DETAIL
  6
CONTINUOUS
 62
     5
 10
143.32770065099979
 20
-173.04505212500021
 30
0.0
 11
164.01090061599831
 21
-155.68978666300021
 31
0.0
  0
LINE
  8
DETAIL
  6
CONTINUOUS
 62
     5
 10
145.52751492600149
 20
171.1991887789998
 30
0.0
 11
124.8443149619998
 21
188.5544542409998
 31
0.0
  0
LINE
  8
DETAIL
  6
CONTINUOUS
 62
     5
 10
173.4497474689997
 20
-188.5502525310003
 30
0.0
 11
188.5502525319971
 21
-173.44974746800031
 31
0.0
  0
LINE
  8
DETAIL
  6
CONTINUOUS
 62
     5
 10
188.5502525319971
 20
173.4497474689997
 30
0.0
 11
173.4497474689997
 21
188.55025253199969
 31
0.0
  0
ARC
  8
DETAIL
  6
CONTINUOUS
 62
     5
 10
-66.835357555002702
 20
-35.118157418000237
 30
0.0
 40
12.0
 50
343.13626068270952
 51
27.719357925106891
  0
ARC
  8
DETAIL
  6
CONTINUOUS
 62
     5
 10
-200.0
 20
-200.00000000000031
 30
0.0
 40
10.0
 50
180.0
 51
270.0
  0
ARC
  8
DETAIL
  6
CONTINUOUS
 62
     5
 10
-192.5
 20
-192.50000000000031
 30
0.0
 40
8.0
 50
180.0
 51
270.0
  0
ARC
  8
DETAIL
  6
CONTINUOUS
 62
     5
 10
-193.5
 20
-178.3994949360002
 30
0.0
 40
7.0
 50
44.999999999990777
 51
180.0
  0
ARC
  8
DETAIL
  6
CONTINUOUS
 62
     5
 10
-178.39949493599849
 20
-193.50000000000031
 30
0.0
 40
7.0
 50
270.0
 51
44.999999999990777
  0
CIRCLE
  8
DETAIL
  6
CONTINUOUS
 62
     5
 10
-190.0
 20
-190.00000000000031
 30
0.0
 40
5.0
  0
ARC
  8
DETAIL
  6
CONTINUOUS
 62
     5
 10
-122.9159521319998
 20
-186.25632091100019
 30
0.0
 40
3.0
 50
230.000000000016
 51
319.99999999999699
  0
ARC
  8
DETAIL
  6
CONTINUOUS
 62
     5
 10
-110.70298754800019
 20
-171.70147649200021
 30
0.0
 40
3.0
 50
319.99999999999699
 51
50.000000000016072
  0
ARC
  8
DETAIL
  6
CONTINUOUS
 62
     5
 10
-60.09406325999953
 20
-64.586269575000301
 30
0.0
 40
3.0
 50
163.13626068270949
 51
230.000000000016
  0
ARC
  8
DETAIL
  6
CONTINUOUS
 62
     5
 10
-7.5
 20
-50.700000000000273
 30
0.0
 40
1.0
 50
180.0
 51
270.0
  0
ARC
  8
DETAIL
  6
CONTINUOUS
 62
     5
 10
-7.5
 20
-52.700000000000273
 30
0.0
 40
1.0
 50
0.0
 51
90.0
  0
ARC
  8
DETAIL
  6
CONTINUOUS
 62
     5
 10
-51.235600949999927
 20
-73.972719263000272
 30
0.0
 40
0.2
 50
230.000000000016
 51
319.99999999999699
  0
ARC
  8
DETAIL
  6
CONTINUOUS
 62
     5
 10
-45.064839897000638
 20
-66.618692610000267
 30
0.0
 40
0.2
 50
319.99999999999699
 51
50.000000000016072
  0
ARC
  8
DETAIL
  6
CONTINUOUS
 62
     5
 10
-47.822599891998827
 20
-64.304657215000248
 30
0.0
 40
0.2
 50
50.000000000016072
 51
139.99999999999699
  0
ARC
  8
DETAIL
  6
CONTINUOUS
 62
     5
 10
-53.993360945001768
 20
-71.658683869000242
 30
0.0
 40
0.2
 50
139.99999999999699
 51
230.000000000016
  0
ARC
  8
DETAIL
  6
CONTINUOUS
 62
     5
 10
-41.593786804001873
 20
-62.482052617000193
 30
0.0
 40
0.2
 50
230.000000000016
 51
319.99999999999699
  0
ARC
  8
DETAIL
  6
CONTINUOUS
 62
     5
 10
-35.423025750998931
 20
-55.128025963000248
 30
0.0
 40
0.2
 50
319.99999999999699
 51
50.000000000016072
  0
ARC
  8
DETAIL
  6
CONTINUOUS
 62
     5
 10
-38.18078574700121
 20
-52.813990568000243
 30
0.0
 40
0.2
 50
50.000000000016072
 51
139.99999999999699
  0
ARC
  8
DETAIL
  6
CONTINUOUS
 62
     5
 10
-44.351546800000513
 20
-60.168017222000287
 30
0.0
 40
0.2
 50
139.99999999999699
 51
230.000000000016
  0
ARC
  8
DETAIL
  6
CONTINUOUS
 62
     5
 10
-200.0
 20
199.9999999999998
 30
0.0
 40
10.0
 50
90.0
 51
180.0
  0
ARC
  8
DETAIL
  6
CONTINUOUS
 62
     5
 10
-192.5
 20
192.4999999999998
 30
0.0
 40
8.0
 50
90.0
 51
180.0
  0
ARC
  8
DETAIL
  6
CONTINUOUS
 62
     5
 10
-178.39949493599849
 20
193.4999999999998
 30
0.0
 40
7.0
 50
315.00000000000921
 51
90.0
  0
ARC
  8
DETAIL
  6
CONTINUOUS
 62
     5
 10
-193.5
 20
178.39949493699979
 30
0.0
 40
7.0
 50
180.0
 51
315.00000000000921
  0
CIRCLE
  8
DETAIL
  6
CONTINUOUS
 62
     5
 10
-190.0
 20
189.9999999999998
 30
0.0
 40
5.0
  0
ARC
  8
DETAIL
  6
CONTINUOUS
 62
     5
 10
-162.08253778600189
 20
153.39165333399981
 30
0.0
 40
3.0
 50
129.99999999998391
 51
220.00000000000301
  0
ARC
  8
DETAIL
  6
CONTINUOUS
 62
     5
 10
-149.86957320200241
 20
138.83680891499969
 30
0.0
 40
3.0
 50
220.00000000000301
 51
309.99999999998391
  0
ARC
  8
DETAIL
  6
CONTINUOUS
 62
     5
 10
-66.835357555002702
 20
35.118157418999772
 30
0.0
 40
12.0
 50
332.28064207489308
 51
16.863739317290548
  0
ARC
  8
DETAIL
  6
CONTINUOUS
 62
     5
 10
-60.09406325999953
 20
64.586269574999733
 30
0.0
 40
3.0
 50
129.99999999998391
 51
196.86373931729051
  0
ARC
  8
DETAIL
  6
CONTINUOUS
 62
     5
 10
-45.064839897000638
 20
66.618692609999698
 30
0.0
 40
0.2
 50
309.99999999988921
 51
40.000000000003013
  0
ARC
  8
DETAIL
  6
CONTINUOUS
 62
     5
 10
-51.235600949999927
 20
73.972719263999693
 30
0.0
 40
0.2
 50
40.000000000003013
 51
129.99999999998391
  0
ARC
  8
DETAIL
  6
CONTINUOUS
 62
     5
 10
-53.993360945001768
 20
71.658683868999731
 30
0.0
 40
0.2
 50
130.0000000000903
 51
220.00000000000301
  0
ARC
  8
DETAIL
  6
CONTINUOUS
 62
     5
 10
-47.822599891998827
 20
64.304657214999736
 30
0.0
 40
0.2
 50
220.00000000000301
 51
309.99999999988921
  0
ARC
  8
DETAIL
  6
CONTINUOUS
 62
     5
 10
-35.423025750998931
 20
55.1280259629998
 30
0.0
 40
0.2
 50
309.99999999988921
 51
40.000000000003013
  0
ARC
  8
DETAIL
  6
CONTINUOUS
 62
     5
 10
-41.593786804001873
 20
62.482052616999788
 30
0.0
 40
0.2
 50
40.000000000003013
 51
130.0000000000903
  0
ARC
  8
DETAIL
  6
CONTINUOUS
 62
     5
 10
-44.351546800000513
 20
60.168017222999772
 30
0.0
 40
0.2
 50
129.99999999998391
 51
220.00000000000301
  0
ARC
  8
DETAIL
  6
CONTINUOUS
 62
     5
 10
-38.18078574700121
 20
52.813990568999706
 30
0.0
 40
0.2
 50
220.00000000000301
 51
309.99999999998391
  0
ARC
  8
DETAIL
  6
CONTINUOUS
 62
     5
 10
0.0
 20
-0.0000000000002274
 30
0.0
 40
174.0
 50
130.5149792832882
 51
229.5272896246037
  0
ARC
  8
DETAIL
  6
CONTINUOUS
 62
     5
 10
0.0
 20
-0.0000000000002274
 30
0.0
 40
174.0
 50
310.51497928328808
 51
49.527196844282983
  0
ARC
  8
DETAIL
  6
CONTINUOUS
 62
     5
 10
0.0
 20
-0.0000000000002274
 30
0.0
 40
174.0
 50
230.51503089059369
 51
306.73410679630729
  0
ARC
  8
DETAIL
  6
CONTINUOUS
 62
     5
 10
0.0
 20
-0.0000000000002274
 30
0.0
 40
152.5
 50
310.58771516048938
 51
49.460507907896641
  0
ARC
  8
DETAIL
  6
CONTINUOUS
 62
     5
 10
0.0
 20
-0.0000000000002274
 30
0.0
 40
152.5
 50
230.58770109120249
 51
306.27316194889607
  0
ARC
  8
DETAIL
  6
CONTINUOUS
 62
     5
 10
0.0
 20
-0.0000000000002274
 30
0.0
 40
152.5
 50
130.58771516048941
 51
229.46050790789729
  0
ARC
  8
DETAIL
  6
CONTINUOUS
 62
     5
 10
0.0
 20
-0.0000000000002274
 30
0.0
 40
152.5
 50
50.587701091202497
 51
129.46053418721539
  0
ARC
  8
DETAIL
  6
CONTINUOUS
 62
     5
 10
0.0
 20
-0.0000000000002274
 30
0.0
 40
63.5
 50
234.064856615005
 51
266.2156527380115
  0
ARC
  8
DETAIL
  6
CONTINUOUS
 62
     5
 10
0.0
 20
-0.0000000000002274
 30
0.0
 40
63.5
 50
273.43928277750598
 51
305.93514338499511
  0
ARC
  8
DETAIL
  6
CONTINUOUS
 62
     5
 10
0.0
 20
-0.0000000000002274
 30
0.0
 40
63.5
 50
54.06485661500497
 51
125.935143384995
  0
ARC
  8
DETAIL
  6
CONTINUOUS
 62
     5
 10
0.0
 20
-0.0000000000002274
 30
0.0
 40
63.5
 50
152.28064207489311
 51
207.71935792510689
  0
ARC
  8
DETAIL
  6
CONTINUOUS
 62
     5
 10
0.0
 20
-0.0000000000002274
 30
0.0
 40
63.5
 50
332.28064207489308
 51
27.719357925106891
  0
ARC
  8
DETAIL
  6
CONTINUOUS
 62
     5
 10
0.0
 20
-0.0000000000002274
 30
0.0
 40
53.5
 50
125.1750280509212
 51
234.82497194839169
  0
ARC
  8
DETAIL
  6
CONTINUOUS
 62
     5
 10
0.0
 20
-0.0000000000002274
 30
0.0
 40
53.5
 50
305.17502805160979
 51
54.82497194907728
  0
CIRCLE
  8
DETAIL
  6
CONTINUOUS
 62
     5
 10
0.0
 20
-0.0000000000002274
 30
0.0
 40
49.5
  0
ARC
  8
DETAIL
  6
CONTINUOUS
 62
     5
 10
66.835357554999064
 20
-35.118157418000237
 30
0.0
 40
12.0
 50
152.28064207489311
 51
196.86373931729051
  0
ARC
  8
DETAIL
  6
CONTINUOUS
 62
     5
 10
60.094063260996343
 20
-64.586269575000301
 30
0.0
 40
3.0
 50
309.99999999998391
 51
16.863739317290548
  0
ARC
  8
DETAIL
  6
CONTINUOUS
 62
     5
 10
7.5
 20
-50.700000000000273
 30
0.0
 40
1.0
 50
270.0
 51
0.0
  0
ARC
  8
DETAIL
  6
CONTINUOUS
 62
     5
 10
7.5
 20
-52.700000000000273
 30
0.0
 40
1.0
 50
90.0
 51
180.0
  0
ARC
  8
DETAIL
  6
CONTINUOUS
 62
     5
 10
45.064839896997
 20
-66.618692610000267
 30
0.0
 40
0.2
 50
129.99999999998391
 51
220.00000000000301
  0
ARC
  8
DETAIL
  6
CONTINUOUS
 62
     5
 10
51.235600949996297
 20
-73.972719263000272
 30
0.0
 40
0.2
 50
220.00000000000301
 51
309.99999999998391
  0
ARC
  8
DETAIL
  6
CONTINUOUS
 62
     5
 10
53.993360945998568
 20
-71.658683869000242
 30
0.0
 40
0.2
 50
309.99999999988921
 51
40.000000000003013
  0
ARC
  8
DETAIL
  6
CONTINUOUS
 62
     5
 10
47.822599892999278
 20
-64.304657215000248
 30
0.0
 40
0.2
 50
40.000000000003013
 51
129.99999999998391
  0
ARC
  8
DETAIL
  6
CONTINUOUS
 62
     5
 10
35.423025751999383
 20
-55.128025963000248
 30
0.0
 40
0.2
 50
129.99999999998391
 51
220.00000000000301
  0
ARC
  8
DETAIL
  6
CONTINUOUS
 62
     5
 10
41.593786804998672
 20
-62.482052617000193
 30
0.0
 40
0.2
 50
220.00000000000301
 51
309.99999999998391
  0
ARC
  8
DETAIL
  6
CONTINUOUS
 62
     5
 10
44.351546800000513
 20
-60.168017222000287
 30
0.0
 40
0.2
 50
309.99999999988921
 51
40.000000000003013
  0
ARC
  8
DETAIL
  6
CONTINUOUS
 62
     5
 10
38.180785746997572
 20
-52.813990568000243
 30
0.0
 40
0.2
 50
40.000000000003013
 51
130.0000000000903
  0
ARC
  8
DETAIL
  6
CONTINUOUS
 62
     5
 10
200.0
 20
-200.00000000000031
 30
0.0
 40
10.0
 50
270.0
 51
0.0
  0
ARC
  8
DETAIL
  6
CONTINUOUS
 62
     5
 10
192.5
 20
-192.50000000000031
 30
0.0
 40
8.0
 50
270.0
 51
0.0
  0
ARC
  8
DETAIL
  6
CONTINUOUS
 62
     5
 10
178.3994949370026
 20
-193.50000000000031
 30
0.0
 40
7.0
 50
135.00000000000921
 51
270.0
  0
ARC
  8
DETAIL
  6
CONTINUOUS
 62
     5
 10
193.49999999999639
 20
-178.3994949360002
 30
0.0
 40
7.0
 50
0.0
 51
135.00000000000921
  0
CIRCLE
  8
DETAIL
  6
CONTINUOUS
 62
     5
 10
190.0
 20
-190.00000000000031
 30
0.0
 40
5.0
  0
ARC
  8
DETAIL
  6
CONTINUOUS
 62
     5
 10
131.17571841700189
 20
-165.5271141220002
 30
0.0
 40
4.0
 50
220.00000000000301
 51
40.000000000003013
  0
ARC
  8
DETAIL
  6
CONTINUOUS
 62
     5
 10
162.08253778599831
 20
-153.39165333400021
 30
0.0
 40
3.0
 50
309.99999999998391
 51
40.000000000003013
  0
ARC
  8
DETAIL
  6
CONTINUOUS
 62
     5
 10
149.86957320199869
 20
-138.83680891400019
 30
0.0
 40
3.0
 50
40.000000000003013
 51
129.99999999998391
  0
ARC
  8
DETAIL
  6
CONTINUOUS
 62
     5
 10
168.59999999999849
 20
-69.300000000000296
 30
0.0
 40
9.0
 50
180.0
 51
195.88085000829889
  0
ARC
  8
DETAIL
  6
CONTINUOUS
 62
     5
 10
168.59999999999849
 20
-94.300000000000296
 30
0.0
 40
9.0
 50
164.11914999170111
 51
195.88085000829889
  0
CIRCLE
  8
DETAIL
  6
CONTINUOUS
 62
     5
 10
184.5
 20
-106.0000000000003
 30
0.0
 40
4.6999999999999993
  0
ARC
  8
DETAIL
  6
CONTINUOUS
 62
     5
 10
203.2000000000007
 20
-109.4253981630002
 30
0.0
 40
2.0
 50
270.0
 51
0.0
  0
ARC
  8
DETAIL
  6
CONTINUOUS
 62
     5
 10
179.5
 20
-109.4253981630002
 30
0.0
 40
2.0
 50
180.0
 51
270.0
  0
ARC
  8
DETAIL
  6
CONTINUOUS
 62
     5
 10
175.5
 20
-102.5000000000003
 30
0.0
 40
2.0
 50
0.0
 51
90.0
  0
ARC
  8
DETAIL
  6
CONTINUOUS
 62
     5
 10
181.80000000000291
 20
-108.7000000000003
 30
0.0
 40
2.0
 50
180.0
 51
270.0
  0
ARC
  8
DETAIL
  6
CONTINUOUS
 62
     5
 10
189.7999999999993
 20
-108.7000000000003
 30
0.0
 40
2.0
 50
270.0
 51
0.0
  0
ARC
  8
DETAIL
  6
CONTINUOUS
 62
     5
 10
160.99999999999639
 20
-75.550000000000296
 30
0.0
 40
1.8
 50
90.0
 51
180.0
  0
ARC
  8
DETAIL
  6
CONTINUOUS
 62
     5
 10
160.99999999999639
 20
-88.050000000000296
 30
0.0
 40
1.8
 50
180.0
 51
270.0
  0
ARC
  8
DETAIL
  6
CONTINUOUS
 62
     5
 10
161.1938872759965
 20
-71.407010753000293
 30
0.0
 40
1.3
 50
195.88085000591079
 51
264.99999999639078
  0
ARC
  8
DETAIL
  6
CONTINUOUS
 62
     5
 10
161.1938872759965
 20
-92.192989246000252
 30
0.0
 40
1.3
 50
95.000000003609131
 51
164.11914999408921
  0
ARC
  8
DETAIL
  6
CONTINUOUS
 62
     5
 10
161.1938872759965
 20
-96.407010753000293
 30
0.0
 40
1.3
 50
195.88085000591079
 51
264.99999999639078
  0
ARC
  8
DETAIL
  6
CONTINUOUS
 62
     5
 10
164.30000000000291
 20
-100.5000000000002
 30
0.0
 40
1.3
 50
180.0
 51
270.0
  0
ARC
  8
DETAIL
  6
CONTINUOUS
 62
     5
 10
206.80000000000291
 20
-99.200000000000273
 30
0.0
 40
1.3
 50
270.0
 51
0.0
  0
ARC
  8
DETAIL
  6
CONTINUOUS
 62
     5
 10
160.99999999999639
 20
-91.050000000000296
 30
0.0
 40
1.2
 50
33.523099347903489
 51
90.0
  0
ARC
  8
DETAIL
  6
CONTINUOUS
 62
     5
 10
160.99999999999639
 20
-72.550000000000296
 30
0.0
 40
1.2
 50
270.0
 51
326.4769006520965
  0
ARC
  8
DETAIL
  6
CONTINUOUS
 62
     5
 10
163.0
 20
-98.200000000000273
 30
0.0
 40
1.0
 50
180.0
 51
270.0
  0
ARC
  8
DETAIL
  6
CONTINUOUS
 62
     5
 10
164.30000000000291
 20
-100.5000000000002
 30
0.0
 40
0.5
 50
180.0
 51
270.0
  0
ARC
  8
DETAIL
  6
CONTINUOUS
 62
     5
 10
206.80000000000291
 20
-99.200000000000273
 30
0.0
 40
0.5
 50
270.0
 51
0.0
  0
ARC
  8
DETAIL
  6
CONTINUOUS
 62
     5
 10
158.0
 20
-87.250000000000284
 30
0.0
 40
0.3
 50
180.0
 51
270.0
  0
ARC
  8
DETAIL
  6
CONTINUOUS
 62
     5
 10
158.0
 20
-76.35000000000025
 30
0.0
 40
0.3
 50
90.0
 51
180.0
  0
ARC
  8
DETAIL
  6
CONTINUOUS
 62
     5
 10
66.835357554999064
 20
35.118157418999772
 30
0.0
 40
12.0
 50
163.13626068270949
 51
207.71935792510689
  0
ARC
  8
DETAIL
  6
CONTINUOUS
 62
     5
 10
200.0
 20
199.9999999999998
 30
0.0
 40
10.0
 50
0.0
 51
90.0
  0
ARC
  8
DETAIL
  6
CONTINUOUS
 62
     5
 10
192.5
 20
192.4999999999998
 30
0.0
 40
8.0
 50
0.0
 51
90.0
  0
ARC
  8
DETAIL
  6
CONTINUOUS
 62
     5
 10
193.49999999999639
 20
178.39949493699979
 30
0.0
 40
7.0
 50
224.99999999999079
 51
0.0
  0
ARC
  8
DETAIL
  6
CONTINUOUS
 62
     5
 10
178.3994949370026
 20
193.4999999999998
 30
0.0
 40
7.0
 50
90.0
 51
224.99999999999079
  0
CIRCLE
  8
DETAIL
  6
CONTINUOUS
 62
     5
 10
190.0
 20
189.9999999999998
 30
0.0
 40
5.0
  0
CIRCLE
  8
DETAIL
  6
CONTINUOUS
 62
     5
 10
184.5
 20
32.999999999999773
 30
0.0
 40
4.6999999999999993
  0
ARC
  8
DETAIL
  6
CONTINUOUS
 62
     5
 10
122.9159521330002
 20
186.25632091199981
 30
0.0
 40
3.0
 50
50.000000000016072
 51
139.99999999999699
  0
ARC
  8
DETAIL
  6
CONTINUOUS
 62
     5
 10
110.7029875490007
 20
171.70147649199981
 30
0.0
 40
3.0
 50
139.99999999999699
 51
230.000000000016
  0
ARC
  8
DETAIL
  6
CONTINUOUS
 62
     5
 10
60.094063260996343
 20
64.586269574999733
 30
0.0
 40
3.0
 50
343.13626068270952
 51
50.000000000016072
  0
ARC
  8
DETAIL
  6
CONTINUOUS
 62
     5
 10
179.5
 20
36.425398163999724
 30
0.0
 40
2.0
 50
90.0
 51
180.0
  0
ARC
  8
DETAIL
  6
CONTINUOUS
 62
     5
 10
203.2000000000007
 20
36.425398163999724
 30
0.0
 40
2.0
 50
0.0
 51
90.0
  0
ARC
  8
DETAIL
  6
CONTINUOUS
 62
     5
 10
175.5
 20
29.499999999999769
 30
0.0
 40
2.0
 50
270.0
 51
0.0
  0
ARC
  8
DETAIL
  6
CONTINUOUS
 62
     5
 10
189.7999999999993
 20
35.699999999999818
 30
0.0
 40
2.0
 50
0.0
 51
90.0
  0
ARC
  8
DETAIL
  6
CONTINUOUS
 62
     5
 10
181.80000000000291
 20
35.699999999999818
 30
0.0
 40
2.0
 50
90.0
 51
180.0
  0
ARC
  8
DETAIL
  6
CONTINUOUS
 62
     5
 10
206.80000000000291
 20
26.199999999999761
 30
0.0
 40
1.3
 50
0.0
 51
90.0
  0
ARC
  8
DETAIL
  6
CONTINUOUS
 62
     5
 10
206.80000000000291
 20
26.199999999999761
 30
0.0
 40
0.5
 50
0.0
 51
90.0
  0
ARC
  8
DETAIL
  6
CONTINUOUS
 62
     5
 10
51.235600949996297
 20
73.972719263999693
 30
0.0
 40
0.2
 50
50.000000000016072
 51
140.00000000008541
  0
ARC
  8
DETAIL
  6
CONTINUOUS
 62
     5
 10
45.064839896997
 20
66.618692609999698
 30
0.0
 40
0.2
 50
140.00000000008541
 51
230.000000000016
  0
ARC
  8
DETAIL
  6
CONTINUOUS
 62
     5
 10
47.822599892999278
 20
64.304657214999736
 30
0.0
 40
0.2
 50
230.000000000016
 51
319.99999999990968
  0
ARC
  8
DETAIL
  6
CONTINUOUS
 62
     5
 10
53.993360945998568
 20
71.658683868999731
 30
0.0
 40
0.2
 50
319.99999999999699
 51
50.000000000016072
  0
ARC
  8
DETAIL
  6
CONTINUOUS
 62
     5
 10
41.593786804998672
 20
62.482052616999788
 30
0.0
 40
0.2
 50
50.000000000016072
 51
140.00000000008541
  0
ARC
  8
DETAIL
  6
CONTINUOUS
 62
     5
 10
35.423025751999383
 20
55.1280259629998
 30
0.0
 40
0.2
 50
140.00000000008541
 51
230.000000000016
  0
ARC
  8
DETAIL
  6
CONTINUOUS
 62
     5
 10
38.180785746997572
 20
52.813990568999706
 30
0.0
 40
0.2
 50
230.000000000016
 51
319.99999999990968
  0
ARC
  8
DETAIL
  6
CONTINUOUS
 62
     5
 10
44.351546800000513
 20
60.168017222999772
 30
0.0
 40
0.2
 50
319.99999999990968
 51
50.000000000016072
  0
LINE
  8
BASIS
  6
DASHDOT
 62
     6
 10
-229.19834019000339
 20
-0.0000000000002274
 30
0.0
 11
229.1983401899997
 21
-0.0000000000002274
 31
0.0
  0
LINE
  8
DETAIL
  6
CONTINUOUS
 62
     5
 10
-145.62583398000061
 20
171.11668929599981
 30
0.0
 11
-35.572662331170257
 21
39.960426607739329
 31
0.0
  0
LINE
  8
SIZE
  6
CONTINUOUS
 62
    30
 10
-210.0
 20
219.9999999999998
 30
0.0
 11
-210.0
 21
414.32528551114262
 31
0.0
  0
LINE
  8
SIZE
  6
CONTINUOUS
 62
    30
 10
210.0
 20
219.9999999999998
 30
0.0
 11
210.0
 21
414.32528551114262
 31
0.0
  0
LINE
  8
SIZE
  6
CONTINUOUS
 62
    30
 10
-198.0
 20
394.32528551114262
 30
0.0
 11
198.0
 21
394.32528551114262
 31
0.0
  0
CIRCLE
  8
SIZE
  6
CONTINUOUS
 62
    30
 10
-210.0
 20
394.32528551114262
 30
0.0
 40
6.0
  0
LINE
  8
SIZE
  6
CONTINUOUS
 62
    30
 10
-210.0
 20
394.32528551114262
 30
0.0
 11
-198.0
 21
394.32528551114262
 31
0.0
  0
CIRCLE
  8
SIZE
  6
CONTINUOUS
 62
    30
 10
210.0
 20
394.32528551114262
 30
0.0
 40
6.0
  0
LINE
  8
SIZE
  6
CONTINUOUS
 62
    30
 10
210.0
 20
394.32528551114262
 30
0.0
 11
198.0
 21
394.32528551114262
 31
0.0
  0
TEXT
  8
SIZE
  6
CONTINUOUS
 62
    30
 10
-81.504000000000005
 20
419.32528551114262
 30
0.0
 40
64.0
  1
420
 50
0.0
 41
0.9
 51
0.0
  7
STANDARD
 71
     0
 72
     1
 11
0.0
 21
419.32528551114262
 31
0.0
210
0.0
220
0.0
230
1.0
  0
POINT
  8
DEFPOINTS
  6
CONTINUOUS
 62
    30
 10
-210.0
 20
199.9999999999998
 30
0.0
  0
POINT
  8
DEFPOINTS
  6
CONTINUOUS
 62
    30
 10
210.0
 20
199.9999999999998
 30
0.0
  0
POINT
  8
DEFPOINTS
  6
CONTINUOUS
 62
    30
 10
210.0
 20
394.32528551114262
 30
0.0
  0
ARC
  8
DETAIL
  6
CONTINUOUS
 62
     5
 10
0.0
 20
-0.0000000000002274
 30
0.0
 40
150.0
 50
122.24504928433581
 51
129.4515461878641
  0
ARC
  8
DETAIL
  6
CONTINUOUS
 62
     5
 10
0.0
 20
-0.0000000000002274
 30
0.0
 40
150.0
 50
130.5974809823492
 51
199.23898450601999
  0
ARC
  8
DETAIL
  6
CONTINUOUS
 62
     5
 10
-83.738171235578648
 20
45.721426152505273
 30
0.0
 40
111.37207933922041
 50
238.68508933452401
 51
280.74737900812079
  0
ARC
  8
DETAIL
  6
CONTINUOUS
 62
     5
 10
20.80368043146655
 20
86.68696513782362
 30
0.0
 40
99.582009001028453
 50
159.6452934815556
 51
174.84310024843481
  0
ARC
  8
DETAIL
  6
CONTINUOUS
 62
     5
 10
20.80368043146655
 20
86.68696513782362
 30
0.0
 40
99.582009001028453
 50
177.33203941575849
 51
217.67667786423721
  0
ARC
  8
DETAIL
  6
CONTINUOUS
 62
     5
 10
-77.311995443929845
 20
122.68688262470729
 30
0.0
 40
4.9861748355289324
 50
17.47434829142378
 51
123.3314491608656
  0
ARC
  8
DETAIL
  6
CONTINUOUS
 62
     5
 10
-77.462198976890249
 20
122.761652762512
 30
0.0
 40
5.1083216636824016
 50
343.66210809667427
 51
16.16842077116895
  0
ARC
  8
DETAIL
  6
CONTINUOUS
 62
     5
 10
0.0
 20
-0.0000000000002274
 30
0.0
 40
150.0
 50
242.24504928433441
 51
306.21425608751571
  0
ARC
  8
DETAIL
  6
CONTINUOUS
 62
     5
 10
0.0
 20
-0.0000000000002274
 30
0.0
 40
150.0
 50
310.59748098269557
 51
319.23898450601729
  0
ARC
  8
DETAIL
  6
CONTINUOUS
 62
     5
 10
2.2731690724654068
 20
-95.380096632715436
 30
0.0
 40
111.37207933922041
 50
358.68508933452011
 51
56.676220996521288
  0
ARC
  8
DETAIL
  6
CONTINUOUS
 62
     5
 10
-85.474954202064964
 20
-25.32696682304891
 30
0.0
 40
99.582009001028453
 50
279.64529348155628
 51
330.89511217619952
  0
ARC
  8
DETAIL
  6
CONTINUOUS
 62
     5
 10
-67.59395934215172
 20
-128.29759338406399
 30
0.0
 40
4.9861748355289324
 50
137.47434829141471
 51
243.33144916085919
  0
ARC
  8
DETAIL
  6
CONTINUOUS
 62
     5
 10
-67.583610414454597
 20
-128.46505852824831
 30
0.0
 40
5.1083216636824016
 50
103.6621080966688
 51
136.16842077115189
  0
ARC
  8
DETAIL
  6
CONTINUOUS
 62
     5
 10
0.0
 20
-0.0000000000002274
 30
0.0
 40
150.0
 50
2.2450492843355598
 51
49.451546188137662
  0
ARC
  8
DETAIL
  6
CONTINUOUS
 62
     5
 10
0.0
 20
-0.0000000000002274
 30
0.0
 40
150.0
 50
50.597480982574623
 51
79.238984506021225
  0
ARC
  8
DETAIL
  6
CONTINUOUS
 62
     5
 10
81.46500216311324
 20
49.65867048020948
 30
0.0
 40
111.37207933922041
 50
118.68508933453511
 51
176.67622099651581
  0
ARC
  8
DETAIL
  6
CONTINUOUS
 62
     5
 10
64.671273770598418
 20
-61.359998314775453
 30
0.0
 40
99.582009001028453
 50
39.645293481566753
 51
95.497744916915153
  0
ARC
  8
DETAIL
  6
CONTINUOUS
 62
     5
 10
144.90595478608159
 20
5.6107107593560386
 30
0.0
 40
4.9861748355289324
 50
257.47434829142242
 51
3.3314491608625452
  0
ARC
  8
DETAIL
  6
CONTINUOUS
 62
     5
 10
145.04580939134479
 20
5.7034057657355666
 30
0.0
 40
5.1083216636824016
 50
223.66210809666441
 51
256.16842077116229
  0
ARC
  8
DETAIL
  6
CONTINUOUS
 62
     5
 10
51.85851053110764
 20
-95.692777085765783
 30
0.0
 40
11.95794384789135
 50
38.275595749338443
 51
80.005148868336832
  0
ARC
  8
DETAIL
  6
CONTINUOUS
 62
     5
 10
51.691582906518761
 20
-95.971938205778315
 30
0.0
 40
20.262383416944171
 50
38.943642229848813
 51
79.431312343920851
  0
ARC
  8
DETAIL
  6
CONTINUOUS
 62
     5
 10
5.7850256423112114
 20
-64.740398529145864
 30
0.0
 40
9.9758464229353709
 50
179.8042804312573
 51
259.15645726888908
  0
ARC
  8
DETAIL
  6
CONTINUOUS
 62
     5
 10
5.7872700747720964
 20
-64.738683082465172
 30
0.0
 40
1.9782973591899371
 50
179.06269934442659
 51
258.1893225935853
  0
ARC
  8
OUTLINE
  6
CONTINUOUS
 62
     3
 10
-200.0
 20
199.9999999999998
 30
0.0
 40
9.9999999999999982
 50
90.0
 51
180.0
  0
LINE
  8
OUTLINE
  6
CONTINUOUS
 62
     3
 10
-200.0
 20
209.9999999999998
 30
0.0
 11
200.0
 21
209.9999999999998
 31
0.0
  0
ARC
  8
OUTLINE
  6
CONTINUOUS
 62
     3
 10
200.0
 20
199.9999999999998
 30
0.0
 40
9.9999999999999982
 50
0.0
 51
90.0
  0
LINE
  8
OUTLINE
  6
CONTINUOUS
 62
     3
 10
210.0
 20
199.9999999999998
 30
0.0
 11
210.0
 21
-200.00000000000031
 31
0.0
  0
ARC
  8
OUTLINE
  6
CONTINUOUS
 62
     3
 10
200.0
 20
-200.00000000000031
 30
0.0
 40
9.9999999999999982
 50
270.0
 51
0.0
  0
LINE
  8
OUTLINE
  6
CONTINUOUS
 62
     3
 10
200.0
 20
-210.00000000000031
 30
0.0
 11
128.11986641999471
 21
-210.00000000000031
 31
0.0
  0
LINE
  8
OUTLINE
  6
CONTINUOUS
 62
     3
 10
128.11986641999471
 20
-210.00000000000031
 30
0.0
 11
-200.0
 21
-210.00000000000031
 31
0.0
  0
ARC
  8
OUTLINE
  6
CONTINUOUS
 62
     3
 10
-200.0
 20
-200.00000000000031
 30
0.0
 40
9.9999999999999982
 50
180.0
 51
270.0
  0
LINE
  8
OUTLINE
  6
CONTINUOUS
 62
     3
 10
-210.0
 20
-200.00000000000031
 30
0.0
 11
-210.0
 21
199.9999999999998
 31
0.0
  0
CIRCLE
  8
FIX
  6
CONTINUOUS
 62
    11
 10
-190.0
 20
189.9999999999998
 30
0.0
 40
5.0
  0
CIRCLE
  8
FIX
  6
CONTINUOUS
 62
    11
 10
190.0
 20
189.9999999999998
 30
0.0
 40
5.0
  0
CIRCLE
  8
FIX
  6
CONTINUOUS
 62
    11
 10
190.0
 20
-190.00000000000031
 30
0.0
 40
5.0
  0
CIRCLE
  8
FIX
  6
CONTINUOUS
 62
    11
 10
-190.0
 20
-190.00000000000031
 30
0.0
 40
5.0
  0
LINE
  8
SIZE
  6
CONTINUOUS
 62
    30
 10
-230.00000000000011
 20
189.9999999999998
 30
0.0
 11
-305.28414060788532
 21
189.9999999999998
 31
0.0
  0
LINE
  8
SIZE
  6
CONTINUOUS
 62
    30
 10
-230.00000000000011
 20
-190.0000000000004
 30
0.0
 11
-305.28414060788521
 21
-190.0000000000004
 31
0.0
  0
LINE
  8
SIZE
  6
CONTINUOUS
 62
    30
 10
-285.28414060788532
 20
177.9999999999998
 30
0.0
 11
-285.28414060788521
 21
-178.0000000000004
 31
0.0
  0
CIRCLE
  8
SIZE
  6
CONTINUOUS
 62
    30
 10
-285.28414060788532
 20
189.9999999999998
 30
0.0
 40
6.0
  0
LINE
  8
SIZE
  6
CONTINUOUS
 62
    30
 10
-285.28414060788532
 20
189.9999999999998
 30
0.0
 11
-285.28414060788532
 21
177.9999999999998
 31
0.0
  0
CIRCLE
  8
SIZE
  6
CONTINUOUS
 62
    30
 10
-285.28414060788521
 20
-190.0000000000004
 30
0.0
 40
6.0
  0
LINE
  8
SIZE
  6
CONTINUOUS
 62
    30
 10
-285.28414060788521
 20
-190.0000000000004
 30
0.0
 11
-285.28414060788521
 21
-178.0000000000004
 31
0.0
  0
TEXT
  8
SIZE
  6
CONTINUOUS
 62
    30
 10
-310.28414060788521
 20
-80.928000000000196
 30
0.0
 40
64.0
  1
380
 50
90.0
 41
0.9
 51
0.0
  7
STANDARD
 71
     0
 72
     1
 11
-310.28414060788521
 21
-0.0000000000002049
 31
0.0
210
0.0
220
0.0
230
1.0
  0
POINT
  8
DEFPOINTS
  6
CONTINUOUS
 62
    30
 10
-210.00000000000011
 20
189.9999999999998
 30
0.0
  0
POINT
  8
DEFPOINTS
  6
CONTINUOUS
 62
    30
 10
-210.00000000000011
 20
-190.0000000000004
 30
0.0
  0
POINT
  8
DEFPOINTS
  6
CONTINUOUS
 62
    30
 10
-285.28414060788521
 20
-190.0000000000004
 30
0.0
  0
LINE
  8
BASIS
  6
DASHDOT
 62
     6
 10
-190.0
 20
169.9999999999998
 30
0.0
 11
-190.0
 21
209.9999999999998
 31
0.0
  0
LINE
  8
BASIS
  6
DASHDOT
 62
     6
 10
-210.0
 20
189.9999999999998
 30
0.0
 11
-170.0
 21
189.9999999999998
 31
0.0
  0
LINE
  8
BASIS
  6
DASHDOT
 62
     6
 10
190.0
 20
169.9999999999998
 30
0.0
 11
190.0
 21
209.9999999999998
 31
0.0
  0
LINE
  8
BASIS
  6
DASHDOT
 62
     6
 10
170.0
 20
189.9999999999998
 30
0.0
 11
210.0
 21
189.9999999999998
 31
0.0
  0
LINE
  8
BASIS
  6
DASHDOT
 62
     6
 10
-190.0
 20
-210.00000000000031
 30
0.0
 11
-190.0
 21
-170.00000000000031
 31
0.0
  0
LINE
  8
BASIS
  6
DASHDOT
 62
     6
 10
-210.0
 20
-190.00000000000031
 30
0.0
 11
-170.0
 21
-190.00000000000031
 31
0.0
  0
LINE
  8
BASIS
  6
DASHDOT
 62
     6
 10
190.0
 20
-210.00000000000031
 30
0.0
 11
190.0
 21
-170.00000000000031
 31
0.0
  0
LINE
  8
BASIS
  6
DASHDOT
 62
     6
 10
170.0
 20
-190.00000000000031
 30
0.0
 11
210.0
 21
-190.00000000000031
 31
0.0
  0
LINE
  8
SIZE
  6
CONTINUOUS
 62
    30
 10
-220.00000000000011
 20
209.99999999999989
 30
0.0
 11
-428.022210469458
 21
209.99999999999989
 31
0.0
  0
LINE
  8
SIZE
  6
CONTINUOUS
 62
    30
 10
-220.00000000000011
 20
-210.0000000000004
 30
0.0
 11
-428.02221046945789
 21
-210.0000000000004
 31
0.0
  0
LINE
  8
SIZE
  6
CONTINUOUS
 62
    30
 10
-408.022210469458
 20
197.99999999999989
 30
0.0
 11
-408.02221046945789
 21
-198.0000000000004
 31
0.0
  0
CIRCLE
  8
SIZE
  6
CONTINUOUS
 62
    30
 10
-408.022210469458
 20
209.99999999999989
 30
0.0
 40
6.0
  0
LINE
  8
SIZE
  6
CONTINUOUS
 62
    30
 10
-408.022210469458
 20
209.99999999999989
 30
0.0
 11
-408.022210469458
 21
197.99999999999989
 31
0.0
  0
CIRCLE
  8
SIZE
  6
CONTINUOUS
 62
    30
 10
-408.02221046945789
 20
-210.0000000000004
 30
0.0
 40
6.0
  0
LINE
  8
SIZE
  6
CONTINUOUS
 62
    30
 10
-408.02221046945789
 20
-210.0000000000004
 30
0.0
 11
-408.02221046945789
 21
-198.0000000000004
 31
0.0
  0
TEXT
  8
SIZE
  6
CONTINUOUS
 62
    30
 10
-433.02221046945778
 20
-81.504000000000133
 30
0.0
 40
64.0
  1
420
 50
90.0
 41
0.9
 51
0.0
  7
STANDARD
 71
     0
 72
     1
 11
-433.02221046945778
 21
-0.0000000000001121
 31
0.0
210
0.0
220
0.0
230
1.0
  0
POINT
  8
DEFPOINTS
  6
CONTINUOUS
 62
    30
 10
-200.00000000000011
 20
209.99999999999989
 30
0.0
  0
POINT
  8
DEFPOINTS
  6
CONTINUOUS
 62
    30
 10
-200.00000000000011
 20
-210.0000000000004
 30
0.0
  0
POINT
  8
DEFPOINTS
  6
CONTINUOUS
 62
    30
 10
-408.02221046945789
 20
-210.0000000000004
 30
0.0
  0
LINE
  8
SIZE
  6
CONTINUOUS
 62
    30
 10
-190.0
 20
229.9999999999998
 30
0.0
 11
-190.0
 21
306.46370904123103
 31
0.0
  0
LINE
  8
SIZE
  6
CONTINUOUS
 62
    30
 10
190.0
 20
229.9999999999998
 30
0.0
 11
190.0
 21
306.46370904123103
 31
0.0
  0
LINE
  8
SIZE
  6
CONTINUOUS
 62
    30
 10
-178.0
 20
286.46370904123103
 30
0.0
 11
178.0
 21
286.46370904123103
 31
0.0
  0
CIRCLE
  8
SIZE
  6
CONTINUOUS
 62
    30
 10
-190.0
 20
286.46370904123103
 30
0.0
 40
6.0
  0
LINE
  8
SIZE
  6
CONTINUOUS
 62
    30
 10
-190.0
 20
286.46370904123103
 30
0.0
 11
-178.0
 21
286.46370904123103
 31
0.0
  0
CIRCLE
  8
SIZE
  6
CONTINUOUS
 62
    30
 10
190.0
 20
286.46370904123103
 30
0.0
 40
6.0
  0
LINE
  8
SIZE
  6
CONTINUOUS
 62
    30
 10
190.0
 20
286.46370904123103
 30
0.0
 11
178.0
 21
286.46370904123103
 31
0.0
  0
TEXT
  8
SIZE
  6
CONTINUOUS
 62
    30
 10
-80.927999999999997
 20
311.46370904123103
 30
0.0
 40
64.0
  1
380
 50
0.0
 41
0.9
 51
0.0
  7
STANDARD
 71
     0
 72
     1
 11
0.0
 21
311.46370904123103
 31
0.0
210
0.0
220
0.0
230
1.0
  0
POINT
  8
DEFPOINTS
  6
CONTINUOUS
 62
    30
 10
-190.0
 20
209.9999999999998
 30
0.0
  0
POINT
  8
DEFPOINTS
  6
CONTINUOUS
 62
    30
 10
190.0
 20
209.9999999999998
 30
0.0
  0
POINT
  8
DEFPOINTS
  6
CONTINUOUS
 62
    30
 10
190.0
 20
286.46370904123103
 30
0.0
  0
LINE
  8
SIZE
  6
CONTINUOUS
 62
    30
 10
455.6890139478333
 20
259.32532516026492
 30
0.0
 11
161.65623976384771
 21
91.995978963286234
 31
0.0
  0
LINE
  8
SIZE
  6
CONTINUOUS
 62
    30
 10
-161.65623976384779
 20
-91.995978963286575
 30
0.0
 11
-172.08567458732179
 21
-97.931203412530849
 31
0.0
  0
TEXT
  8
SIZE
  6
CONTINUOUS
 62
    30
 10
234.21180824223913
 20
162.05093364954544
 30
0.0
 40
64.0
  1
φ348
 50
29.643511660400122
 41
0.9
 51
0.0
  7
STANDARD
 71
     0
 72
     1
 11
334.58468898335332
 21
219.1715337490723
 31
0.0
210
0.0
220
0.0
230
1.0
  0
LINE
  8
SIZE
  6
CONTINUOUS
 62
    30
 10
-151.2268049403738
 20
-86.060754514042287
 30
0.0
 11
151.2268049403736
 21
86.06075451404196
 31
0.0
  0
CIRCLE
  8
SIZE
  6
CONTINUOUS
 62
    30
 10
-151.2268049403738
 20
-86.060754514042287
 30
0.0
 40
6.0
  0
LINE
  8
SIZE
  6
CONTINUOUS
 62
    30
 10
-151.2268049403738
 20
-86.060754514042287
 30
0.0
 11
-161.65623976384782
 21
-91.995978963286561
 31
0.0
  0
CIRCLE
  8
SIZE
  6
CONTINUOUS
 62
    30
 10
151.2268049403736
 20
86.06075451404196
 30
0.0
 40
6.0
  0
LINE
  8
SIZE
  6
CONTINUOUS
 62
    30
 10
151.2268049403736
 20
86.06075451404196
 30
0.0
 11
161.65623976384762
 21
91.995978963286248
 31
0.0
  0
POINT
  8
DEFPOINTS
  6
CONTINUOUS
 62
    30
 10
151.2268049403736
 20
86.06075451404196
 30
0.0
  0
POINT
  8
DEFPOINTS
  6
CONTINUOUS
 62
    30
 10
-151.2268049403738
 20
-86.060754514042287
 30
0.0
  0
LINE
  8
SIZE
  6
CONTINUOUS
 62
    30
 10
471.60386995061469
 20
-97.299504060879045
 30
0.0
 11
161.10686549555581
 21
-33.238951400381687
 31
0.0
  0
LINE
  8
SIZE
  6
CONTINUOUS
 62
    30
 10
-161.10686549555541
 20
33.238951400381147
 30
0.0
 11
-172.85934200586951
 21
35.663677338402898
 31
0.0
  0
TEXT
  8
SIZE
  6
CONTINUOUS
 62
    30
 10
241.01598972274132
 20
-24.198961087829034
 30
0.0
 40
64.0
  1
φ305
 50
348.34252291297753
 41
0.9
 51
0.0
  7
STANDARD
 71
     0
 72
     1
 11
354.12182365800419
 21
-47.53452351535033
 31
0.0
210
0.0
220
0.0
230
1.0
  0
LINE
  8
SIZE
  6
CONTINUOUS
 62
    30
 10
-149.35438898524129
 20
30.81422546235941
 30
0.0
 11
149.35438898524171
 21
-30.81422546235995
 31
0.0
  0
CIRCLE
  8
SIZE
  6
CONTINUOUS
 62
    30
 10
-149.35438898524129
 20
30.81422546235941
 30
0.0
 40
6.0
  0
LINE
  8
SIZE
  6
CONTINUOUS
 62
    30
 10
-149.35438898524129
 20
30.81422546235941
 30
0.0
 11
-161.10686549555538
 21
33.238951400381154
 31
0.0
  0
CIRCLE
  8
SIZE
  6
CONTINUOUS
 62
    30
 10
149.35438898524171
 20
-30.81422546235995
 30
0.0
 40
6.0
  0
LINE
  8
SIZE
  6
CONTINUOUS
 62
    30
 10
149.35438898524171
 20
-30.81422546235995
 30
0.0
 11
161.10686549555581
 21
-33.238951400381687
 31
0.0
  0
POINT
  8
DEFPOINTS
  6
CONTINUOUS
 62
    30
 10
149.35438898524171
 20
-30.81422546235995
 30
0.0
  0
POINT
  8
DEFPOINTS
  6
CONTINUOUS
 62
    30
 10
-149.35438898524129
 20
30.81422546235941
 30
0.0
  0
LINE
  8
SIZE
  6
CONTINUOUS
 62
    30
 10
421.94097566619229
 20
-261.5731622714959
 30
0.0
 11
137.6886556083418
 21
-85.357097635565509
 31
0.0
  0
LINE
  8
SIZE
  6
CONTINUOUS
 62
    30
 10
-137.6886556083418
 20
85.357097635565026
 30
0.0
 11
-147.88781528303369
 21
91.679845608569863
 31
0.0
  0
TEXT
  8
SIZE
  6
CONTINUOUS
 62
    30
 10
230.12871343757865
 20
-113.24911985482231
 30
0.0
 40
64.0
  1
φ300
 50
328.20405366647566
 41
0.9
 51
0.0
  7
STANDARD
 71
     0
 72
     1
 11
328.77498581119954
 21
-174.40273824972519
 31
0.0
210
0.0
220
0.0
230
1.0
  0
LINE
  8
SIZE
  6
CONTINUOUS
 62
    30
 10
-127.48949593364981
 20
79.034349662560189
 30
0.0
 11
127.48949593364981
 21
-79.034349662560658
 31
0.0
  0
CIRCLE
  8
SIZE
  6
CONTINUOUS
 62
    30
 10
-127.48949593364981
 20
79.034349662560189
 30
0.0
 40
6.0
  0
LINE
  8
SIZE
  6
CONTINUOUS
 62
    30
 10
-127.48949593364981
 20
79.034349662560189
 30
0.0
 11
-137.6886556083418
 21
85.357097635565026
 31
0.0
  0
CIRCLE
  8
SIZE
  6
CONTINUOUS
 62
    30
 10
127.48949593364981
 20
-79.034349662560658
 30
0.0
 40
6.0
  0
LINE
  8
SIZE
  6
CONTINUOUS
 62
    30
 10
127.48949593364981
 20
-79.034349662560658
 30
0.0
 11
137.6886556083418
 21
-85.357097635565495
 31
0.0
  0
ARC
  8
SIZE
  6
CONTINUOUS
 62
    30
 10
0.000000000000016
 20
-0.000000000000244
 30
0.0
 40
149.99999999999989
 50
313.85369335591929
 51
335.84349093488663
  0
POINT
  8
DEFPOINTS
  6
CONTINUOUS
 62
    30
 10
127.48949593364981
 20
-79.034349662560658
 30
0.0
  0
POINT
  8
DEFPOINTS
  6
CONTINUOUS
 62
    30
 10
-127.48949593364981
 20
79.034349662560189
 30
0.0
  0
POINT
  8
ARRANGE
  6
CONTINUOUS
 62
     1
 10
0.0
 20
0.0
 30
0.0
  0
CIRCLE
  8
ARRANGE
  6
CONTINUOUS
 62
     1
 10
0.0
 20
0.0
 30
0.0
 40
40.0
  0
LINE
  8
SIZE
  6
CONTINUOUS
 62
    30
 10
417.08464558769953
 20
71.539115076329509
 30
0.0
 11
60.614827187188723
 21
10.396765125136231
 31
0.0
  0
LINE
  8
SIZE
  6
CONTINUOUS
 62
    30
 10
-60.614827187188247
 20
-10.39676512513684
 30
0.0
 11
-72.442110540786047
 21
-12.425402222724459
 31
0.0
  0
TEXT
  8
SIZE
  6
CONTINUOUS
 62
    30
 10
231.07072034038379
 20
64.998750132670352
 30
0.0
 40
64.0
  1
φ99
 50
9.7327683673132128
 41
0.9
 51
0.0
  7
STANDARD
 71
     0
 72
     1
 11
317.93028928920592
 21
79.897060977353831
 31
0.0
210
0.0
220
0.0
230
1.0
  0
LINE
  8
SIZE
  6
CONTINUOUS
 62
    30
 10
-48.787543833590469
 20
-8.3681280275492202
 30
0.0
 11
48.787543833590938
 21
8.3681280275486092
 31
0.0
  0
CIRCLE
  8
SIZE
  6
CONTINUOUS
 62
    30
 10
-48.787543833590469
 20
-8.3681280275492202
 30
0.0
 40
6.0
  0
LINE
  8
SIZE
  6
CONTINUOUS
 62
    30
 10
-48.787543833590469
 20
-8.3681280275492202
 30
0.0
 11
-60.614827187188254
 21
-10.396765125136836
 31
0.0
  0
CIRCLE
  8
SIZE
  6
CONTINUOUS
 62
    30
 10
48.787543833590938
 20
8.3681280275486092
 30
0.0
 40
6.0
  0
LINE
  8
SIZE
  6
CONTINUOUS
 62
    30
 10
48.787543833590938
 20
8.3681280275486092
 30
0.0
 11
60.614827187188723
 21
10.396765125136229
 31
0.0
  0
POINT
  8
DEFPOINTS
  6
CONTINUOUS
 62
    30
 10
48.787543833590938
 20
8.3681280275486092
 30
0.0
  0
POINT
  8
DEFPOINTS
  6
CONTINUOUS
 62
    30
 10
-48.787543833590469
 20
-8.3681280275492202
 30
0.0
  0
TEXT
  8
ETC
  6
CONTINUOUS
 62
    61
 10
494.52140268184888
 20
440.11232349529422
 30
0.0
 40
64.0
  1
EF-30BSXC2-Q_2
 41
0.9
  0
TEXT
  8
ETC
  6
CONTINUOUS
 62
    61
 10
490.33540868184849
 20
322.15701348046298
 30
0.0
 40
64.0
  1
有圧換気扇
 41
0.9
  0
TEXT
  8
ETC
  6
CONTINUOUS
 62
    61
 10
541.03680693040451
 20
214.00824059423769
 30
0.0
 40
40.0
  1
EF-30BSXC2-Q
 50
0.0
 41
0.9
 51
0.0
  7
STANDARD
 71
     0
 11
0.0
 21
0.0
 31
0.0
210
0.0
220
0.0
230
1.0
  0
TEXT
  8
ETC
  6
CONTINUOUS
 62
    61
 10
541.03680693040451
 20
148.00824059423769
 30
0.0
 40
40.0
  1
EF-30BSXC2-FQ
 50
0.0
 41
0.9
 51
0.0
  7
STANDARD
 71
     0
 11
0.0
 21
0.0
 31
0.0
210
0.0
220
0.0
230
1.0
  0
TEXT
  8
ETC
  6
CONTINUOUS
 62
    61
 10
541.03680693040451
 20
82.008240594237691
 30
0.0
 40
40.0
  1
EF-30BTXC2-Q
 50
0.0
 41
0.9
 51
0.0
  7
STANDARD
 71
     0
 11
0.0
 21
0.0
 31
0.0
210
0.0
220
0.0
230
1.0
  0
TEXT
  8
ETC
  6
CONTINUOUS
 62
    61
 10
541.03680693040451
 20
16.008240594237691
 30
0.0
 40
40.0
  1
EF-30BTXC2-FQ
 50
0.0
 41
0.9
 51
0.0
  7
STANDARD
 71
     0
 11
0.0
 21
0.0
 31
0.0
210
0.0
220
0.0
230
1.0
  0
ARC
  8
DETAIL
  6
CONTINUOUS
 62
     5
 10
0.0
 20
-0.0000000000002274
 30
0.0
 40
174.0
 50
50.515067414891767
 51
129.3059570417268
  0
TEXT
  8
NOTE
  6
CONTINUOUS
 62
     4
 10
-553.41835559004426
 20
-338.19421081441328
 30
0.0
 40
64.0
  1
4-φ10
 50
0.0
 41
0.9
 51
0.0
  7
STANDARD
 71
     0
 72
     2
 11
-261.38635559004427
 21
-338.19421081441328
 31
0.0
210
0.0
220
0.0
230
1.0
  0
LINE
  8
NOTE
  6
CONTINUOUS
 62
     4
 10
-261.29635559004458
 20
-350.99421081441329
 30
0.0
 11
-530.18635559004451
 21
-350.99421081441329
 31
0.0
  0
LINE
  8
NOTE
  6
CONTINUOUS
 62
     4
 10
-206.76666223634874
 20
-216.14376636412999
 30
0.0
 11
-190.0
 21
-190.00000000000031
 31
0.0
  0
LINE
  8
NOTE
  6
CONTINUOUS
 62
     4
 10
-190.0
 20
-190.00000000000031
 30
0.0
 11
-191.4484254991134
 21
-221.02449912284706
 31
0.0
  0
LINE
  8
NOTE
  6
CONTINUOUS
 62
     4
 10
-190.0
 20
-190.00000000000031
 30
0.0
 11
-208.21508773546211
 21
-247.16826548697671
 31
0.0
  0
LINE
  8
NOTE
  6
CONTINUOUS
 62
     4
 10
-208.21508773546211
 20
-247.16826548697671
 30
0.0
 11
-241.29635559004461
 21
-350.99421081441329
 31
0.0
  0
LINE
  8
NOTE
  6
CONTINUOUS
 62
     4
 10
-241.29635559004461
 20
-350.99421081441329
 30
0.0
 11
-261.29635559004458
 21
-350.99421081441329
 31
0.0
  0
TEXT
  8
NOTE
  6
CONTINUOUS
 62
     4
 10
235.4346865529933
 20
-378.65493186404831
 30
0.0
 40
64.0
  1
EL
 50
0.0
 41
0.9
 51
0.0
  7
STANDARD
 71
     0
 11
0.0
 21
0.0
 31
0.0
210
0.0
220
0.0
230
1.0
  0
LINE
  8
NOTE
  6
CONTINUOUS
 62
     4
 10
235.34468655299321
 20
-391.45493186404821
 30
0.0
 11
320.4632579815646
 21
-391.45493186404821
 31
0.0
  0
LINE
  8
NOTE
  6
CONTINUOUS
 62
     4
 10
132.52156780460427
 20
-277.24061442934175
 30
0.0
 11
123.08832349833941
 21
-247.6495450990806
 31
0.0
  0
LINE
  8
NOTE
  6
CONTINUOUS
 62
     4
 10
123.08832349833941
 20
-247.6495450990806
 30
0.0
 11
146.05331888296109
 21
-268.55950610416869
 31
0.0
  0
LINE
  8
NOTE
  6
CONTINUOUS
 62
     4
 10
123.08832349833941
 20
-247.6495450990806
 30
0.0
 11
155.48656318922596
 21
-298.15057543442981
 31
0.0
  0
LINE
  8
NOTE
  6
CONTINUOUS
 62
     4
 10
155.4865631892259
 20
-298.15057543442992
 30
0.0
 11
215.34468655299321
 21
-391.45493186404821
 31
0.0
  0
LINE
  8
NOTE
  6
CONTINUOUS
 62
     4
 10
215.34468655299321
 20
-391.45493186404821
 30
0.0
 11
235.34468655299321
 21
-391.45493186404821
 31
0.0
  0
ENDSEC
  0
EOF
