  0
SECTION
  2
HEADER
  9
$ACADVER
  1
AC1009
  9
$DWGCODEPAGE
  3
dos932
  9
$INSBASE
 10
0.0
 20
0.0
 30
0.0
  9
$EXTMIN
 10
-497.14506385748427
 20
-391.57103315411592
 30
-0.000000000000013
  9
$EXTMAX
 10
1238.1042598608219
 20
504.36402159319732
 30
0.0000000000000023
  9
$LIMMIN
 10
-2970.0
 20
-2100.0
  9
$LIMMAX
 10
2970.0
 20
2100.0
  9
$ORTHOMODE
 70
     1
  9
$REGENMODE
 70
     1
  9
$FILLMODE
 70
     1
  9
$QTEXTMODE
 70
     0
  9
$MIRRTEXT
 70
     0
  9
$LTSCALE
 40
20.0
  9
$ATTMODE
 70
     1
  9
$TEXTSIZE
 40
64.0
  9
$TRACEWID
 40
0.05
  9
$TEXTSTYLE
  7
STANDARD
  9
$CLAYER
  8
SIZE
  9
$CELTYPE
  6
CONTINUOUS
  9
$CECOLOR
 62
     7
  9
$DIMSCALE
 40
1.0
  9
$DIMASZ
 40
12.0
  9
$DIMEXO
 40
20.0
  9
$DIMDLI
 40
200.0
  9
$DIMRND
 40
0.0
  9
$DIMDLE
 40
0.0
  9
$DIMEXE
 40
20.0
  9
$DIMTP
 40
0.0
  9
$DIMTM
 40
0.0
  9
$DIMTXT
 40
64.0
  9
$DIMCEN
 40
0.09
  9
$DIMTSZ
 40
0.0
  9
$DIMTOL
 70
     0
  9
$DIMLIM
 70
     0
  9
$DIMTIH
 70
     0
  9
$DIMTOH
 70
     0
  9
$DIMSE1
 70
     0
  9
$DIMSE2
 70
     0
  9
$DIMTAD
 70
     1
  9
$DIMZIN
 70
     8
  9
$DIMBLK
  1

  9
$DIMASO
 70
     1
  9
$DIMSHO
 70
     0
  9
$DIMPOST
  1

  9
$DIMAPOST
  1

  9
$DIMALT
 70
     0
  9
$DIMALTD
 70
     2
  9
$DIMALTF
 40
25.399999999999999
  9
$DIMLFAC
 40
1.0
  9
$DIMTOFL
 70
     1
  9
$DIMTVP
 40
0.0
  9
$DIMTIX
 70
     1
  9
$DIMSOXD
 70
     0
  9
$DIMSAH
 70
     0
  9
$DIMBLK1
  1

  9
$DIMBLK2
  1

  9
$DIMSTYLE
  2
STANDARD
  9
$DIMCLRD
 70
     7
  9
$DIMCLRE
 70
     7
  9
$DIMCLRT
 70
     7
  9
$DIMTFAC
 40
1.0
  9
$DIMGAP
 40
25.0
  9
$LUNITS
 70
     2
  9
$LUPREC
 70
     4
  9
$SKETCHINC
 40
0.1
  9
$FILLETRAD
 40
3.0
  9
$AUNITS
 70
     1
  9
$AUPREC
 70
     3
  9
$MENU
  1
ACAD
  9
$ELEVATION
 40
0.0
  9
$PELEVATION
 40
0.0
  9
$THICKNESS
 40
0.0
  9
$LIMCHECK
 70
     0
  9
$CHAMFERA
 40
0.0
  9
$CHAMFERB
 40
0.0
  9
$SKPOLY
 70
     0
  9
$TDCREATE
 40
2453019.62301037
  9
$TDUPDATE
 40
2459362.65542735
  9
$TDINDWG
 40
1.8512891319
  9
$TDUSRTIMER
 40
1.8512891319
  9
$USRTIMER
 70
     1
  9
$ANGBASE
 50
0.0
  9
$ANGDIR
 70
     0
  9
$PDMODE
 70
     3
  9
$PDSIZE
 40
-2.0
  9
$PLINEWID
 40
0.0
  9
$SPLFRAME
 70
     0
  9
$SPLINETYPE
 70
     6
  9
$SPLINESEGS
 70
     8
  9
$SURFTAB1
 70
     6
  9
$SURFTAB2
 70
     6
  9
$SURFTYPE
 70
     6
  9
$SURFU
 70
     6
  9
$SURFV
 70
     6
  9
$UCSNAME
  2

  9
$UCSORG
 10
0.0
 20
0.0
 30
0.0
  9
$UCSXDIR
 10
1.0
 20
0.0
 30
0.0
  9
$UCSYDIR
 10
0.0
 20
1.0
 30
0.0
  9
$PUCSNAME
  2

  9
$PUCSORG
 10
0.0
 20
0.0
 30
0.0
  9
$PUCSXDIR
 10
1.0
 20
0.0
 30
0.0
  9
$PUCSYDIR
 10
0.0
 20
1.0
 30
0.0
  9
$USERI1
 70
     0
  9
$USERI2
 70
     0
  9
$USERI3
 70
     0
  9
$USERI4
 70
     0
  9
$USERI5
 70
     0
  9
$USERR1
 40
20.0
  9
$USERR2
 40
0.0
  9
$USERR3
 40
0.0
  9
$USERR4
 40
0.0
  9
$USERR5
 40
0.0
  9
$WORLDVIEW
 70
     1
  9
$SHADEDGE
 70
     3
  9
$SHADEDIF
 70
    70
  9
$TILEMODE
 70
     1
  9
$MAXACTVP
 70
    48
  9
$PINSBASE
 10
0.0
 20
0.0
 30
0.0
  9
$PLIMCHECK
 70
     0
  9
$PEXTMIN
 10
-100000000000000000000.0
 20
-100000000000000000000.0
 30
-100000000000000000000.0
  9
$PEXTMAX
 10
100000000000000000000.0
 20
100000000000000000000.0
 30
100000000000000000000.0
  9
$PLIMMIN
 10
0.0
 20
0.0
  9
$PLIMMAX
 10
12.0
 20
9.0
  9
$UNITMODE
 70
     0
  9
$VISRETAIN
 70
     0
  9
$PLINEGEN
 70
     0
  9
$PSLTSCALE
 70
     0
  9
$TREEDEPTH
 70
  3020
  9
$ATTDIA
 70
     0
  9
$ATTREQ
 70
     1
  9
$BLIPMODE
 70
     1
  9
$COORDS
 70
     1
  9
$DRAGMODE
 70
     2
  9
$OSMODE
 70
     0
  9
$HANDLING
 70
     0
  9
$HANDSEED
  5
F919
  0
ENDSEC
  0
SECTION
  2
TABLES
  0
TABLE
  2
LTYPE
 70
     2
  0
LTYPE
  2
CONTINUOUS
 70
     0
  3
実線
 72
    65
 73
     0
 40
0.0
  0
LTYPE
  2
DASHDOT
 70
     0
  3
____ _ ____ _ ____ _ ____ _ ____ _ ____ _ ____
 72
    65
 73
     4
 40
5.5
 49
4.0
 49
-0.6
 49
0.3
 49
-0.6
  0
ENDTAB
  0
TABLE
  2
LAYER
 70
    12
  0
LAYER
  2
0
 70
     0
 62
     7
  6
CONTINUOUS
  0
LAYER
  2
BASIS
 70
     0
 62
     6
  6
DASHDOT
  0
LAYER
  2
OUTLINE
 70
     0
 62
     3
  6
CONTINUOUS
  0
LAYER
  2
DETAIL
 70
     0
 62
     5
  6
CONTINUOUS
  0
LAYER
  2
SIZE
 70
     0
 62
    30
  6
CONTINUOUS
  0
LAYER
  2
ARRANGE
 70
     0
 62
     1
  6
CONTINUOUS
  0
LAYER
  2
DEFPOINTS
 70
     0
 62
     7
  6
CONTINUOUS
  0
LAYER
  2
ETC
 70
     0
 62
    61
  6
CONTINUOUS
  0
LAYER
  2
FIX
 70
     0
 62
    11
  6
CONTINUOUS
  0
LAYER
  2
NOTE
 70
     0
 62
     4
  6
CONTINUOUS
  0
LAYER
  2
SERVICESPACE
 70
    64
 62
     2
  6
DASHDOT
  0
LAYER
  2
SYMBOLLINE
 70
    64
 62
    15
  6
CONTINUOUS
  0
ENDTAB
  0
TABLE
  2
STYLE
 70
     1
  0
STYLE
  2
STANDARD
 70
     0
 40
64.0
 41
0.9
 50
0.0
 71
     0
 42
64.0
  3
SIMPLEX.shx
  4
BIGFONT.shx
  0
ENDTAB
  0
TABLE
  2
APPID
 70
    20
  0
APPID
  2
ACAD
 70
     0
  0
APPID
  2
AUTOCAD_POSTSCRIPT_FIGURE
 70
     0
  0
APPID
  2
ACAD_EXEMPT_FROM_CAD_STANDARDS
 70
     0
  0
APPID
  2
ACAD_PSEXT
 70
     0
  0
APPID
  2
ACAUTHENVIRON
 70
     0
  0
APPID
  2
GENIUS_GENOENT_13
 70
     0
  0
APPID
  2
GENIUS_GENCFG_13
 70
     0
  0
APPID
  2
GENIUS_GENCFG0_13
 70
     0
  0
APPID
  2
GENIUS_GENCFG1_13
 70
     0
  0
APPID
  2
GENIUS_GENCFG2_13
 70
     0
  0
APPID
  2
GENIUS_GENCFG3_13
 70
     0
  0
APPID
  2
GENIUS_GENCFG4_13
 70
     0
  0
APPID
  2
GENIUS_GEVCFG0_13
 70
     0
  0
APPID
  2
CONTENTBLOCKICON
 70
     0
  0
APPID
  2
CONTENTBLOCKDESCRIPTION
 70
     0
  0
APPID
  2
ACAD_NAV_VCDISPLAY
 70
     0
  0
APPID
  2
ACAD_MLEADERVER
 70
     0
  0
APPID
  2
ACDBDYNAMICBLOCKTRUENAME
 70
     0
  0
APPID
  2
ACDBDYNAMICBLOCKGUID
 70
     0
  0
APPID
  2
ACAD_DSTYLE_DIMRADIAL_EXTENSION
 70
     0
  0
ENDTAB
  0
TABLE
  2
DIMSTYLE
 70
     1
  0
DIMSTYLE
  2
STANDARD
 70
     0
  3

  4

  5
_ORIGIN
  6

  7

 40
1.0
 41
12.0
 42
20.0
 43
200.0
 44
20.0
 45
0.0
 46
0.0
 47
0.0
 48
0.0
140
64.0
141
0.09
142
0.0
143
25.399999999999999
144
1.0
145
0.0
146
1.0
147
25.0
 71
     0
 72
     0
 73
     0
 74
     0
 75
     0
 76
     0
 77
     1
 78
     8
170
     0
171
     2
172
     1
173
     0
174
     1
175
     0
176
     7
177
     7
178
     7
  0
ENDTAB
  0
TABLE
  2
VIEW
 70
     1
  0
VIEW
  2
ALL
 70
     0
 40
4282.6198079999986
 10
0.0
 20
41.309904000000003
 41
5940.0
 11
0.0
 21
0.0
 31
1.0
 12
0.0
 22
0.0
 32
0.0
 42
50.0
 43
0.0
 44
0.0
 50
0.0
 71
     0
  0
ENDTAB
  0
TABLE
  2
UCS
 70
     0
  0
ENDTAB
  0
TABLE
  2
VPORT
 70
     1
  0
VPORT
  2
*ACTIVE
 70
     0
 10
0.0
 20
0.0
 11
1.0
 21
1.0
 12
370.47959800166882
 22
56.396494219540727
 13
0.0
 23
0.0
 14
1.0
 24
1.0
 15
0.0
 25
0.0
 16
0.0
 26
0.0
 36
1.0
 17
0.0
 27
0.0
 37
0.0
 40
938.21664900935048
 41
1.833137485311398
 42
50.0
 43
0.0
 44
0.0
 50
0.0
 51
0.0
 71
     0
 72
  1000
 73
     1
 74
     3
 75
     0
 76
     0
 77
     0
 78
     0
  0
ENDTAB
  0
ENDSEC
  0
SECTION
  2
BLOCKS
  0
BLOCK
  8
0
  2
_ORIGIN
 70
     0
 10
0.0
 20
0.0
 30
0.0
  3
_ORIGIN
  1
_ORIGIN
  0
CIRCLE
  8
SIZE
  6
CONTINUOUS
 62
    30
 10
0.0
 20
0.0
 30
0.0
 40
0.5
  0
LINE
  8
SIZE
  6
CONTINUOUS
 62
    30
 10
0.0
 20
0.0
 30
0.0
 11
-1.0
 21
0.0
 31
0.0
  0
ENDBLK
  8
0
  0
ENDSEC
  0
SECTION
  2
ENTITIES
  0
LINE
  8
DETAIL
  6
CONTINUOUS
 62
     5
 10
200.0
 20
-210.0000000000002
 30
0.0
 11
-200.0
 21
-210.0000000000002
 31
0.0
  0
LINE
  8
DETAIL
  6
CONTINUOUS
 62
     5
 10
173.44974746799929
 20
188.5502525319998
 30
0.0
 11
188.5502525310003
 21
173.4497474689999
 31
0.0
  0
LINE
  8
DETAIL
  6
CONTINUOUS
 62
     5
 10
188.5502525310003
 20
-173.4497474680002
 30
0.0
 11
173.44974746799929
 21
-188.5502525310003
 31
0.0
  0
LINE
  8
DETAIL
  6
CONTINUOUS
 62
     5
 10
210.0
 20
200.0
 30
0.0
 11
210.0
 21
-200.0000000000002
 31
0.0
  0
LINE
  8
DETAIL
  6
CONTINUOUS
 62
     5
 10
200.5
 20
-192.5000000000002
 30
0.0
 11
200.5
 21
-178.39949493600011
 31
0.0
  0
LINE
  8
DETAIL
  6
CONTINUOUS
 62
     5
 10
200.5
 20
178.3994949369999
 30
0.0
 11
200.5
 21
192.5
 31
0.0
  0
LINE
  8
DETAIL
  6
CONTINUOUS
 62
     5
 10
-192.5
 20
-200.5000000000002
 30
0.0
 11
-178.3994949370026
 21
-200.5000000000002
 31
0.0
  0
LINE
  8
DETAIL
  6
CONTINUOUS
 62
     5
 10
178.39949493599849
 20
-200.5000000000002
 30
0.0
 11
192.5
 21
-200.5000000000002
 31
0.0
  0
LINE
  8
BASIS
  6
DASHDOT
 62
     6
 10
0.0
 20
229.19834019000001
 30
0.0
 11
0.0
 21
-229.19834019000021
 31
0.0
  0
LINE
  8
DETAIL
  6
CONTINUOUS
 62
     5
 10
99.120672698398721
 20
-115.8936678331345
 30
0.0
 11
53.436319081322381
 21
-61.449175284470812
 31
0.0
  0
LINE
  8
DETAIL
  6
CONTINUOUS
 62
     5
 10
96.821727859105522
 20
-117.8210635428884
 30
0.0
 11
48.144446947381311
 21
-59.809739138310313
 31
0.0
  0
LINE
  8
DETAIL
  6
CONTINUOUS
 62
     5
 10
78.375249914606229
 20
95.637735612469442
 30
0.0
 11
39.706670333654529
 21
49.554316976571037
 31
0.0
  0
LINE
  8
DETAIL
  6
CONTINUOUS
 62
     5
 10
192.5
 20
200.5
 30
0.0
 11
178.39949493599849
 21
200.5
 31
0.0
  0
LINE
  8
DETAIL
  6
CONTINUOUS
 62
     5
 10
-178.3994949370026
 20
200.5
 30
0.0
 11
-192.5
 21
200.5
 31
0.0
  0
LINE
  8
DETAIL
  6
CONTINUOUS
 62
     5
 10
-200.5
 20
192.5
 30
0.0
 11
-200.5
 21
178.3994949369999
 31
0.0
  0
LINE
  8
DETAIL
  6
CONTINUOUS
 62
     5
 10
-200.5
 20
-178.39949493600011
 30
0.0
 11
-200.5
 21
-192.5000000000002
 31
0.0
  0
LINE
  8
DETAIL
  6
CONTINUOUS
 62
     5
 10
-210.0
 20
-200.0000000000002
 30
0.0
 11
-210.0
 21
200.0
 31
0.0
  0
LINE
  8
DETAIL
  6
CONTINUOUS
 62
     5
 10
-200.0
 20
210.0
 30
0.0
 11
200.0
 21
210.0
 31
0.0
  0
LINE
  8
DETAIL
  6
CONTINUOUS
 62
     5
 10
-173.4497474689997
 20
-188.5502525310003
 30
0.0
 11
-188.5502525319971
 21
-173.4497474680002
 31
0.0
  0
LINE
  8
DETAIL
  6
CONTINUOUS
 62
     5
 10
-188.5502525319971
 20
173.4497474689999
 30
0.0
 11
-173.4497474689997
 21
188.5502525319998
 31
0.0
  0
ARC
  8
DETAIL
  6
CONTINUOUS
 62
     5
 10
200.0
 20
-200.0000000000002
 30
0.0
 40
10.0
 50
270.0
 51
0.0
  0
ARC
  8
DETAIL
  6
CONTINUOUS
 62
     5
 10
192.5
 20
-192.5000000000002
 30
0.0
 40
8.0
 50
270.0
 51
0.0
  0
ARC
  8
DETAIL
  6
CONTINUOUS
 62
     5
 10
193.5
 20
-178.39949493600011
 30
0.0
 40
7.0
 50
0.0
 51
135.00000000000921
  0
ARC
  8
DETAIL
  6
CONTINUOUS
 62
     5
 10
178.39949493599849
 20
-193.5000000000002
 30
0.0
 40
7.0
 50
135.00000000000921
 51
270.0
  0
CIRCLE
  8
DETAIL
  6
CONTINUOUS
 62
     5
 10
190.0
 20
-190.0000000000002
 30
0.0
 40
5.0
  0
ARC
  8
DETAIL
  6
CONTINUOUS
 62
     5
 10
200.0
 20
200.0
 30
0.0
 40
10.0
 50
0.0
 51
90.0
  0
ARC
  8
DETAIL
  6
CONTINUOUS
 62
     5
 10
192.5
 20
192.5
 30
0.0
 40
8.0
 50
0.0
 51
90.0
  0
ARC
  8
DETAIL
  6
CONTINUOUS
 62
     5
 10
178.39949493599849
 20
193.4999999999998
 30
0.0
 40
7.0
 50
90.0
 51
224.99999999999079
  0
ARC
  8
DETAIL
  6
CONTINUOUS
 62
     5
 10
193.5
 20
178.3994949369999
 30
0.0
 40
7.0
 50
224.99999999999079
 51
0.0
  0
CIRCLE
  8
DETAIL
  6
CONTINUOUS
 62
     5
 10
190.0
 20
190.0
 30
0.0
 40
5.0
  0
ARC
  8
DETAIL
  6
CONTINUOUS
 62
     5
 10
-200.0
 20
-200.0000000000002
 30
0.0
 40
10.0
 50
180.0
 51
270.0
  0
ARC
  8
DETAIL
  6
CONTINUOUS
 62
     5
 10
-192.5
 20
-192.5000000000002
 30
0.0
 40
8.0
 50
180.0
 51
270.0
  0
ARC
  8
DETAIL
  6
CONTINUOUS
 62
     5
 10
-178.3994949370026
 20
-193.5000000000002
 30
0.0
 40
7.0
 50
270.0
 51
44.999999999990777
  0
ARC
  8
DETAIL
  6
CONTINUOUS
 62
     5
 10
-193.49999999999639
 20
-178.39949493600011
 30
0.0
 40
7.0
 50
44.999999999990777
 51
180.0
  0
CIRCLE
  8
DETAIL
  6
CONTINUOUS
 62
     5
 10
-190.0
 20
-190.0000000000002
 30
0.0
 40
5.0
  0
ARC
  8
DETAIL
  6
CONTINUOUS
 62
     5
 10
-200.0
 20
200.0
 30
0.0
 40
10.0
 50
90.0
 51
180.0
  0
ARC
  8
DETAIL
  6
CONTINUOUS
 62
     5
 10
-192.5
 20
192.5
 30
0.0
 40
8.0
 50
90.0
 51
180.0
  0
ARC
  8
DETAIL
  6
CONTINUOUS
 62
     5
 10
-193.49999999999639
 20
178.3994949369999
 30
0.0
 40
7.0
 50
180.0
 51
315.00000000000921
  0
ARC
  8
DETAIL
  6
CONTINUOUS
 62
     5
 10
-178.3994949370026
 20
193.4999999999998
 30
0.0
 40
7.0
 50
315.00000000000921
 51
90.0
  0
CIRCLE
  8
DETAIL
  6
CONTINUOUS
 62
     5
 10
-190.0
 20
190.0
 30
0.0
 40
5.0
  0
LINE
  8
BASIS
  6
DASHDOT
 62
     6
 10
229.19834019000339
 20
0.0
 30
0.0
 11
-229.1983401899997
 21
0.0
 31
0.0
  0
LINE
  8
DETAIL
  6
CONTINUOUS
 62
     5
 10
78.670387686259801
 20
91.322295632063287
 30
0.0
 11
42.00285431117527
 21
47.623631000944897
 31
0.0
  0
LINE
  8
SIZE
  6
CONTINUOUS
 62
    30
 10
-210.0
 20
220.0
 30
0.0
 11
-210.0
 21
414.32528551114268
 31
0.0
  0
LINE
  8
SIZE
  6
CONTINUOUS
 62
    30
 10
210.0
 20
220.0
 30
0.0
 11
210.0
 21
414.32528551114268
 31
0.0
  0
LINE
  8
SIZE
  6
CONTINUOUS
 62
    30
 10
-198.0
 20
394.32528551114268
 30
0.0
 11
198.0
 21
394.32528551114268
 31
0.0
  0
CIRCLE
  8
SIZE
  6
CONTINUOUS
 62
    30
 10
-210.0
 20
394.32528551114268
 30
0.0
 40
6.0
  0
LINE
  8
SIZE
  6
CONTINUOUS
 62
    30
 10
-210.0
 20
394.32528551114268
 30
0.0
 11
-198.0
 21
394.32528551114268
 31
0.0
  0
CIRCLE
  8
SIZE
  6
CONTINUOUS
 62
    30
 10
210.0
 20
394.32528551114268
 30
0.0
 40
6.0
  0
LINE
  8
SIZE
  6
CONTINUOUS
 62
    30
 10
210.0
 20
394.32528551114268
 30
0.0
 11
198.0
 21
394.32528551114268
 31
0.0
  0
TEXT
  8
SIZE
  6
CONTINUOUS
 62
    30
 10
-81.504000000000005
 20
419.32528551114268
 30
0.0
 40
64.0
  1
420
 50
0.0
 41
0.9
 51
0.0
  7
STANDARD
 71
     0
 72
     1
 11
0.0
 21
419.32528551114268
 31
0.0
210
0.0
220
0.0
230
1.0
  0
POINT
  8
DEFPOINTS
  6
CONTINUOUS
 62
    30
 10
-210.0
 20
200.0
 30
0.0
  0
POINT
  8
DEFPOINTS
  6
CONTINUOUS
 62
    30
 10
210.0
 20
200.0
 30
0.0
  0
POINT
  8
DEFPOINTS
  6
CONTINUOUS
 62
    30
 10
210.0
 20
394.32528551114268
 30
0.0
  0
ARC
  8
DETAIL
  6
CONTINUOUS
 62
     5
 10
0.0
 20
0.0
 30
0.0
 40
150.0
 50
340.7610154939797
 51
57.749914700704117
  0
ARC
  8
DETAIL
  6
CONTINUOUS
 62
     5
 10
83.738171235578648
 20
45.721426152505273
 30
0.0
 40
111.37207933922041
 50
243.3237790034942
 51
301.3149106654995
  0
ARC
  8
DETAIL
  6
CONTINUOUS
 62
     5
 10
-20.80368043146655
 20
86.68696513782379
 30
0.0
 40
99.582009001028453
 50
322.32332213577888
 51
20.44397596685646
  0
ARC
  8
DETAIL
  6
CONTINUOUS
 62
     5
 10
77.311995443929845
 20
122.68688262470729
 30
0.0
 40
4.9861748355289324
 50
56.668550839134383
 51
162.5256517085798
  0
ARC
  8
DETAIL
  6
CONTINUOUS
 62
     5
 10
77.462198976890249
 20
122.7616527625121
 30
0.0
 40
5.1083216636824016
 50
163.831579228838
 51
196.33789190331879
  0
ARC
  8
DETAIL
  6
CONTINUOUS
 62
     5
 10
0.0
 20
0.0
 30
0.0
 40
150.0
 50
220.7610154939843
 51
297.75495071569401
  0
ARC
  8
DETAIL
  6
CONTINUOUS
 62
     5
 10
-2.2731690724654068
 20
-95.380096632715322
 30
0.0
 40
111.37207933922041
 50
123.3237790034817
 51
181.31491066547341
  0
ARC
  8
DETAIL
  6
CONTINUOUS
 62
     5
 10
85.474954202064964
 20
-25.32696682304891
 30
0.0
 40
99.582009001028453
 50
202.32332213577351
 51
260.35470651844372
  0
ARC
  8
DETAIL
  6
CONTINUOUS
 62
     5
 10
67.59395934215172
 20
-128.2975933840639
 30
0.0
 40
4.9861748355289324
 50
296.66855083911167
 51
42.525651708580689
  0
ARC
  8
DETAIL
  6
CONTINUOUS
 62
     5
 10
67.583610414454597
 20
-128.46505852824819
 30
0.0
 40
5.1083216636824016
 50
43.831579228841818
 51
76.337891903354915
  0
ARC
  8
DETAIL
  6
CONTINUOUS
 62
     5
 10
0.0034744120825962
 20
-0.0008018482540137
 30
0.0
 40
150.00330339999999
 50
170.54828134440851
 51
177.7453490031053
  0
ARC
  8
DETAIL
  6
CONTINUOUS
 62
     5
 10
0.0
 20
0.0
 30
0.0
 40
150.0
 50
100.7610154939788
 51
177.75495071566439
  0
ARC
  8
DETAIL
  6
CONTINUOUS
 62
     5
 10
-81.46500216311324
 20
49.658670480209587
 30
0.0
 40
111.37207933922041
 50
3.323779003484268
 51
61.31491066546451
  0
ARC
  8
DETAIL
  6
CONTINUOUS
 62
     5
 10
-64.671273770598418
 20
-61.359998314775339
 30
0.0
 40
99.582009001028453
 50
82.323322135747347
 51
140.3547065184442
  0
ARC
  8
DETAIL
  6
CONTINUOUS
 62
     5
 10
-144.90595478608159
 20
5.6107107593561523
 30
0.0
 40
4.9861748355289324
 50
176.6685508391374
 51
282.52565170857758
  0
ARC
  8
DETAIL
  6
CONTINUOUS
 62
     5
 10
-145.04580939134479
 20
5.7034057657356243
 30
0.0
 40
5.1083216636824016
 50
283.83157922884078
 51
316.33789190330788
  0
ARC
  8
OUTLINE
  6
CONTINUOUS
 62
     3
 10
200.0
 20
200.0
 30
0.0
 40
9.9999999999999982
 50
0.0
 51
90.0
  0
LINE
  8
OUTLINE
  6
CONTINUOUS
 62
     3
 10
200.0
 20
210.0
 30
0.0
 11
-200.0
 21
210.0
 31
0.0
  0
ARC
  8
OUTLINE
  6
CONTINUOUS
 62
     3
 10
-200.0
 20
200.0
 30
0.0
 40
9.9999999999999982
 50
90.0
 51
180.0
  0
LINE
  8
OUTLINE
  6
CONTINUOUS
 62
     3
 10
-210.0
 20
200.0
 30
0.0
 11
-210.0
 21
-200.0000000000002
 31
0.0
  0
ARC
  8
OUTLINE
  6
CONTINUOUS
 62
     3
 10
-200.0
 20
-200.0000000000002
 30
0.0
 40
9.9999999999999982
 50
180.0
 51
270.0
  0
LINE
  8
OUTLINE
  6
CONTINUOUS
 62
     3
 10
-200.0
 20
-210.0000000000002
 30
0.0
 11
200.0
 21
-210.0000000000002
 31
0.0
  0
ARC
  8
OUTLINE
  6
CONTINUOUS
 62
     3
 10
200.0
 20
-200.0000000000002
 30
0.0
 40
9.9999999999999982
 50
270.0
 51
0.0
  0
LINE
  8
OUTLINE
  6
CONTINUOUS
 62
     3
 10
210.0
 20
-200.0000000000002
 30
0.0
 11
210.0
 21
200.0
 31
0.0
  0
CIRCLE
  8
FIX
  6
CONTINUOUS
 62
    11
 10
190.0
 20
190.0
 30
0.0
 40
5.0
  0
CIRCLE
  8
FIX
  6
CONTINUOUS
 62
    11
 10
-190.0
 20
190.0
 30
0.0
 40
5.0
  0
CIRCLE
  8
FIX
  6
CONTINUOUS
 62
    11
 10
-190.0
 20
-190.0000000000002
 30
0.0
 40
5.0
  0
CIRCLE
  8
FIX
  6
CONTINUOUS
 62
    11
 10
190.0
 20
-190.0000000000002
 30
0.0
 40
5.0
  0
LINE
  8
SIZE
  6
CONTINUOUS
 62
    30
 10
-230.00000000000011
 20
190.00000000000011
 30
0.0
 11
-305.28414060788339
 21
190.00000000000011
 31
0.0
  0
LINE
  8
SIZE
  6
CONTINUOUS
 62
    30
 10
-230.00000000000011
 20
-190.00000000000031
 30
0.0
 11
-305.28414060788327
 21
-190.00000000000031
 31
0.0
  0
LINE
  8
SIZE
  6
CONTINUOUS
 62
    30
 10
-285.28414060788339
 20
178.00000000000011
 30
0.0
 11
-285.28414060788327
 21
-178.00000000000031
 31
0.0
  0
CIRCLE
  8
SIZE
  6
CONTINUOUS
 62
    30
 10
-285.28414060788339
 20
190.00000000000011
 30
0.0
 40
6.0
  0
LINE
  8
SIZE
  6
CONTINUOUS
 62
    30
 10
-285.28414060788339
 20
190.00000000000011
 30
0.0
 11
-285.28414060788339
 21
178.00000000000011
 31
0.0
  0
CIRCLE
  8
SIZE
  6
CONTINUOUS
 62
    30
 10
-285.28414060788327
 20
-190.00000000000031
 30
0.0
 40
6.0
  0
LINE
  8
SIZE
  6
CONTINUOUS
 62
    30
 10
-285.28414060788327
 20
-190.00000000000031
 30
0.0
 11
-285.28414060788327
 21
-178.00000000000031
 31
0.0
  0
TEXT
  8
SIZE
  6
CONTINUOUS
 62
    30
 10
-310.28414060788327
 20
-80.928000000000026
 30
0.0
 40
64.0
  1
380
 50
90.0
 41
0.9
 51
0.0
  7
STANDARD
 71
     0
 72
     1
 11
-310.28414060788327
 21
-0.0000000000000344
 31
0.0
210
0.0
220
0.0
230
1.0
  0
POINT
  8
DEFPOINTS
  6
CONTINUOUS
 62
    30
 10
-210.00000000000011
 20
190.00000000000011
 30
0.0
  0
POINT
  8
DEFPOINTS
  6
CONTINUOUS
 62
    30
 10
-210.00000000000011
 20
-190.00000000000031
 30
0.0
  0
POINT
  8
DEFPOINTS
  6
CONTINUOUS
 62
    30
 10
-285.28414060788327
 20
-190.00000000000031
 30
0.0
  0
LINE
  8
BASIS
  6
DASHDOT
 62
     6
 10
190.0
 20
170.0
 30
0.0
 11
190.0
 21
210.0
 31
0.0
  0
LINE
  8
BASIS
  6
DASHDOT
 62
     6
 10
210.0
 20
190.0
 30
0.0
 11
170.0
 21
190.0
 31
0.0
  0
LINE
  8
BASIS
  6
DASHDOT
 62
     6
 10
-190.0
 20
170.0
 30
0.0
 11
-190.0
 21
210.0
 31
0.0
  0
LINE
  8
BASIS
  6
DASHDOT
 62
     6
 10
-170.0
 20
190.0
 30
0.0
 11
-210.0
 21
190.0
 31
0.0
  0
LINE
  8
BASIS
  6
DASHDOT
 62
     6
 10
190.0
 20
-210.0000000000002
 30
0.0
 11
190.0
 21
-170.0000000000002
 31
0.0
  0
LINE
  8
BASIS
  6
DASHDOT
 62
     6
 10
210.0
 20
-190.0000000000002
 30
0.0
 11
170.0
 21
-190.0000000000002
 31
0.0
  0
LINE
  8
BASIS
  6
DASHDOT
 62
     6
 10
-190.0
 20
-210.0000000000002
 30
0.0
 11
-190.0
 21
-170.0000000000002
 31
0.0
  0
LINE
  8
BASIS
  6
DASHDOT
 62
     6
 10
-170.0
 20
-190.0000000000002
 30
0.0
 11
-210.0
 21
-190.0000000000002
 31
0.0
  0
LINE
  8
SIZE
  6
CONTINUOUS
 62
    30
 10
-220.00000000000011
 20
210.00000000000011
 30
0.0
 11
-428.02221046945613
 21
210.00000000000011
 31
0.0
  0
LINE
  8
SIZE
  6
CONTINUOUS
 62
    30
 10
-220.00000000000011
 20
-210.00000000000031
 30
0.0
 11
-428.02221046945601
 21
-210.0000000000004
 31
0.0
  0
LINE
  8
SIZE
  6
CONTINUOUS
 62
    30
 10
-408.02221046945613
 20
198.00000000000011
 30
0.0
 11
-408.02221046945601
 21
-198.0000000000004
 31
0.0
  0
CIRCLE
  8
SIZE
  6
CONTINUOUS
 62
    30
 10
-408.02221046945613
 20
210.00000000000011
 30
0.0
 40
6.0
  0
LINE
  8
SIZE
  6
CONTINUOUS
 62
    30
 10
-408.02221046945613
 20
210.00000000000011
 30
0.0
 11
-408.02221046945613
 21
198.00000000000011
 31
0.0
  0
CIRCLE
  8
SIZE
  6
CONTINUOUS
 62
    30
 10
-408.02221046945601
 20
-210.0000000000004
 30
0.0
 40
6.0
  0
LINE
  8
SIZE
  6
CONTINUOUS
 62
    30
 10
-408.02221046945601
 20
-210.0000000000004
 30
0.0
 11
-408.02221046945601
 21
-198.0000000000004
 31
0.0
  0
TEXT
  8
SIZE
  6
CONTINUOUS
 62
    30
 10
-433.02221046945601
 20
-81.504000000000048
 30
0.0
 40
64.0
  1
420
 50
90.0
 41
0.9
 51
0.0
  7
STANDARD
 71
     0
 72
     1
 11
-433.02221046945601
 21
-0.0000000000000269
 31
0.0
210
0.0
220
0.0
230
1.0
  0
POINT
  8
DEFPOINTS
  6
CONTINUOUS
 62
    30
 10
-200.00000000000011
 20
210.00000000000011
 30
0.0
  0
POINT
  8
DEFPOINTS
  6
CONTINUOUS
 62
    30
 10
-200.00000000000011
 20
-210.00000000000031
 30
0.0
  0
POINT
  8
DEFPOINTS
  6
CONTINUOUS
 62
    30
 10
-408.02221046945601
 20
-210.0000000000004
 30
0.0
  0
LINE
  8
SIZE
  6
CONTINUOUS
 62
    30
 10
-190.0
 20
230.0
 30
0.0
 11
-190.0
 21
306.46370904123108
 31
0.0
  0
LINE
  8
SIZE
  6
CONTINUOUS
 62
    30
 10
190.0
 20
230.0
 30
0.0
 11
190.0
 21
306.46370904123108
 31
0.0
  0
LINE
  8
SIZE
  6
CONTINUOUS
 62
    30
 10
-178.0
 20
286.46370904123108
 30
0.0
 11
178.0
 21
286.46370904123108
 31
0.0
  0
CIRCLE
  8
SIZE
  6
CONTINUOUS
 62
    30
 10
-190.0
 20
286.46370904123108
 30
0.0
 40
6.0
  0
LINE
  8
SIZE
  6
CONTINUOUS
 62
    30
 10
-190.0
 20
286.46370904123108
 30
0.0
 11
-178.0
 21
286.46370904123108
 31
0.0
  0
CIRCLE
  8
SIZE
  6
CONTINUOUS
 62
    30
 10
190.0
 20
286.46370904123108
 30
0.0
 40
6.0
  0
LINE
  8
SIZE
  6
CONTINUOUS
 62
    30
 10
190.0
 20
286.46370904123108
 30
0.0
 11
178.0
 21
286.46370904123108
 31
0.0
  0
TEXT
  8
SIZE
  6
CONTINUOUS
 62
    30
 10
-80.927999999999997
 20
311.46370904123108
 30
0.0
 40
64.0
  1
380
 50
0.0
 41
0.9
 51
0.0
  7
STANDARD
 71
     0
 72
     1
 11
0.0
 21
311.46370904123108
 31
0.0
210
0.0
220
0.0
230
1.0
  0
POINT
  8
DEFPOINTS
  6
CONTINUOUS
 62
    30
 10
-190.0
 20
210.0
 30
0.0
  0
POINT
  8
DEFPOINTS
  6
CONTINUOUS
 62
    30
 10
190.0
 20
210.0
 30
0.0
  0
POINT
  8
DEFPOINTS
  6
CONTINUOUS
 62
    30
 10
190.0
 20
286.46370904123108
 30
0.0
  0
LINE
  8
SIZE
  6
CONTINUOUS
 62
    30
 10
470.12837138275319
 20
122.71663400583
 30
0.0
 11
159.16688307845999
 21
41.547001469276722
 31
0.0
  0
LINE
  8
SIZE
  6
CONTINUOUS
 62
    30
 10
-159.16688307845709
 20
-41.547001469277163
 30
0.0
 11
-170.77784111457569
 21
-44.57778577098734
 31
0.0
  0
TEXT
  8
SIZE
  6
CONTINUOUS
 62
    30
 10
231.01231718562457
 20
86.138327372873221
 30
0.0
 40
64.0
  1
φ305
 50
14.629368966857953
 41
0.9
 51
0.0
  7
STANDARD
 71
     0
 72
     1
 11
342.75617732522994
 21
115.30659549253207
 31
0.0
210
0.0
220
0.0
230
1.0
  0
LINE
  8
SIZE
  6
CONTINUOUS
 62
    30
 10
-147.55592504233849
 20
-38.516217167566971
 30
0.0
 11
147.55592504234141
 21
38.516217167566538
 31
0.0
  0
CIRCLE
  8
SIZE
  6
CONTINUOUS
 62
    30
 10
-147.55592504233849
 20
-38.516217167566971
 30
0.0
 40
6.0
  0
LINE
  8
SIZE
  6
CONTINUOUS
 62
    30
 10
-147.55592504233849
 20
-38.516217167566971
 30
0.0
 11
-159.16688307845709
 21
-41.547001469277156
 31
0.0
  0
CIRCLE
  8
SIZE
  6
CONTINUOUS
 62
    30
 10
147.55592504234141
 20
38.516217167566538
 30
0.0
 40
6.0
  0
LINE
  8
SIZE
  6
CONTINUOUS
 62
    30
 10
147.55592504234141
 20
38.516217167566538
 30
0.0
 11
159.16688307846002
 21
41.547001469276736
 31
0.0
  0
POINT
  8
DEFPOINTS
  6
CONTINUOUS
 62
    30
 10
147.55592504234141
 20
38.516217167566538
 30
0.0
  0
POINT
  8
DEFPOINTS
  6
CONTINUOUS
 62
    30
 10
-147.55592504233849
 20
-38.516217167566971
 30
0.0
  0
POINT
  8
ARRANGE
  6
CONTINUOUS
 62
     1
 10
0.0
 20
0.0
 30
0.0
 50
180.0
  0
CIRCLE
  8
ARRANGE
  6
CONTINUOUS
 62
     1
 10
0.0
 20
0.0
 30
0.0
 40
40.0
  0
TEXT
  8
ETC
  6
CONTINUOUS
 62
    61
 10
494.52140268184888
 20
440.11232349529428
 30
0.0
 40
64.0
  1
EF-30BSXC2-Q_3
 41
0.9
  0
TEXT
  8
ETC
  6
CONTINUOUS
 62
    61
 10
490.33540868184849
 20
322.15701348046309
 30
0.0
 40
64.0
  1
有圧換気扇
 41
0.9
  0
TEXT
  8
ETC
  6
CONTINUOUS
 62
    61
 10
541.03680693040451
 20
214.0082405942378
 30
0.0
 40
40.0
  1
EF-30BSXC2-Q
 50
0.0
 41
0.9
 51
0.0
  7
STANDARD
 71
     0
 11
0.0
 21
0.0
 31
0.0
210
0.0
220
0.0
230
1.0
  0
TEXT
  8
ETC
  6
CONTINUOUS
 62
    61
 10
541.03680693040451
 20
148.0082405942378
 30
0.0
 40
40.0
  1
EF-30BSXC2-FQ
 50
0.0
 41
0.9
 51
0.0
  7
STANDARD
 71
     0
 11
0.0
 21
0.0
 31
0.0
210
0.0
220
0.0
230
1.0
  0
TEXT
  8
ETC
  6
CONTINUOUS
 62
    61
 10
541.03680693040451
 20
82.008240594237805
 30
0.0
 40
40.0
  1
EF-30BTXC2-Q
 50
0.0
 41
0.9
 51
0.0
  7
STANDARD
 71
     0
 11
0.0
 21
0.0
 31
0.0
210
0.0
220
0.0
230
1.0
  0
TEXT
  8
ETC
  6
CONTINUOUS
 62
    61
 10
541.03680693040451
 20
16.008240594237805
 30
0.0
 40
40.0
  1
EF-30BTXC2-FQ
 50
0.0
 41
0.9
 51
0.0
  7
STANDARD
 71
     0
 11
0.0
 21
0.0
 31
0.0
210
0.0
220
0.0
230
1.0
  0
CIRCLE
  8
DETAIL
  6
CONTINUOUS
 62
     5
 10
0.0
 20
0.0
 30
0.0
 40
152.5
  0
CIRCLE
  8
DETAIL
  6
CONTINUOUS
 62
     5
 10
0.0
 20
0.0
 30
0.0
 40
63.49999999999995
  0
LINE
  8
SIZE
  6
CONTINUOUS
 62
    30
 10
471.59479177690707
 20
-88.29346626260886
 30
0.0
 11
159.23327333261301
 21
-29.81215630881837
 31
0.0
  0
LINE
  8
SIZE
  6
CONTINUOUS
 62
    30
 10
-159.2332733326125
 20
29.812156308818398
 30
0.0
 11
-171.02833061650969
 21
32.020464183545677
 31
0.0
  0
TEXT
  8
SIZE
  6
CONTINUOUS
 62
    30
 10
239.13612521324427
 20
-19.337437958149057
 30
0.0
 40
64.0
  1
φ300
 50
349.39566865894926
 41
0.9
 51
0.0
  7
STANDARD
 71
     0
 72
     1
 11
353.21791926309839
 21
-40.696191722511458
 31
0.0
210
0.0
220
0.0
230
1.0
  0
LINE
  8
SIZE
  6
CONTINUOUS
 62
    30
 10
-147.4382160487153
 20
27.603848434091109
 30
0.0
 11
147.43821604871579
 21
-27.603848434091081
 31
0.0
  0
CIRCLE
  8
SIZE
  6
CONTINUOUS
 62
    30
 10
-147.4382160487153
 20
27.603848434091109
 30
0.0
 40
6.0
  0
LINE
  8
SIZE
  6
CONTINUOUS
 62
    30
 10
-147.4382160487153
 20
27.603848434091109
 30
0.0
 11
-159.23327333261255
 21
29.812156308818395
 31
0.0
  0
CIRCLE
  8
SIZE
  6
CONTINUOUS
 62
    30
 10
147.43821604871579
 20
-27.603848434091081
 30
0.0
 40
6.0
  0
LINE
  8
SIZE
  6
CONTINUOUS
 62
    30
 10
147.43821604871579
 20
-27.603848434091081
 30
0.0
 11
159.23327333261304
 21
-29.81215630881837
 31
0.0
  0
POINT
  8
DEFPOINTS
  6
CONTINUOUS
 62
    30
 10
147.43821604871579
 20
-27.603848434091081
 30
0.0
  0
POINT
  8
DEFPOINTS
  6
CONTINUOUS
 62
    30
 10
-147.4382160487153
 20
27.603848434091109
 30
0.0
  0
LINE
  8
DETAIL
  6
CONTINUOUS
 62
     5
 10
-118.1115406439967
 20
-210.00000000000031
 30
0.0
 11
-118.1115406439967
 21
-265.01104462700022
 31
0.0
  0
LINE
  8
DETAIL
  6
CONTINUOUS
 62
     5
 10
-128.1115406439967
 20
-210.0000000000002
 30
0.0
 11
-128.1115406439967
 21
-265.01104462700022
 31
0.0
  0
LINE
  8
DETAIL
  6
CONTINUOUS
 62
     5
 10
-118.1115406439967
 20
-265.01104462700022
 30
0.0
 11
-128.1115406439967
 21
-265.01104462700022
 31
0.0
  0
TEXT
  8
NOTE
  6
CONTINUOUS
 62
     4
 10
261.38635559004479
 20
-338.19421081441328
 30
0.0
 40
64.0
  1
4-φ10
 50
0.0
 41
0.9
 51
0.0
  7
STANDARD
 71
     0
 11
0.0
 21
0.0
 31
0.0
210
0.0
220
0.0
230
1.0
  0
LINE
  8
NOTE
  6
CONTINUOUS
 62
     4
 10
261.29635559004458
 20
-350.99421081441318
 30
0.0
 11
530.18635559004451
 21
-350.99421081441318
 31
0.0
  0
LINE
  8
NOTE
  6
CONTINUOUS
 62
     4
 10
191.44842549911337
 20
-221.02449912284695
 30
0.0
 11
190.0
 21
-190.0000000000002
 31
0.0
  0
LINE
  8
NOTE
  6
CONTINUOUS
 62
     4
 10
190.0
 20
-190.0000000000002
 30
0.0
 11
206.76666223634871
 21
-216.14376636412987
 31
0.0
  0
LINE
  8
NOTE
  6
CONTINUOUS
 62
     4
 10
190.0
 20
-190.0000000000002
 30
0.0
 11
208.21508773546208
 21
-247.16826548697662
 31
0.0
  0
LINE
  8
NOTE
  6
CONTINUOUS
 62
     4
 10
208.21508773546211
 20
-247.16826548697659
 30
0.0
 11
241.29635559004461
 21
-350.99421081441318
 31
0.0
  0
LINE
  8
NOTE
  6
CONTINUOUS
 62
     4
 10
241.29635559004461
 20
-350.99421081441318
 30
0.0
 11
261.29635559004458
 21
-350.99421081441318
 31
0.0
  0
TEXT
  8
NOTE
  6
CONTINUOUS
 62
     4
 10
-336.81068655299322
 20
-378.65493186404802
 30
0.0
 40
64.0
  1
EL
 50
0.0
 41
0.9
 51
0.0
  7
STANDARD
 71
     0
 72
     2
 11
-235.43468655299321
 21
-378.65493186404802
 31
0.0
210
0.0
220
0.0
230
1.0
  0
LINE
  8
NOTE
  6
CONTINUOUS
 62
     4
 10
-235.34468655299321
 20
-391.45493186404798
 30
0.0
 11
-320.4632579815646
 21
-391.45493186404798
 31
0.0
  0
LINE
  8
NOTE
  6
CONTINUOUS
 62
     4
 10
-146.05331888296109
 20
-268.55950610416858
 30
0.0
 11
-123.08832349833941
 21
-247.64954509908051
 31
0.0
  0
LINE
  8
NOTE
  6
CONTINUOUS
 62
     4
 10
-123.08832349833941
 20
-247.64954509908051
 30
0.0
 11
-132.52156780460427
 21
-277.24061442934163
 31
0.0
  0
LINE
  8
NOTE
  6
CONTINUOUS
 62
     4
 10
-123.08832349833941
 20
-247.64954509908051
 30
0.0
 11
-155.48656318922593
 21
-298.15057543442975
 31
0.0
  0
LINE
  8
NOTE
  6
CONTINUOUS
 62
     4
 10
-155.4865631892259
 20
-298.15057543442981
 30
0.0
 11
-215.34468655299321
 21
-391.45493186404798
 31
0.0
  0
LINE
  8
NOTE
  6
CONTINUOUS
 62
     4
 10
-215.34468655299321
 20
-391.45493186404798
 30
0.0
 11
-235.34468655299321
 21
-391.45493186404798
 31
0.0
  0
ENDSEC
  0
EOF
