  0
SECTION
  2
HEADER
  9
$ACADVER
  1
AC1009
  9
$DWGCODEPAGE
  3
dos932
  9
$INSBASE
 10
0.0
 20
0.0
 30
0.0
  9
$EXTMIN
 10
-348.04685811750642
 20
-331.64976843592012
 30
-0.0000000000000058
  9
$EXTMAX
 10
1435.2401853832871
 20
532.24182924283923
 30
0.0000000000000104
  9
$LIMMIN
 10
-2970.0
 20
-2100.0
  9
$LIMMAX
 10
2970.0
 20
2100.0
  9
$ORTHOMODE
 70
     1
  9
$REGENMODE
 70
     1
  9
$FILLMODE
 70
     1
  9
$QTEXTMODE
 70
     0
  9
$MIRRTEXT
 70
     0
  9
$LTSCALE
 40
20.0
  9
$ATTMODE
 70
     1
  9
$TEXTSIZE
 40
64.0
  9
$TRACEWID
 40
0.05
  9
$TEXTSTYLE
  7
STANDARD
  9
$CLAYER
  8
SIZE
  9
$CELTYPE
  6
CONTINUOUS
  9
$CECOLOR
 62
     7
  9
$DIMSCALE
 40
1.0
  9
$DIMASZ
 40
12.0
  9
$DIMEXO
 40
20.0
  9
$DIMDLI
 40
200.0
  9
$DIMRND
 40
0.0
  9
$DIMDLE
 40
0.0
  9
$DIMEXE
 40
20.0
  9
$DIMTP
 40
0.0
  9
$DIMTM
 40
0.0
  9
$DIMTXT
 40
64.0
  9
$DIMCEN
 40
0.09
  9
$DIMTSZ
 40
0.0
  9
$DIMTOL
 70
     0
  9
$DIMLIM
 70
     0
  9
$DIMTIH
 70
     0
  9
$DIMTOH
 70
     0
  9
$DIMSE1
 70
     0
  9
$DIMSE2
 70
     0
  9
$DIMTAD
 70
     1
  9
$DIMZIN
 70
     8
  9
$DIMBLK
  1

  9
$DIMASO
 70
     1
  9
$DIMSHO
 70
     0
  9
$DIMPOST
  1

  9
$DIMAPOST
  1

  9
$DIMALT
 70
     0
  9
$DIMALTD
 70
     2
  9
$DIMALTF
 40
25.399999999999999
  9
$DIMLFAC
 40
1.0
  9
$DIMTOFL
 70
     1
  9
$DIMTVP
 40
0.0
  9
$DIMTIX
 70
     1
  9
$DIMSOXD
 70
     0
  9
$DIMSAH
 70
     0
  9
$DIMBLK1
  1

  9
$DIMBLK2
  1

  9
$DIMSTYLE
  2
STANDARD
  9
$DIMCLRD
 70
     7
  9
$DIMCLRE
 70
     7
  9
$DIMCLRT
 70
     7
  9
$DIMTFAC
 40
1.0
  9
$DIMGAP
 40
25.0
  9
$LUNITS
 70
     2
  9
$LUPREC
 70
     4
  9
$SKETCHINC
 40
0.1
  9
$FILLETRAD
 40
3.0
  9
$AUNITS
 70
     1
  9
$AUPREC
 70
     3
  9
$MENU
  1
ACAD
  9
$ELEVATION
 40
0.0
  9
$PELEVATION
 40
0.0
  9
$THICKNESS
 40
0.0
  9
$LIMCHECK
 70
     0
  9
$CHAMFERA
 40
0.0
  9
$CHAMFERB
 40
0.0
  9
$SKPOLY
 70
     0
  9
$TDCREATE
 40
2453019.62301037
  9
$TDUPDATE
 40
2459362.655671273
  9
$TDINDWG
 40
1.7188701505
  9
$TDUSRTIMER
 40
1.7188701505
  9
$USRTIMER
 70
     1
  9
$ANGBASE
 50
0.0
  9
$ANGDIR
 70
     0
  9
$PDMODE
 70
     3
  9
$PDSIZE
 40
-2.0
  9
$PLINEWID
 40
0.0
  9
$SPLFRAME
 70
     0
  9
$SPLINETYPE
 70
     6
  9
$SPLINESEGS
 70
     8
  9
$SURFTAB1
 70
     6
  9
$SURFTAB2
 70
     6
  9
$SURFTYPE
 70
     6
  9
$SURFU
 70
     6
  9
$SURFV
 70
     6
  9
$UCSNAME
  2

  9
$UCSORG
 10
0.0
 20
0.0
 30
0.0
  9
$UCSXDIR
 10
1.0
 20
0.0
 30
0.0
  9
$UCSYDIR
 10
0.0
 20
1.0
 30
0.0
  9
$PUCSNAME
  2

  9
$PUCSORG
 10
0.0
 20
0.0
 30
0.0
  9
$PUCSXDIR
 10
1.0
 20
0.0
 30
0.0
  9
$PUCSYDIR
 10
0.0
 20
1.0
 30
0.0
  9
$USERI1
 70
     0
  9
$USERI2
 70
     0
  9
$USERI3
 70
     0
  9
$USERI4
 70
     0
  9
$USERI5
 70
     0
  9
$USERR1
 40
20.0
  9
$USERR2
 40
0.0
  9
$USERR3
 40
0.0
  9
$USERR4
 40
0.0
  9
$USERR5
 40
0.0
  9
$WORLDVIEW
 70
     1
  9
$SHADEDGE
 70
     3
  9
$SHADEDIF
 70
    70
  9
$TILEMODE
 70
     1
  9
$MAXACTVP
 70
    48
  9
$PINSBASE
 10
0.0
 20
0.0
 30
0.0
  9
$PLIMCHECK
 70
     0
  9
$PEXTMIN
 10
-100000000000000000000.0
 20
-100000000000000000000.0
 30
-100000000000000000000.0
  9
$PEXTMAX
 10
100000000000000000000.0
 20
100000000000000000000.0
 30
100000000000000000000.0
  9
$PLIMMIN
 10
0.0
 20
0.0
  9
$PLIMMAX
 10
12.0
 20
9.0
  9
$UNITMODE
 70
     0
  9
$VISRETAIN
 70
     0
  9
$PLINEGEN
 70
     0
  9
$PSLTSCALE
 70
     0
  9
$TREEDEPTH
 70
  3020
  9
$ATTDIA
 70
     0
  9
$ATTREQ
 70
     1
  9
$BLIPMODE
 70
     1
  9
$COORDS
 70
     1
  9
$DRAGMODE
 70
     2
  9
$OSMODE
 70
     0
  9
$HANDLING
 70
     0
  9
$HANDSEED
  5
10059
  0
ENDSEC
  0
SECTION
  2
TABLES
  0
TABLE
  2
LTYPE
 70
     2
  0
LTYPE
  2
CONTINUOUS
 70
     0
  3
実線
 72
    65
 73
     0
 40
0.0
  0
LTYPE
  2
DASHDOT
 70
     0
  3
____ _ ____ _ ____ _ ____ _ ____ _ ____ _ ____
 72
    65
 73
     4
 40
5.5
 49
4.0
 49
-0.6
 49
0.3
 49
-0.6
  0
ENDTAB
  0
TABLE
  2
LAYER
 70
    12
  0
LAYER
  2
0
 70
     0
 62
     7
  6
CONTINUOUS
  0
LAYER
  2
BASIS
 70
     0
 62
     6
  6
DASHDOT
  0
LAYER
  2
OUTLINE
 70
     0
 62
     3
  6
CONTINUOUS
  0
LAYER
  2
DETAIL
 70
     0
 62
     5
  6
CONTINUOUS
  0
LAYER
  2
SIZE
 70
     0
 62
    30
  6
CONTINUOUS
  0
LAYER
  2
ARRANGE
 70
     0
 62
     1
  6
CONTINUOUS
  0
LAYER
  2
DEFPOINTS
 70
     0
 62
     7
  6
CONTINUOUS
  0
LAYER
  2
ETC
 70
     0
 62
    61
  6
CONTINUOUS
  0
LAYER
  2
FIX
 70
     0
 62
    11
  6
CONTINUOUS
  0
LAYER
  2
NOTE
 70
     0
 62
     4
  6
CONTINUOUS
  0
LAYER
  2
SERVICESPACE
 70
    64
 62
     2
  6
DASHDOT
  0
LAYER
  2
SYMBOLLINE
 70
    64
 62
    15
  6
CONTINUOUS
  0
ENDTAB
  0
TABLE
  2
STYLE
 70
     1
  0
STYLE
  2
STANDARD
 70
     0
 40
64.0
 41
0.9
 50
0.0
 71
     0
 42
64.0
  3
SIMPLEX.shx
  4
BIGFONT.shx
  0
ENDTAB
  0
TABLE
  2
APPID
 70
    20
  0
APPID
  2
ACAD
 70
     0
  0
APPID
  2
AUTOCAD_POSTSCRIPT_FIGURE
 70
     0
  0
APPID
  2
ACAD_EXEMPT_FROM_CAD_STANDARDS
 70
     0
  0
APPID
  2
ACAD_PSEXT
 70
     0
  0
APPID
  2
ACAUTHENVIRON
 70
     0
  0
APPID
  2
GENIUS_GENOENT_13
 70
     0
  0
APPID
  2
GENIUS_GENCFG_13
 70
     0
  0
APPID
  2
GENIUS_GENCFG0_13
 70
     0
  0
APPID
  2
GENIUS_GENCFG1_13
 70
     0
  0
APPID
  2
GENIUS_GENCFG2_13
 70
     0
  0
APPID
  2
GENIUS_GENCFG3_13
 70
     0
  0
APPID
  2
GENIUS_GENCFG4_13
 70
     0
  0
APPID
  2
GENIUS_GEVCFG0_13
 70
     0
  0
APPID
  2
CONTENTBLOCKICON
 70
     0
  0
APPID
  2
CONTENTBLOCKDESCRIPTION
 70
     0
  0
APPID
  2
ACAD_NAV_VCDISPLAY
 70
     0
  0
APPID
  2
ACAD_MLEADERVER
 70
     0
  0
APPID
  2
ACDBDYNAMICBLOCKTRUENAME
 70
     0
  0
APPID
  2
ACDBDYNAMICBLOCKGUID
 70
     0
  0
APPID
  2
ACAD_DSTYLE_DIMRADIAL_EXTENSION
 70
     0
  0
ENDTAB
  0
TABLE
  2
DIMSTYLE
 70
     1
  0
DIMSTYLE
  2
STANDARD
 70
     0
  3

  4

  5
_ORIGIN
  6

  7

 40
1.0
 41
12.0
 42
20.0
 43
200.0
 44
20.0
 45
0.0
 46
0.0
 47
0.0
 48
0.0
140
64.0
141
0.09
142
0.0
143
25.399999999999999
144
1.0
145
0.0
146
1.0
147
25.0
 71
     0
 72
     0
 73
     0
 74
     0
 75
     0
 76
     0
 77
     1
 78
     8
170
     0
171
     2
172
     1
173
     0
174
     1
175
     0
176
     7
177
     7
178
     7
  0
ENDTAB
  0
TABLE
  2
VIEW
 70
     1
  0
VIEW
  2
ALL
 70
     0
 40
4282.6198079999986
 10
0.0
 20
41.309904000000003
 41
5940.0
 11
0.0
 21
0.0
 31
1.0
 12
0.0
 22
0.0
 32
0.0
 42
50.0
 43
0.0
 44
0.0
 50
0.0
 71
     0
  0
ENDTAB
  0
TABLE
  2
UCS
 70
     0
  0
ENDTAB
  0
TABLE
  2
VPORT
 70
     1
  0
VPORT
  2
*ACTIVE
 70
     0
 10
0.0
 20
0.0
 11
1.0
 21
1.0
 12
543.59666363289034
 22
100.2960304034596
 13
0.0
 23
0.0
 14
1.0
 24
1.0
 15
0.0
 25
0.0
 16
0.0
 26
0.0
 36
1.0
 17
0.0
 27
0.0
 37
0.0
 40
907.60583501833321
 41
1.8851435705368289
 42
50.0
 43
0.0
 44
0.0
 50
0.0
 51
0.0
 71
     0
 72
  1000
 73
     1
 74
     3
 75
     0
 76
     0
 77
     0
 78
     0
  0
ENDTAB
  0
ENDSEC
  0
SECTION
  2
BLOCKS
  0
BLOCK
  8
0
  2
_ORIGIN
 70
     0
 10
0.0
 20
0.0
 30
0.0
  3
_ORIGIN
  1
_ORIGIN
  0
CIRCLE
  8
SIZE
  6
CONTINUOUS
 62
    30
 10
0.0
 20
0.0
 30
0.0
 40
0.5
  0
LINE
  8
SIZE
  6
CONTINUOUS
 62
    30
 10
0.0
 20
0.0
 30
0.0
 11
-1.0
 21
0.0
 31
0.0
  0
ENDBLK
  8
0
  0
ENDSEC
  0
SECTION
  2
ENTITIES
  0
LINE
  8
DETAIL
  6
CONTINUOUS
 62
     5
 10
66.0
 20
-210.0000000000002
 30
0.0
 11
61.0
 21
-210.0000000000002
 31
0.0
  0
LINE
  8
DETAIL
  6
CONTINUOUS
 62
     5
 10
0.0000000000009095
 20
-205.0052038200001
 30
0.0
 11
1.5000000000009091
 21
-205.0052038200001
 31
0.0
  0
LINE
  8
DETAIL
  6
CONTINUOUS
 62
     5
 10
61.0
 20
-205.0000000000002
 30
0.0
 11
3.0000000000009091
 21
-205.0000000000002
 31
0.0
  0
LINE
  8
DETAIL
  6
CONTINUOUS
 62
     5
 10
71.0
 20
-189.2563209110001
 30
0.0
 11
74.0
 21
-189.2563209110001
 31
0.0
  0
LINE
  8
DETAIL
  6
CONTINUOUS
 62
     5
 10
77.80000000000291
 20
-179.47938543300009
 30
0.0
 11
74.200000000000728
 21
-179.47938543300009
 31
0.0
  0
LINE
  8
DETAIL
  6
CONTINUOUS
 62
     5
 10
76.5
 20
-175.30000000000021
 30
0.0
 11
71.0
 21
-175.30000000000021
 31
0.0
  0
LINE
  8
DETAIL
  6
CONTINUOUS
 62
     5
 10
78.000000000003638
 20
-174.47938543300009
 30
0.0
 11
76.5
 21
-174.47938543300009
 31
0.0
  0
LINE
  8
DETAIL
  6
CONTINUOUS
 62
     5
 10
111.0
 20
-174.0
 30
0.0
 11
110.2000000000007
 21
-174.0
 31
0.0
  0
LINE
  8
DETAIL
  6
CONTINUOUS
 62
     5
 10
78.000000000003638
 20
-173.1275516080002
 30
0.0
 11
110.2000000000007
 21
-173.1275516080002
 31
0.0
  0
LINE
  8
DETAIL
  6
CONTINUOUS
 62
     5
 10
76.5
 20
-173.04505212500001
 30
0.0
 11
142.89946229900119
 21
-173.04505212500001
 31
0.0
  0
LINE
  8
DETAIL
  6
CONTINUOUS
 62
     5
 10
76.5
 20
-171.116689296
 30
0.0
 11
142.89946229900119
 21
-171.116689296
 31
0.0
  0
LINE
  8
DETAIL
  6
CONTINUOUS
 62
     5
 10
71.0
 20
-168.80000000000021
 30
0.0
 11
76.5
 21
-168.80000000000021
 31
0.0
  0
LINE
  8
DETAIL
  6
CONTINUOUS
 62
     5
 10
71.0
 20
-162.30000000000021
 30
0.0
 11
76.5
 21
-162.30000000000021
 31
0.0
  0
LINE
  8
DETAIL
  6
CONTINUOUS
 62
     5
 10
77.80000000000291
 20
-155.6137443920002
 30
0.0
 11
74.200000000000728
 21
-155.6137443920002
 31
0.0
  0
LINE
  8
DETAIL
  6
CONTINUOUS
 62
     5
 10
78.000000000003638
 20
-151.96557821800019
 30
0.0
 11
142.89946229900119
 21
-151.96557821800019
 31
0.0
  0
LINE
  8
DETAIL
  6
CONTINUOUS
 62
     5
 10
78.000000000003638
 20
-150.6137443920002
 30
0.0
 11
74.0
 21
-150.6137443920002
 31
0.0
  0
LINE
  8
DETAIL
  6
CONTINUOUS
 62
     5
 10
3.0000000000009091
 20
-147.25735931300011
 30
0.0
 11
0.0000000000009095
 21
-147.25735931300011
 31
0.0
  0
LINE
  8
DETAIL
  6
CONTINUOUS
 62
     5
 10
77.80000000000291
 20
-145.6137443920002
 30
0.0
 11
74.200000000000728
 21
-145.6137443920002
 31
0.0
  0
LINE
  8
DETAIL
  6
CONTINUOUS
 62
     5
 10
71.0
 20
-135.8368089140001
 30
0.0
 11
74.0
 21
-135.8368089140001
 31
0.0
  0
LINE
  8
DETAIL
  6
CONTINUOUS
 62
     5
 10
223.99995660799871
 20
42.0
 30
0.0
 11
223.99995660799871
 21
-42.000000000000227
 31
0.0
  0
LINE
  8
DETAIL
  6
CONTINUOUS
 62
     5
 10
215.49995660799871
 20
-50.700000000000273
 30
0.0
 11
215.49995660799871
 21
-49.500000000000227
 31
0.0
  0
LINE
  8
DETAIL
  6
CONTINUOUS
 62
     5
 10
213.49995660800229
 20
-61.700000000000273
 30
0.0
 11
213.49995660800229
 21
-52.700000000000273
 31
0.0
  0
LINE
  8
DETAIL
  6
CONTINUOUS
 62
     5
 10
210.69574564899989
 20
-61.700000000000273
 30
0.0
 11
210.69574564899989
 21
-64.706321594000201
 31
0.0
  0
LINE
  8
DETAIL
  6
CONTINUOUS
 62
     5
 10
207.89995660800381
 20
-43.942087733000108
 30
0.0
 11
207.89995660800381
 21
-123.3342841420001
 31
0.0
  0
LINE
  8
DETAIL
  6
CONTINUOUS
 62
     5
 10
207.89995660800381
 20
43.94208773399987
 30
0.0
 11
207.89995660800381
 21
123.33428414299991
 31
0.0
  0
LINE
  8
DETAIL
  6
CONTINUOUS
 62
     5
 10
198.28670795400279
 20
67.867859318999763
 30
0.0
 11
201.17345930000189
 21
64.037637103999941
 31
0.0
  0
LINE
  8
DETAIL
  6
CONTINUOUS
 62
     5
 10
198.28670795400279
 20
56.292143648999847
 30
0.0
 11
201.17345930000189
 21
52.461921432999823
 31
0.0
  0
LINE
  8
DETAIL
  6
CONTINUOUS
 62
     5
 10
201.17345930000189
 20
-63.955137620000187
 30
0.0
 11
198.28670795400279
 21
-67.785359836000225
 31
0.0
  0
LINE
  8
DETAIL
  6
CONTINUOUS
 62
     5
 10
201.17345930000189
 20
-52.464470974000051
 30
0.0
 11
198.28670795400279
 21
-56.2946931890001
 31
0.0
  0
LINE
  8
DETAIL
  6
CONTINUOUS
 62
     5
 10
201.17345930000189
 20
64.037637103999941
 30
0.0
 11
201.17345930000189
 21
61.110756422999877
 31
0.0
  0
LINE
  8
DETAIL
  6
CONTINUOUS
 62
     5
 10
201.17345930000189
 20
52.461921432999823
 30
0.0
 11
201.17345930000189
 21
49.535040752999983
 31
0.0
  0
LINE
  8
DETAIL
  6
CONTINUOUS
 62
     5
 10
201.17345930000189
 20
-63.955137620000187
 30
0.0
 11
201.17345930000189
 21
-61.028256940000119
 31
0.0
  0
LINE
  8
DETAIL
  6
CONTINUOUS
 62
     5
 10
201.17345930000189
 20
-52.464470974000051
 30
0.0
 11
201.17345930000189
 21
-49.537590293000221
 31
0.0
  0
LINE
  8
DETAIL
  6
CONTINUOUS
 62
     5
 10
189.62645391600199
 20
64.037637103999941
 30
0.0
 11
189.62645391600199
 21
61.110756422999877
 31
0.0
  0
LINE
  8
DETAIL
  6
CONTINUOUS
 62
     5
 10
189.62645391700241
 20
52.461921432999823
 30
0.0
 11
189.62645391700241
 21
49.535040752999983
 31
0.0
  0
LINE
  8
DETAIL
  6
CONTINUOUS
 62
     5
 10
189.62645391600199
 20
-63.955137620000187
 30
0.0
 11
189.62645391600199
 21
-61.028256940000119
 31
0.0
  0
LINE
  8
DETAIL
  6
CONTINUOUS
 62
     5
 10
189.62645391600199
 20
-52.464470974000051
 30
0.0
 11
189.62645391600199
 21
-49.537590293000221
 31
0.0
  0
LINE
  8
DETAIL
  6
CONTINUOUS
 62
     5
 10
183.39995660800011
 20
-42.081681361000157
 30
0.0
 11
183.39995660800011
 21
-32.481681361000028
 31
0.0
  0
LINE
  8
DETAIL
  6
CONTINUOUS
 62
     5
 10
183.39995660800011
 20
32.48168136199979
 30
0.0
 11
183.39995660800011
 21
42.081681361999927
 31
0.0
  0
LINE
  8
DETAIL
  6
CONTINUOUS
 62
     5
 10
182.89995660800381
 20
-44.801477001999963
 30
0.0
 11
182.89995660800381
 21
-121.3234218300001
 31
0.0
  0
LINE
  8
DETAIL
  6
CONTINUOUS
 62
     5
 10
182.89995660800381
 20
44.801477001999963
 30
0.0
 11
182.89995660800381
 21
121.4059213139999
 31
0.0
  0
LINE
  8
DETAIL
  6
CONTINUOUS
 62
     5
 10
179.39995660800381
 20
-68.82528041400019
 30
0.0
 11
179.39995660800381
 21
68.825280413999735
 31
0.0
  0
LINE
  8
DETAIL
  6
CONTINUOUS
 62
     5
 10
176.39995660800011
 20
-68.82528041400019
 30
0.0
 11
176.39995660800011
 21
68.825280413999735
 31
0.0
  0
LINE
  8
DETAIL
  6
CONTINUOUS
 62
     5
 10
182.89995660800381
 20
-72.682006072000149
 30
0.0
 11
182.39995660800011
 21
-72.682006072000149
 31
0.0
  0
LINE
  8
DETAIL
  6
CONTINUOUS
 62
     5
 10
182.89995660800381
 20
-70.75364324300017
 30
0.0
 11
182.39995660800011
 21
-70.75364324300017
 31
0.0
  0
LINE
  8
DETAIL
  6
CONTINUOUS
 62
     5
 10
198.28670795400279
 20
-67.785359836000225
 30
0.0
 11
192.51320526200109
 21
-67.785359836000225
 31
0.0
  0
LINE
  8
DETAIL
  6
CONTINUOUS
 62
     5
 10
176.39995660800011
 20
-63.500000000000227
 30
0.0
 11
172.39995660800011
 21
-63.500000000000227
 31
0.0
  0
LINE
  8
DETAIL
  6
CONTINUOUS
 62
     5
 10
172.39995660800011
 20
-62.050000000000182
 30
0.0
 11
169.19995660800299
 21
-62.050000000000182
 31
0.0
  0
LINE
  8
DETAIL
  6
CONTINUOUS
 62
     5
 10
207.89995660800381
 20
-61.700000000000273
 30
0.0
 11
213.49982251499929
 21
-61.700000000000273
 31
0.0
  0
LINE
  8
DETAIL
  6
CONTINUOUS
 62
     5
 10
172.39995660800011
 20
-63.499877848000096
 30
0.0
 11
172.39995660800011
 21
63.499877847999869
 31
0.0
  0
LINE
  8
DETAIL
  6
CONTINUOUS
 62
     5
 10
169.19995660800299
 20
62.049999999999947
 30
0.0
 11
169.19995660800299
 21
53.949999999999818
 31
0.0
  0
LINE
  8
DETAIL
  6
CONTINUOUS
 62
     5
 10
169.19995660800299
 20
-53.950000000000273
 30
0.0
 11
169.19995660800299
 21
-62.050000000000182
 31
0.0
  0
LINE
  8
DETAIL
  6
CONTINUOUS
 62
     5
 10
167.39995660800011
 20
42.281681361999738
 30
0.0
 11
167.39995660800011
 21
32.281681361999738
 31
0.0
  0
LINE
  8
DETAIL
  6
CONTINUOUS
 62
     5
 10
167.39995660800011
 20
-32.28168136100021
 30
0.0
 11
167.39995660800011
 21
-42.28168136100021
 31
0.0
  0
LINE
  8
DETAIL
  6
CONTINUOUS
 62
     5
 10
166.39995660800011
 20
59.494698136999887
 30
0.0
 11
166.39995660800011
 21
56.505301863999883
 31
0.0
  0
LINE
  8
DETAIL
  6
CONTINUOUS
 62
     5
 10
166.39995660800011
 20
-56.505301863000113
 30
0.0
 11
166.39995660800011
 21
-59.494698136000117
 31
0.0
  0
LINE
  8
DETAIL
  6
CONTINUOUS
 62
     5
 10
165.39995660800381
 20
40.281681361999738
 30
0.0
 11
165.39995660800381
 21
34.281681361999738
 31
0.0
  0
LINE
  8
DETAIL
  6
CONTINUOUS
 62
     5
 10
165.39995660800381
 20
-34.28168136100021
 30
0.0
 11
165.39995660800381
 21
-40.28168136100021
 31
0.0
  0
LINE
  8
DETAIL
  6
CONTINUOUS
 62
     5
 10
75.919443416001741
 20
176.30555349999989
 30
0.0
 11
76.5
 21
175.2999999999997
 31
0.0
  0
LINE
  8
DETAIL
  6
CONTINUOUS
 62
     5
 10
172.39995660800011
 20
-60.022437298000114
 30
0.0
 11
169.19995660800299
 21
-60.022437298000114
 31
0.0
  0
LINE
  8
DETAIL
  6
CONTINUOUS
 62
     5
 10
169.19995660800299
 20
-59.500000000000227
 30
0.0
 11
166.39995660800011
 21
-59.500000000000227
 31
0.0
  0
LINE
  8
DETAIL
  6
CONTINUOUS
 62
     5
 10
169.19995660800299
 20
-56.5
 30
0.0
 11
166.39995660800011
 21
-56.5
 31
0.0
  0
LINE
  8
DETAIL
  6
CONTINUOUS
 62
     5
 10
198.28670795400279
 20
-56.2946931890001
 30
0.0
 11
192.51320526200109
 21
-56.2946931890001
 31
0.0
  0
LINE
  8
DETAIL
  6
CONTINUOUS
 62
     5
 10
172.39995660800011
 20
-55.977562701000117
 30
0.0
 11
169.19995660800299
 21
-55.977562701000117
 31
0.0
  0
LINE
  8
DETAIL
  6
CONTINUOUS
 62
     5
 10
172.39995660800011
 20
-53.950000000000273
 30
0.0
 11
169.19995660800299
 21
-53.950000000000273
 31
0.0
  0
LINE
  8
DETAIL
  6
CONTINUOUS
 62
     5
 10
207.89995660800381
 20
-51.700000000000273
 30
0.0
 11
214.49995660800229
 21
-51.700000000000273
 31
0.0
  0
LINE
  8
DETAIL
  6
CONTINUOUS
 62
     5
 10
216.49995660799871
 20
-49.500000000000227
 30
0.0
 11
207.89995660800381
 21
-49.500000000000227
 31
0.0
  0
LINE
  8
DETAIL
  6
CONTINUOUS
 62
     5
 10
167.89995660800381
 20
-49.200000000000273
 30
0.0
 11
135.39995660799829
 21
-49.200000000000273
 31
0.0
  0
LINE
  8
DETAIL
  6
CONTINUOUS
 62
     5
 10
204.89995660800011
 20
-42.420844189000043
 30
0.0
 11
185.89995660800011
 21
-42.420844189000043
 31
0.0
  0
LINE
  8
DETAIL
  6
CONTINUOUS
 62
     5
 10
183.19995660799941
 20
-42.28168136100021
 30
0.0
 11
179.59995660800089
 21
-42.28168136100021
 31
0.0
  0
LINE
  8
DETAIL
  6
CONTINUOUS
 62
     5
 10
172.39995660800011
 20
-42.28168136100021
 30
0.0
 11
167.39995660800011
 21
-42.28168136100021
 31
0.0
  0
LINE
  8
DETAIL
  6
CONTINUOUS
 62
     5
 10
183.39995660800011
 20
-41.643954404000169
 30
0.0
 11
204.89995660800011
 21
-41.643954404000169
 31
0.0
  0
LINE
  8
DETAIL
  6
CONTINUOUS
 62
     5
 10
167.39995660800011
 20
-40.28168136100021
 30
0.0
 11
165.39995660800381
 21
-40.28168136100021
 31
0.0
  0
LINE
  8
DETAIL
  6
CONTINUOUS
 62
     5
 10
183.39995660800011
 20
-37.28168136100021
 30
0.0
 11
179.39995660800381
 21
-37.28168136100021
 31
0.0
  0
LINE
  8
DETAIL
  6
CONTINUOUS
 62
     5
 10
172.39995660800011
 20
-37.28168136100021
 30
0.0
 11
167.39995660800381
 21
-37.28168136100021
 31
0.0
  0
LINE
  8
DETAIL
  6
CONTINUOUS
 62
     5
 10
167.39995660800011
 20
-34.28168136100021
 30
0.0
 11
165.39995660800381
 21
-34.28168136100021
 31
0.0
  0
LINE
  8
DETAIL
  6
CONTINUOUS
 62
     5
 10
183.19995660799941
 20
-32.28168136100021
 30
0.0
 11
179.59995660800089
 21
-32.28168136100021
 31
0.0
  0
LINE
  8
DETAIL
  6
CONTINUOUS
 62
     5
 10
172.39995660800011
 20
-32.28168136100021
 30
0.0
 11
167.39995660800011
 21
-32.28168136100021
 31
0.0
  0
LINE
  8
DETAIL
  6
CONTINUOUS
 62
     5
 10
192.51320526200109
 20
-56.2946931890001
 30
0.0
 11
189.62645391600199
 21
-52.464470974000051
 31
0.0
  0
LINE
  8
DETAIL
  6
CONTINUOUS
 62
     5
 10
192.51320526200109
 20
-67.785359836000225
 30
0.0
 11
189.62645391600199
 21
-63.955137620000187
 31
0.0
  0
LINE
  8
DETAIL
  6
CONTINUOUS
 62
     5
 10
189.62645391700241
 20
52.461921432999823
 30
0.0
 11
192.51320526200109
 21
56.292143648999847
 31
0.0
  0
LINE
  8
DETAIL
  6
CONTINUOUS
 62
     5
 10
189.62645391600199
 20
64.037637103999941
 30
0.0
 11
192.51320526200109
 21
67.867859318999763
 31
0.0
  0
LINE
  8
DETAIL
  6
CONTINUOUS
 62
     5
 10
123.092179852003
 20
7.9820955779998712
 30
0.0
 11
123.39995660799831
 21
11.5
 31
0.0
  0
LINE
  8
DETAIL
  6
CONTINUOUS
 62
     5
 10
124.899956608002
 20
38.699999999999818
 30
0.0
 11
124.899956608002
 21
-38.700000000000273
 31
0.0
  0
LINE
  8
DETAIL
  6
CONTINUOUS
 62
     5
 10
124.39995660799831
 20
-11.5
 30
0.0
 11
124.39995660799831
 21
11.5
 31
0.0
  0
LINE
  8
DETAIL
  6
CONTINUOUS
 62
     5
 10
123.39995660799831
 20
-11.5
 30
0.0
 11
123.39995660799831
 21
11.5
 31
0.0
  0
LINE
  8
DETAIL
  6
CONTINUOUS
 62
     5
 10
120.89995660799831
 20
-6.4994829440001922
 30
0.0
 11
120.89995660799831
 21
6.4994829449997269
 31
0.0
  0
LINE
  8
DETAIL
  6
CONTINUOUS
 62
     5
 10
123.092179852003
 20
-7.9820955770001092
 30
0.0
 11
123.39995660799831
 21
-11.5
 31
0.0
  0
LINE
  8
DETAIL
  6
CONTINUOUS
 62
     5
 10
120.89995660799831
 20
-6.5
 30
0.0
 11
121.80664745600011
 21
-6.627427088000104
 31
0.0
  0
LINE
  8
DETAIL
  6
CONTINUOUS
 62
     5
 10
123.39995660799831
 20
-11.5
 30
0.0
 11
124.39995660799831
 21
-11.5
 31
0.0
  0
LINE
  8
DETAIL
  6
CONTINUOUS
 62
     5
 10
124.899956608002
 20
-5.0
 30
0.0
 11
124.39995660799831
 21
-5.0
 31
0.0
  0
LINE
  8
DETAIL
  6
CONTINUOUS
 62
     5
 10
120.89995660799831
 20
-5.0
 30
0.0
 11
111.0
 21
-5.0
 31
0.0
  0
LINE
  8
DETAIL
  6
CONTINUOUS
 62
     5
 10
61.0
 20
-0.5
 30
0.0
 11
0.0000000000009095
 21
-0.5
 31
0.0
  0
LINE
  8
BASIS
  6
DASHDOT
 62
     6
 10
239.8253001030007
 20
0.0
 30
0.0
 11
-15.97904075300085
 21
0.0
 31
0.0
  0
LINE
  8
DETAIL
  6
CONTINUOUS
 62
     5
 10
61.0
 20
0.5
 30
0.0
 11
0.0000000000009095
 21
0.5
 31
0.0
  0
LINE
  8
DETAIL
  6
CONTINUOUS
 62
     5
 10
111.0
 20
174.0
 30
0.0
 11
111.0
 21
173.127551608
 31
0.0
  0
LINE
  8
DETAIL
  6
CONTINUOUS
 62
     5
 10
111.0
 20
152.04807770099981
 30
0.0
 11
111.0
 21
-151.96557821800019
 31
0.0
  0
LINE
  8
DETAIL
  6
CONTINUOUS
 62
     5
 10
111.0
 20
-173.04505212500001
 30
0.0
 11
111.0
 21
-174.0
 31
0.0
  0
LINE
  8
DETAIL
  6
CONTINUOUS
 62
     5
 10
110.2000000000007
 20
174.0
 30
0.0
 11
110.2000000000007
 21
173.127551608
 31
0.0
  0
LINE
  8
DETAIL
  6
CONTINUOUS
 62
     5
 10
110.2000000000007
 20
152.04807770099981
 30
0.0
 11
110.2000000000007
 21
-151.96557821800019
 31
0.0
  0
LINE
  8
DETAIL
  6
CONTINUOUS
 62
     5
 10
110.2000000000007
 20
-173.04505212500001
 30
0.0
 11
110.2000000000007
 21
-174.0
 31
0.0
  0
LINE
  8
DETAIL
  6
CONTINUOUS
 62
     5
 10
124.899956608002
 20
5.0
 30
0.0
 11
124.39995660799831
 21
5.0
 31
0.0
  0
LINE
  8
DETAIL
  6
CONTINUOUS
 62
     5
 10
120.89995660799831
 20
5.0
 30
0.0
 11
111.0
 21
5.0
 31
0.0
  0
LINE
  8
DETAIL
  6
CONTINUOUS
 62
     5
 10
123.39995660799831
 20
11.5
 30
0.0
 11
124.39995660799831
 21
11.5
 31
0.0
  0
LINE
  8
DETAIL
  6
CONTINUOUS
 62
     5
 10
120.89995660799831
 20
6.5
 30
0.0
 11
121.80664745600011
 21
6.6274270889998661
 31
0.0
  0
LINE
  8
DETAIL
  6
CONTINUOUS
 62
     5
 10
183.19995660799941
 20
32.281681361999738
 30
0.0
 11
179.59995660800089
 21
32.281681361999738
 31
0.0
  0
LINE
  8
DETAIL
  6
CONTINUOUS
 62
     5
 10
172.39995660800011
 20
32.281681361999738
 30
0.0
 11
167.39995660800011
 21
32.281681361999738
 31
0.0
  0
LINE
  8
DETAIL
  6
CONTINUOUS
 62
     5
 10
78.000000000003638
 20
-179.27938543300019
 30
0.0
 11
78.000000000003638
 21
-173.04505212500001
 31
0.0
  0
LINE
  8
DETAIL
  6
CONTINUOUS
 62
     5
 10
78.000000000003638
 20
-155.4137443920001
 30
0.0
 11
78.000000000003638
 21
-145.81374439199999
 31
0.0
  0
LINE
  8
DETAIL
  6
CONTINUOUS
 62
     5
 10
78.000000000003638
 20
173.127551608
 30
0.0
 11
78.000000000003638
 21
179.27938543400001
 31
0.0
  0
LINE
  8
DETAIL
  6
CONTINUOUS
 62
     5
 10
76.5
 20
-175.30000000000021
 30
0.0
 11
76.5
 21
-162.30000000000021
 31
0.0
  0
LINE
  8
DETAIL
  6
CONTINUOUS
 62
     5
 10
76.5
 20
162.3003318829999
 30
0.0
 11
76.5
 21
175.2996681179998
 31
0.0
  0
LINE
  8
DETAIL
  6
CONTINUOUS
 62
     5
 10
74.0
 20
-189.2563209110001
 30
0.0
 11
74.0
 21
-175.30000000000021
 31
0.0
  0
LINE
  8
DETAIL
  6
CONTINUOUS
 62
     5
 10
74.0
 20
-162.30000000000021
 30
0.0
 11
74.0
 21
-135.8368089140001
 31
0.0
  0
LINE
  8
DETAIL
  6
CONTINUOUS
 62
     5
 10
74.0
 20
176.30555349999989
 30
0.0
 11
74.0
 21
189.25632091199989
 31
0.0
  0
LINE
  8
DETAIL
  6
CONTINUOUS
 62
     5
 10
71.0
 20
-205.0000000000002
 30
0.0
 11
71.0
 21
205.0
 31
0.0
  0
LINE
  8
DETAIL
  6
CONTINUOUS
 62
     5
 10
167.39995660800011
 20
34.281681361999738
 30
0.0
 11
165.39995660800381
 21
34.281681361999738
 31
0.0
  0
LINE
  8
DETAIL
  6
CONTINUOUS
 62
     5
 10
183.39995660800011
 20
37.281681361999738
 30
0.0
 11
179.39995660800381
 21
37.281681361999738
 31
0.0
  0
LINE
  8
DETAIL
  6
CONTINUOUS
 62
     5
 10
172.39995660800011
 20
37.281681361999738
 30
0.0
 11
167.39995660800011
 21
37.281681361999738
 31
0.0
  0
LINE
  8
DETAIL
  6
CONTINUOUS
 62
     5
 10
167.39995660800011
 20
40.281681361999738
 30
0.0
 11
165.39995660800381
 21
40.281681361999738
 31
0.0
  0
LINE
  8
DETAIL
  6
CONTINUOUS
 62
     5
 10
183.39995660800011
 20
41.643954404999931
 30
0.0
 11
204.89995660800011
 21
41.643954404999931
 31
0.0
  0
LINE
  8
DETAIL
  6
CONTINUOUS
 62
     5
 10
183.19995660799941
 20
42.281681361999738
 30
0.0
 11
179.59995660800089
 21
42.281681361999738
 31
0.0
  0
LINE
  8
DETAIL
  6
CONTINUOUS
 62
     5
 10
172.39995660800011
 20
42.281681361999738
 30
0.0
 11
167.39995660800011
 21
42.281681361999738
 31
0.0
  0
LINE
  8
DETAIL
  6
CONTINUOUS
 62
     5
 10
204.89995660800011
 20
42.50334367299979
 30
0.0
 11
185.89995660800011
 21
42.50334367299979
 31
0.0
  0
LINE
  8
DETAIL
  6
CONTINUOUS
 62
     5
 10
216.49995660799871
 20
49.5
 30
0.0
 11
207.89995660800381
 21
49.5
 31
0.0
  0
LINE
  8
DETAIL
  6
CONTINUOUS
 62
     5
 10
167.89995660800381
 20
49.199999999999818
 30
0.0
 11
135.39995660799829
 21
49.199999999999818
 31
0.0
  0
LINE
  8
DETAIL
  6
CONTINUOUS
 62
     5
 10
61.0
 20
-210.0000000000002
 30
0.0
 11
61.0
 21
210.0
 31
0.0
  0
LINE
  8
DETAIL
  6
CONTINUOUS
 62
     5
 10
172.39995660800011
 20
53.949999999999818
 30
0.0
 11
169.19995660800299
 21
53.949999999999818
 31
0.0
  0
LINE
  8
DETAIL
  6
CONTINUOUS
 62
     5
 10
172.39995660800011
 20
55.977562701999886
 30
0.0
 11
169.19995660800299
 21
55.977562701999886
 31
0.0
  0
LINE
  8
DETAIL
  6
CONTINUOUS
 62
     5
 10
192.51320526200109
 20
56.292143648999847
 30
0.0
 11
198.28670795400279
 21
56.292143648999847
 31
0.0
  0
LINE
  8
DETAIL
  6
CONTINUOUS
 62
     5
 10
169.19995660800299
 20
56.5
 30
0.0
 11
166.39995660800011
 21
56.5
 31
0.0
  0
LINE
  8
DETAIL
  6
CONTINUOUS
 62
     5
 10
169.19995660800299
 20
59.5
 30
0.0
 11
166.39995660800011
 21
59.5
 31
0.0
  0
LINE
  8
DETAIL
  6
CONTINUOUS
 62
     5
 10
172.39995660800011
 20
60.022437298999883
 30
0.0
 11
169.19995660800299
 21
60.022437298999883
 31
0.0
  0
LINE
  8
DETAIL
  6
CONTINUOUS
 62
     5
 10
172.39995660800011
 20
62.049999999999947
 30
0.0
 11
169.19995660800299
 21
62.049999999999947
 31
0.0
  0
LINE
  8
DETAIL
  6
CONTINUOUS
 62
     5
 10
176.39995660800011
 20
63.5
 30
0.0
 11
172.39995660800011
 21
63.5
 31
0.0
  0
LINE
  8
DETAIL
  6
CONTINUOUS
 62
     5
 10
192.51320526200109
 20
67.867859318999763
 30
0.0
 11
198.28670795400279
 21
67.867859318999763
 31
0.0
  0
LINE
  8
DETAIL
  6
CONTINUOUS
 62
     5
 10
182.89995660800381
 20
70.753643242999715
 30
0.0
 11
182.39995660800011
 21
70.753643242999715
 31
0.0
  0
LINE
  8
DETAIL
  6
CONTINUOUS
 62
     5
 10
182.89995660800381
 20
72.682006071999922
 30
0.0
 11
182.39995660800011
 21
72.682006071999922
 31
0.0
  0
LINE
  8
DETAIL
  6
CONTINUOUS
 62
     5
 10
3.0000000000009091
 20
-205.0000000000002
 30
0.0
 11
3.0000000000009091
 21
-203.94454364800029
 31
0.0
  0
LINE
  8
DETAIL
  6
CONTINUOUS
 62
     5
 10
3.0000000000009091
 20
-150.0554563510002
 30
0.0
 11
3.0000000000009091
 21
-147.25735931300011
 31
0.0
  0
LINE
  8
DETAIL
  6
CONTINUOUS
 62
     5
 10
3.0000000000009091
 20
147.25735931300011
 30
0.0
 11
3.0000000000009091
 21
150.05545635199999
 31
0.0
  0
LINE
  8
DETAIL
  6
CONTINUOUS
 62
     5
 10
3.0000000000009091
 20
203.944543649
 30
0.0
 11
3.0000000000009091
 21
205.0
 31
0.0
  0
LINE
  8
DETAIL
  6
CONTINUOUS
 62
     5
 10
2.0000000000009091
 20
0.5
 30
0.0
 11
2.0000000000009091
 21
-0.5
 31
0.0
  0
LINE
  8
DETAIL
  6
CONTINUOUS
 62
     5
 10
1.5000000000009091
 20
-151.1161165230001
 30
0.0
 11
1.5000000000009091
 21
-205.0052038200001
 31
0.0
  0
LINE
  8
DETAIL
  6
CONTINUOUS
 62
     5
 10
1.5000000000009091
 20
151.11611652399981
 30
0.0
 11
1.5000000000009091
 21
205.00520381999971
 31
0.0
  0
LINE
  8
DETAIL
  6
CONTINUOUS
 62
     5
 10
0.0000000000009095
 20
205.00520381999971
 30
0.0
 11
0.0000000000009095
 21
151.11611652399981
 31
0.0
  0
LINE
  8
DETAIL
  6
CONTINUOUS
 62
     5
 10
0.0000000000009095
 20
147.25735931300011
 30
0.0
 11
0.0000000000009095
 21
0.5
 31
0.0
  0
LINE
  8
DETAIL
  6
CONTINUOUS
 62
     5
 10
0.0000000000009095
 20
-205.0052038200001
 30
0.0
 11
0.0000000000009095
 21
-151.1161165230001
 31
0.0
  0
LINE
  8
DETAIL
  6
CONTINUOUS
 62
     5
 10
0.0000000000009095
 20
-147.25735931300011
 30
0.0
 11
0.0000000000009095
 21
-0.5
 31
0.0
  0
LINE
  8
DETAIL
  6
CONTINUOUS
 62
     5
 10
75.919443416001741
 20
161.29444650099981
 30
0.0
 11
76.5
 21
162.30000000000001
 31
0.0
  0
LINE
  8
DETAIL
  6
CONTINUOUS
 62
     5
 10
3.0000000000009091
 20
147.25735931300011
 30
0.0
 11
0.0000000000009095
 21
147.25735931300011
 31
0.0
  0
LINE
  8
DETAIL
  6
CONTINUOUS
 62
     5
 10
111.0
 20
151.96557821799979
 30
0.0
 11
142.89946229900119
 21
151.96557821799979
 31
0.0
  0
LINE
  8
DETAIL
  6
CONTINUOUS
 62
     5
 10
142.89946229900119
 20
152.04807770099981
 30
0.0
 11
77.000000000003638
 21
152.04807770099981
 31
0.0
  0
LINE
  8
DETAIL
  6
CONTINUOUS
 62
     5
 10
71.0
 20
161.29444650099981
 30
0.0
 11
75.919443416001741
 21
161.29444650099981
 31
0.0
  0
LINE
  8
DETAIL
  6
CONTINUOUS
 62
     5
 10
71.0
 20
165.04722325099991
 30
0.0
 11
76.499999999996362
 21
165.04722325099991
 31
0.0
  0
LINE
  8
DETAIL
  6
CONTINUOUS
 62
     5
 10
76.500000000003638
 20
171.199188779
 30
0.0
 11
142.89946229900119
 21
171.199188779
 31
0.0
  0
LINE
  8
DETAIL
  6
CONTINUOUS
 62
     5
 10
71.0
 20
172.55277674999979
 30
0.0
 11
76.499999999996362
 21
172.55277674999979
 31
0.0
  0
LINE
  8
DETAIL
  6
CONTINUOUS
 62
     5
 10
76.500000000003638
 20
173.127551608
 30
0.0
 11
142.89946229900119
 21
173.127551608
 31
0.0
  0
LINE
  8
DETAIL
  6
CONTINUOUS
 62
     5
 10
111.0
 20
174.0
 30
0.0
 11
110.2000000000007
 21
174.0
 31
0.0
  0
LINE
  8
DETAIL
  6
CONTINUOUS
 62
     5
 10
78.000000000003638
 20
174.47938543400011
 30
0.0
 11
76.5
 21
174.47938543400011
 31
0.0
  0
LINE
  8
DETAIL
  6
CONTINUOUS
 62
     5
 10
71.0
 20
176.30555349999989
 30
0.0
 11
75.919443416001741
 21
176.30555349999989
 31
0.0
  0
LINE
  8
DETAIL
  6
CONTINUOUS
 62
     5
 10
77.80000000000291
 20
179.47938543400011
 30
0.0
 11
74.200000000000728
 21
179.47938543400011
 31
0.0
  0
LINE
  8
DETAIL
  6
CONTINUOUS
 62
     5
 10
71.0
 20
189.25632091199989
 30
0.0
 11
74.0
 21
189.25632091199989
 31
0.0
  0
LINE
  8
DETAIL
  6
CONTINUOUS
 62
     5
 10
61.0
 20
205.0
 30
0.0
 11
3.0000000000009091
 21
205.0
 31
0.0
  0
LINE
  8
DETAIL
  6
CONTINUOUS
 62
     5
 10
0.0000000000009095
 20
205.00520381999971
 30
0.0
 11
1.5000000000009091
 21
205.00520381999971
 31
0.0
  0
LINE
  8
DETAIL
  6
CONTINUOUS
 62
     5
 10
66.0
 20
210.0
 30
0.0
 11
61.0
 21
210.0
 31
0.0
  0
ARC
  8
DETAIL
  6
CONTINUOUS
 62
     5
 10
169.73997533499821
 20
-121.3226537840001
 30
0.0
 40
38.159981281
 50
357.10463971370251
 51
359.99884680710483
  0
ARC
  8
DETAIL
  6
CONTINUOUS
 62
     5
 10
135.39995660799829
 20
-38.700000000000273
 30
0.0
 40
10.5
 50
180.0
 51
270.0
  0
ARC
  8
DETAIL
  6
CONTINUOUS
 62
     5
 10
216.49995660799871
 20
-42.000000000000227
 30
0.0
 40
7.5
 50
270.0
 51
0.0
  0
ARC
  8
DETAIL
  6
CONTINUOUS
 62
     5
 10
167.89995660800381
 20
-53.700000000000273
 30
0.0
 40
4.5
 50
0.0
 51
90.0
  0
ARC
  8
DETAIL
  6
CONTINUOUS
 62
     5
 10
121.59788780400049
 20
-8.1128291910001735
 30
0.0
 40
1.5
 50
4.9999999999981224
 51
82.000000000064986
  0
ARC
  8
DETAIL
  6
CONTINUOUS
 62
     5
 10
214.49995660800229
 20
-50.700000000000273
 30
0.0
 40
1.0
 50
270.0
 51
0.0
  0
ARC
  8
DETAIL
  6
CONTINUOUS
 62
     5
 10
214.49995660800229
 20
-52.700000000000273
 30
0.0
 40
1.0
 50
90.0
 51
180.0
  0
ARC
  8
DETAIL
  6
CONTINUOUS
 62
     5
 10
183.19995660799941
 20
-32.481681361000028
 30
0.0
 40
0.2
 50
0.0
 51
89.999999999895778
  0
ARC
  8
DETAIL
  6
CONTINUOUS
 62
     5
 10
183.19995660799941
 20
-42.081681361000157
 30
0.0
 40
0.2
 50
270.00000000010431
 51
0.0
  0
ARC
  8
DETAIL
  6
CONTINUOUS
 62
     5
 10
179.59995660800089
 20
-42.081681361000157
 30
0.0
 40
0.2
 50
180.00000000010431
 51
270.00000000010431
  0
ARC
  8
DETAIL
  6
CONTINUOUS
 62
     5
 10
179.59995660800089
 20
-32.481681361000028
 30
0.0
 40
0.2
 50
89.999999999895778
 51
180.0
  0
ARC
  8
DETAIL
  6
CONTINUOUS
 62
     5
 10
169.73997533499821
 20
121.4051532669998
 30
0.0
 40
38.159981281
 50
0.0011531929082553
 51
2.8953602862975041
  0
ARC
  8
DETAIL
  6
CONTINUOUS
 62
     5
 10
135.39995660799829
 20
38.699999999999818
 30
0.0
 40
10.5
 50
90.0
 51
180.0
  0
ARC
  8
DETAIL
  6
CONTINUOUS
 62
     5
 10
216.49995660799871
 20
42.0
 30
0.0
 40
7.5
 50
0.0
 51
90.0
  0
ARC
  8
DETAIL
  6
CONTINUOUS
 62
     5
 10
167.89995660800381
 20
53.699999999999818
 30
0.0
 40
4.5
 50
270.0
 51
0.0
  0
ARC
  8
DETAIL
  6
CONTINUOUS
 62
     5
 10
121.59788780400049
 20
8.1128291919999356
 30
0.0
 40
1.5
 50
277.99999999993503
 51
355.00000000000188
  0
ARC
  8
DETAIL
  6
CONTINUOUS
 62
     5
 10
183.19995660799941
 20
42.081681361999927
 30
0.0
 40
0.2
 50
0.0
 51
89.999999999895778
  0
ARC
  8
DETAIL
  6
CONTINUOUS
 62
     5
 10
183.19995660799941
 20
32.48168136199979
 30
0.0
 40
0.2
 50
270.00000000010431
 51
0.0
  0
ARC
  8
DETAIL
  6
CONTINUOUS
 62
     5
 10
179.59995660800089
 20
32.48168136199979
 30
0.0
 40
0.2
 50
180.00000000010431
 51
270.00000000010431
  0
ARC
  8
DETAIL
  6
CONTINUOUS
 62
     5
 10
179.59995660800089
 20
42.081681361999927
 30
0.0
 40
0.2
 50
89.999999999895778
 51
180.0
  0
ARC
  8
DETAIL
  6
CONTINUOUS
 62
     5
 10
90.200000000000728
 20
-173.30000000000021
 30
0.0
 40
20.0
 50
0.0
 51
0.7306317476916077
  0
ARC
  8
DETAIL
  6
CONTINUOUS
 62
     5
 10
66.0
 20
-205.0000000000002
 30
0.0
 40
5.0
 50
270.0
 51
0.0
  0
ARC
  8
DETAIL
  6
CONTINUOUS
 62
     5
 10
3.0000000000009091
 20
-202.0
 30
0.0
 40
3.0
 50
241.92223471973711
 51
270.0
  0
ARC
  8
DETAIL
  6
CONTINUOUS
 62
     5
 10
77.80000000000291
 20
-179.27938543300019
 30
0.0
 40
0.2
 50
270.00000000010431
 51
0.0
  0
ARC
  8
DETAIL
  6
CONTINUOUS
 62
     5
 10
74.200000000000728
 20
-179.27938543300019
 30
0.0
 40
0.2
 50
180.00000000010431
 51
270.00000000010431
  0
ARC
  8
DETAIL
  6
CONTINUOUS
 62
     5
 10
77.80000000000291
 20
-145.81374439199999
 30
0.0
 40
0.2
 50
0.0
 51
89.999999999895778
  0
ARC
  8
DETAIL
  6
CONTINUOUS
 62
     5
 10
77.80000000000291
 20
-155.4137443920001
 30
0.0
 40
0.2
 50
270.00000000010431
 51
0.0
  0
ARC
  8
DETAIL
  6
CONTINUOUS
 62
     5
 10
74.200000000000728
 20
-145.81374439199999
 30
0.0
 40
0.2
 50
89.999999999895778
 51
180.0
  0
ARC
  8
DETAIL
  6
CONTINUOUS
 62
     5
 10
74.200000000000728
 20
-155.4137443920001
 30
0.0
 40
0.2
 50
180.00000000010431
 51
270.00000000010431
  0
ARC
  8
DETAIL
  6
CONTINUOUS
 62
     5
 10
90.200000000000728
 20
173.30000000000001
 30
0.0
 40
20.0
 50
359.50579595929992
 51
0.0
  0
ARC
  8
DETAIL
  6
CONTINUOUS
 62
     5
 10
66.0
 20
205.0
 30
0.0
 40
5.0
 50
0.0
 51
90.0
  0
ARC
  8
DETAIL
  6
CONTINUOUS
 62
     5
 10
3.0000000000009091
 20
202.0
 30
0.0
 40
3.0
 50
90.0
 51
118.07776528026299
  0
ARC
  8
DETAIL
  6
CONTINUOUS
 62
     5
 10
73.695290469000611
 20
163.1711062109998
 30
0.0
 40
2.8047095440000001
 50
357.05256286470012
 51
359.99445703500129
  0
ARC
  8
DETAIL
  6
CONTINUOUS
 62
     5
 10
73.695314004002284
 20
174.42889369199969
 30
0.0
 40
2.8046860090000001
 50
0.0055449827971396
 51
2.9474423390046249
  0
ARC
  8
DETAIL
  6
CONTINUOUS
 62
     5
 10
77.80000000000291
 20
179.27938543400001
 30
0.0
 40
0.2
 50
0.0
 51
89.999999999895778
  0
ARC
  8
DETAIL
  6
CONTINUOUS
 62
     5
 10
74.200000000000728
 20
179.27938543400001
 30
0.0
 40
0.2
 50
89.999999999895778
 51
180.0
  0
LINE
  8
DETAIL
  6
CONTINUOUS
 62
     5
 10
201.17345930000189
 20
-61.028256940000119
 30
0.0
 11
198.28670795400279
 21
-57.198034724000081
 31
0.0
  0
LINE
  8
DETAIL
  6
CONTINUOUS
 62
     5
 10
198.28670795400279
 20
-57.198034724000081
 30
0.0
 11
192.51320526200109
 21
-57.198034724000081
 31
0.0
  0
LINE
  8
DETAIL
  6
CONTINUOUS
 62
     5
 10
192.51320526200109
 20
-57.198034724000081
 30
0.0
 11
189.62645391600199
 21
-61.028256940000119
 31
0.0
  0
LINE
  8
DETAIL
  6
CONTINUOUS
 62
     5
 10
198.28670795400279
 20
-45.7073680780004
 30
0.0
 11
201.17345930000189
 21
-49.537590293000221
 31
0.0
  0
LINE
  8
DETAIL
  6
CONTINUOUS
 62
     5
 10
189.62645391600199
 20
-49.537590293000221
 30
0.0
 11
192.51320526200109
 21
-45.7073680780004
 31
0.0
  0
LINE
  8
DETAIL
  6
CONTINUOUS
 62
     5
 10
192.51320526200109
 20
-45.7073680780004
 30
0.0
 11
198.28670795400279
 21
-45.7073680780004
 31
0.0
  0
LINE
  8
DETAIL
  6
CONTINUOUS
 62
     5
 10
201.17345930000189
 20
49.535040752999983
 30
0.0
 11
198.28670795400279
 21
45.704818537999927
 31
0.0
  0
LINE
  8
DETAIL
  6
CONTINUOUS
 62
     5
 10
198.28670795400279
 20
45.704818537999927
 30
0.0
 11
192.51320526200109
 21
45.704818537999927
 31
0.0
  0
LINE
  8
DETAIL
  6
CONTINUOUS
 62
     5
 10
192.51320526200109
 20
45.704818537999927
 30
0.0
 11
189.62645391600199
 21
49.535040752999983
 31
0.0
  0
LINE
  8
DETAIL
  6
CONTINUOUS
 62
     5
 10
201.17345930000189
 20
61.110756422999877
 30
0.0
 11
198.28670795400279
 21
57.280534207999843
 31
0.0
  0
LINE
  8
DETAIL
  6
CONTINUOUS
 62
     5
 10
198.28670795400279
 20
57.280534207999843
 30
0.0
 11
192.51320526200109
 21
57.280534207999843
 31
0.0
  0
LINE
  8
DETAIL
  6
CONTINUOUS
 62
     5
 10
192.51320526200109
 20
57.280534207999843
 30
0.0
 11
189.62645391600199
 21
61.110756422999877
 31
0.0
  0
ARC
  8
DETAIL
  6
CONTINUOUS
 62
     5
 10
161.9161792627128
 20
-121.3139609612147
 30
0.0
 40
46.028137966857138
 50
301.23312697694342
 51
357.48429551092039
  0
ARC
  8
DETAIL
  6
CONTINUOUS
 62
     5
 10
143.74147085056569
 20
-95.468322788944533
 30
0.0
 40
77.581298731593932
 50
269.37814287361812
 51
302.81305686050842
  0
ARC
  8
DETAIL
  6
CONTINUOUS
 62
     5
 10
161.03583153390349
 20
-118.7254618267564
 30
0.0
 40
47.090205585602753
 50
300.56076995287248
 51
354.38334422907889
  0
ARC
  8
DETAIL
  6
CONTINUOUS
 62
     5
 10
143.68929107547589
 20
-93.241169879527888
 30
0.0
 40
77.879524612582131
 50
269.41891490161288
 51
302.01716722426971
  0
ARC
  8
DETAIL
  6
CONTINUOUS
 62
     5
 10
161.6133966748348
 20
121.2218594661838
 30
0.0
 40
46.334738247475073
 50
2.6130499518046402
 51
58.558679636789563
  0
ARC
  8
DETAIL
  6
CONTINUOUS
 62
     5
 10
143.20899842175459
 20
93.705496386268806
 30
0.0
 40
79.422658405864723
 50
57.585499277180077
 51
90.223300991101524
  0
ARC
  8
DETAIL
  6
CONTINUOUS
 62
     5
 10
161.17598304058811
 20
119.0836311681437
 30
0.0
 40
46.78157267749738
 50
2.843496369915917
 51
59.415369733981173
  0
ARC
  8
DETAIL
  6
CONTINUOUS
 62
     5
 10
143.14042794051781
 20
91.373384113124075
 30
0.0
 40
79.826168359721649
 50
58.390962872926472
 51
90.172955003601274
  0
ARC
  8
DETAIL
  6
CONTINUOUS
 62
     5
 10
143.4488508932009
 20
111.3357069587564
 30
0.0
 40
40.716077405382038
 50
14.31943623874445
 51
90.773124647692754
  0
ARC
  8
DETAIL
  6
CONTINUOUS
 62
     5
 10
143.4488508932009
 20
-111.3357069587605
 30
0.0
 40
40.716077405382038
 50
269.22687535220302
 51
345.68056376125548
  0
ARC
  8
DETAIL
  6
CONTINUOUS
 62
     5
 10
204.91453547567471
 20
-44.732100642671412
 30
0.0
 40
3.0881806512569732
 50
14.82207455153134
 51
90.27048634268769
  0
ARC
  8
DETAIL
  6
CONTINUOUS
 62
     5
 10
204.79445888513601
 20
-45.665739284263957
 30
0.0
 40
3.2466096083136091
 50
16.9546999427915
 51
88.137860951568499
  0
ARC
  8
DETAIL
  6
CONTINUOUS
 62
     5
 10
204.91453547567471
 20
44.732100642670048
 30
0.0
 40
3.0881806512569732
 50
269.72951365731228
 51
345.17792544846873
  0
ARC
  8
DETAIL
  6
CONTINUOUS
 62
     5
 10
204.97512284137059
 20
45.54040594872049
 30
0.0
 40
3.0379923023658701
 50
268.58223884974939
 51
344.31280484942528
  0
ARC
  8
DETAIL
  6
CONTINUOUS
 62
     5
 10
185.6177929697842
 20
45.24218280162836
 30
0.0
 40
2.7533354483688122
 50
189.21052489860679
 51
275.88203599582403
  0
ARC
  8
DETAIL
  6
CONTINUOUS
 62
     5
 10
185.7632828190435
 20
-45.329182211764419
 30
0.0
 40
2.9115476604787638
 50
87.309434368533886
 51
169.55767897133671
  0
ARC
  8
DETAIL
  6
CONTINUOUS
 62
     5
 10
181.6468745081047
 20
67.258059528696322
 30
0.0
 40
5.4759774245160129
 50
82.095364043229182
 51
163.36945037433429
  0
ARC
  8
DETAIL
  6
CONTINUOUS
 62
     5
 10
182.02341555819291
 20
68.041669971131569
 30
0.0
 40
2.7379887124529589
 50
82.095364046806637
 51
163.36945037082981
  0
ARC
  8
DETAIL
  6
CONTINUOUS
 62
     5
 10
181.6468745081047
 20
-67.258059528695412
 30
0.0
 40
5.4759774245160129
 50
196.63054962566571
 51
277.90463595677079
  0
ARC
  8
DETAIL
  6
CONTINUOUS
 62
     5
 10
182.02341555819291
 20
-68.041669971130659
 30
0.0
 40
2.7379887124529589
 50
196.63054962917019
 51
277.90463595319329
  0
ARC
  8
DETAIL
  6
CONTINUOUS
 62
     5
 10
187.8089635401584
 20
-63.19233564483784
 30
0.0
 40
22.936803368208238
 50
331.15501977155532
 51
356.21533491453499
  0
ARC
  8
DETAIL
  6
CONTINUOUS
 62
     5
 10
77.310221401716262
 20
159.12623083615841
 30
0.0
 40
7.0849480677583792
 50
207.04473981126301
 51
267.49044575760291
  0
ARC
  8
DETAIL
  6
CONTINUOUS
 62
     5
 10
2.8344583887555932
 20
151.4123354178478
 30
0.0
 40
1.3669399490802361
 50
192.51541080326939
 51
276.95580981999939
  0
ARC
  8
DETAIL
  6
CONTINUOUS
 62
     5
 10
2.6679949390618281
 20
151.70725063526149
 30
0.0
 40
2.73269766574293
 50
192.4929148728969
 51
276.97830575040592
  0
ARC
  8
DETAIL
  6
CONTINUOUS
 62
     5
 10
2.8344583887555932
 20
-151.412335417848
 30
0.0
 40
1.3669399490802361
 50
83.044190180000626
 51
167.48458919673061
  0
ARC
  8
DETAIL
  6
CONTINUOUS
 62
     5
 10
2.6679949390618281
 20
-151.70725063526149
 30
0.0
 40
2.73269766574293
 50
83.021694249594091
 51
167.50708512710301
  0
ARC
  8
DETAIL
  6
CONTINUOUS
 62
     5
 10
2.8344583887555932
 20
205.30142271512841
 30
0.0
 40
1.366939949357723
 50
192.51541085566049
 51
276.95580981852947
  0
ARC
  8
DETAIL
  6
CONTINUOUS
 62
     5
 10
2.8344583887555932
 20
-205.30142271512841
 30
0.0
 40
1.366939949357723
 50
83.044190181470483
 51
167.4845891443394
  0
ARC
  8
OUTLINE
  6
CONTINUOUS
 62
     3
 10
161.61339667483546
 20
121.22185946618394
 30
0.0
 40
46.334738247474817
 50
2.6130499518045553
 51
58.558679636802879
  0
ARC
  8
OUTLINE
  6
CONTINUOUS
 62
     3
 10
143.20899842175379
 20
93.705496386269331
 30
0.0
 40
79.422658405864254
 50
57.585499277212989
 51
90.223300990720986
  0
LINE
  8
OUTLINE
  6
CONTINUOUS
 62
     3
 10
142.89946229952599
 20
173.127551608
 30
0.0
 11
111.0
 21
173.127551608
 31
0.0
  0
LINE
  8
OUTLINE
  6
CONTINUOUS
 62
     3
 10
111.0
 20
173.127551608
 30
0.0
 11
111.0
 21
174.0
 31
0.0
  0
LINE
  8
OUTLINE
  6
CONTINUOUS
 62
     3
 10
111.0
 20
174.0
 30
0.0
 11
110.2000000000007
 21
174.0
 31
0.0
  0
LINE
  8
OUTLINE
  6
CONTINUOUS
 62
     3
 10
110.2000000000007
 20
174.0
 30
0.0
 11
110.2000000000007
 21
173.30000000002289
 31
0.0
  0
ARC
  8
OUTLINE
  6
CONTINUOUS
 62
     3
 10
90.200000000282103
 20
173.30000000003849
 30
0.0
 40
19.999999999718593
 50
359.50596562589317
 51
0.0
  0
LINE
  8
OUTLINE
  6
CONTINUOUS
 62
     3
 10
110.19925652498389
 20
173.127551608
 30
0.0
 11
78.000000000003638
 21
173.127551608
 31
0.0
  0
LINE
  8
OUTLINE
  6
CONTINUOUS
 62
     3
 10
78.000000000003638
 20
173.127551608
 30
0.0
 11
78.000000000003638
 21
179.47938543400011
 31
0.0
  0
LINE
  8
OUTLINE
  6
CONTINUOUS
 62
     3
 10
78.000000000003638
 20
179.47938543400011
 30
0.0
 11
74.0
 21
179.47938543399979
 31
0.0
  0
LINE
  8
OUTLINE
  6
CONTINUOUS
 62
     3
 10
74.0
 20
179.47938543399979
 30
0.0
 11
74.0
 21
189.25632091199989
 31
0.0
  0
LINE
  8
OUTLINE
  6
CONTINUOUS
 62
     3
 10
74.0
 20
189.25632091199989
 30
0.0
 11
71.0
 21
189.25632091199989
 31
0.0
  0
LINE
  8
OUTLINE
  6
CONTINUOUS
 62
     3
 10
71.0
 20
189.25632091199989
 30
0.0
 11
71.0
 21
205.0
 31
0.0
  0
ARC
  8
OUTLINE
  6
CONTINUOUS
 62
     3
 10
66.0
 20
205.0
 30
0.0
 40
4.9999999999999991
 50
0.0
 51
90.0
  0
LINE
  8
OUTLINE
  6
CONTINUOUS
 62
     3
 10
66.0
 20
210.0
 30
0.0
 11
61.0
 21
210.0
 31
0.0
  0
LINE
  8
OUTLINE
  6
CONTINUOUS
 62
     3
 10
61.0
 20
210.0
 30
0.0
 11
61.0
 21
205.0
 31
0.0
  0
LINE
  8
OUTLINE
  6
CONTINUOUS
 62
     3
 10
61.0
 20
205.0
 30
0.0
 11
3.0000000000009091
 21
205.0
 31
0.0
  0
ARC
  8
OUTLINE
  6
CONTINUOUS
 62
     3
 10
3.0000000000039853
 20
202.00000000000054
 30
0.0
 40
2.9999999999994578
 50
90.0
 51
117.2964308890044
  0
ARC
  8
OUTLINE
  6
CONTINUOUS
 62
     3
 10
2.8344583887566648
 20
205.30142271513006
 30
0.0
 40
1.3669399493587338
 50
192.51541085573854
 51
207.70351030538552
  0
LINE
  8
OUTLINE
  6
CONTINUOUS
 62
     3
 10
1.5000000000009091
 20
205.00520381999971
 30
0.0
 11
0.0000000000009095
 21
205.00520381999971
 31
0.0
  0
LINE
  8
OUTLINE
  6
CONTINUOUS
 62
     3
 10
0.0000000000009095
 20
205.00520381999971
 30
0.0
 11
0.0000000000009095
 21
151.11611652399549
 31
0.0
  0
ARC
  8
OUTLINE
  6
CONTINUOUS
 62
     3
 10
2.6679949390618543
 20
151.70725063526135
 30
0.0
 40
2.7326976657429385
 50
192.49291487298183
 51
276.97830575040734
  0
LINE
  8
OUTLINE
  6
CONTINUOUS
 62
     3
 10
3.0000000000009091
 20
148.9947961799999
 30
0.0
 11
3.0000000000009091
 21
147.25735931300011
 31
0.0
  0
LINE
  8
OUTLINE
  6
CONTINUOUS
 62
     3
 10
3.0000000000009091
 20
147.25735931300011
 30
0.0
 11
0.0000000000009095
 21
147.25735931300011
 31
0.0
  0
LINE
  8
OUTLINE
  6
CONTINUOUS
 62
     3
 10
0.0000000000009095
 20
147.25735931300011
 30
0.0
 11
0.0000000000009095
 21
0.5
 31
0.0
  0
LINE
  8
OUTLINE
  6
CONTINUOUS
 62
     3
 10
0.0000000000009095
 20
0.5
 30
0.0
 11
2.0000000000009091
 21
0.5
 31
0.0
  0
LINE
  8
OUTLINE
  6
CONTINUOUS
 62
     3
 10
2.0000000000009091
 20
0.5
 30
0.0
 11
2.0000000000009091
 21
-0.5
 31
0.0
  0
LINE
  8
OUTLINE
  6
CONTINUOUS
 62
     3
 10
2.0000000000009091
 20
-0.5
 30
0.0
 11
0.0000000000009095
 21
-0.5
 31
0.0
  0
LINE
  8
OUTLINE
  6
CONTINUOUS
 62
     3
 10
0.0000000000009095
 20
-0.5
 30
0.0
 11
0.0000000000009095
 21
-147.25735931300011
 31
0.0
  0
LINE
  8
OUTLINE
  6
CONTINUOUS
 62
     3
 10
0.0000000000009095
 20
-147.25735931300011
 30
0.0
 11
3.0000000000009091
 21
-147.25735931300011
 31
0.0
  0
LINE
  8
OUTLINE
  6
CONTINUOUS
 62
     3
 10
3.0000000000009091
 20
-147.25735931300011
 30
0.0
 11
3.0000000000009091
 21
-148.99479618000029
 31
0.0
  0
ARC
  8
OUTLINE
  6
CONTINUOUS
 62
     3
 10
2.6679949390618565
 20
-151.70725063526172
 30
0.0
 40
2.7326976657429114
 50
83.021694249592713
 51
167.50708512702113
  0
LINE
  8
OUTLINE
  6
CONTINUOUS
 62
     3
 10
0.0000000000009095
 20
-151.116116523996
 30
0.0
 11
0.0000000000009095
 21
-205.0052038200001
 31
0.0
  0
LINE
  8
OUTLINE
  6
CONTINUOUS
 62
     3
 10
0.0000000000009095
 20
-205.0052038200001
 30
0.0
 11
1.5000000000009091
 21
-205.0052038200001
 31
0.0
  0
ARC
  8
OUTLINE
  6
CONTINUOUS
 62
     3
 10
2.8344583887506798
 20
-205.30142271515999
 30
0.0
 40
1.3669399493592869
 50
152.29648969345612
 51
167.48458914299874
  0
ARC
  8
OUTLINE
  6
CONTINUOUS
 62
     3
 10
3.0000000000004006
 20
-202.00000000000003
 30
0.0
 40
2.999999999999984
 50
242.70356911121451
 51
270.0
  0
LINE
  8
OUTLINE
  6
CONTINUOUS
 62
     3
 10
3.0000000000009091
 20
-205.0
 30
0.0
 11
61.0
 21
-205.0000000000002
 31
0.0
  0
LINE
  8
OUTLINE
  6
CONTINUOUS
 62
     3
 10
61.0
 20
-205.0000000000002
 30
0.0
 11
61.0
 21
-210.0000000000002
 31
0.0
  0
LINE
  8
OUTLINE
  6
CONTINUOUS
 62
     3
 10
61.0
 20
-210.0000000000002
 30
0.0
 11
66.0
 21
-210.0000000000002
 31
0.0
  0
ARC
  8
OUTLINE
  6
CONTINUOUS
 62
     3
 10
66.0
 20
-205.0000000000002
 30
0.0
 40
4.9999999999999991
 50
270.0
 51
0.0
  0
LINE
  8
OUTLINE
  6
CONTINUOUS
 62
     3
 10
71.0
 20
-205.0000000000002
 30
0.0
 11
71.0
 21
-189.2563209110001
 31
0.0
  0
LINE
  8
OUTLINE
  6
CONTINUOUS
 62
     3
 10
71.0
 20
-189.2563209110001
 30
0.0
 11
74.0
 21
-189.2563209110001
 31
0.0
  0
LINE
  8
OUTLINE
  6
CONTINUOUS
 62
     3
 10
74.0
 20
-189.2563209110001
 30
0.0
 11
74.0
 21
-179.47938543300009
 31
0.0
  0
LINE
  8
OUTLINE
  6
CONTINUOUS
 62
     3
 10
74.0
 20
-179.47938543300009
 30
0.0
 11
78.000000000003638
 21
-179.47938543300009
 31
0.0
  0
LINE
  8
OUTLINE
  6
CONTINUOUS
 62
     3
 10
78.000000000003638
 20
-179.47938543300009
 30
0.0
 11
78.000000000003638
 21
-173.1275516080002
 31
0.0
  0
LINE
  8
OUTLINE
  6
CONTINUOUS
 62
     3
 10
78.000000000003638
 20
-173.1275516080002
 30
0.0
 11
110.19925652498389
 21
-173.1275516080002
 31
0.0
  0
ARC
  8
OUTLINE
  6
CONTINUOUS
 62
     3
 10
90.199999998688099
 20
-173.30000000004557
 30
0.0
 40
20.0000000013126
 50
0.0
 51
0.494034374087164
  0
LINE
  8
OUTLINE
  6
CONTINUOUS
 62
     3
 10
110.2000000000007
 20
-173.30000000000359
 30
0.0
 11
110.2000000000007
 21
-174.0
 31
0.0
  0
LINE
  8
OUTLINE
  6
CONTINUOUS
 62
     3
 10
110.2000000000007
 20
-174.0
 30
0.0
 11
111.0
 21
-174.0
 31
0.0
  0
LINE
  8
OUTLINE
  6
CONTINUOUS
 62
     3
 10
111.0
 20
-174.0
 30
0.0
 11
111.0
 21
-173.04505212500001
 31
0.0
  0
LINE
  8
OUTLINE
  6
CONTINUOUS
 62
     3
 10
111.0
 20
-173.04505212500001
 30
0.0
 11
142.89946229882659
 21
-173.04505212500001
 31
0.0
  0
ARC
  8
OUTLINE
  6
CONTINUOUS
 62
     3
 10
143.74147085056538
 20
-95.46832278894486
 30
0.0
 40
77.581298731593563
 50
269.37814287345748
 51
302.81305686050791
  0
ARC
  8
OUTLINE
  6
CONTINUOUS
 62
     3
 10
161.91617926271317
 20
-121.31396096121455
 30
0.0
 40
46.028137966857308
 50
301.23312697691608
 51
357.48429551093318
  0
LINE
  8
OUTLINE
  6
CONTINUOUS
 62
     3
 10
207.89995660800381
 20
-123.3342841419922
 30
0.0
 11
207.89995660800381
 21
-74.25800084398611
 31
0.0
  0
ARC
  8
OUTLINE
  6
CONTINUOUS
 62
     3
 10
187.80896354015928
 20
-63.19233564483838
 30
0.0
 40
22.936803368207293
 50
331.15501977163262
 51
356.21533491453545
  0
LINE
  8
OUTLINE
  6
CONTINUOUS
 62
     3
 10
210.69574564899989
 20
-64.706321594000201
 30
0.0
 11
210.69574564899989
 21
-61.700000000000273
 31
0.0
  0
LINE
  8
OUTLINE
  6
CONTINUOUS
 62
     3
 10
210.69574564899989
 20
-61.700000000000273
 30
0.0
 11
213.49995660800229
 21
-61.700000000000273
 31
0.0
  0
LINE
  8
OUTLINE
  6
CONTINUOUS
 62
     3
 10
213.49995660800229
 20
-61.700000000000273
 30
0.0
 11
213.49995660800229
 21
-52.700000000000273
 31
0.0
  0
ARC
  8
OUTLINE
  6
CONTINUOUS
 62
     3
 10
214.49995660800226
 20
-52.700000000000252
 30
0.0
 40
0.9999999999999804
 50
90.0
 51
180.0
  0
ARC
  8
OUTLINE
  6
CONTINUOUS
 62
     3
 10
214.49995660800232
 20
-50.700000000000294
 30
0.0
 40
0.9999999999999804
 50
270.0
 51
0.0
  0
LINE
  8
OUTLINE
  6
CONTINUOUS
 62
     3
 10
215.49995660800229
 20
-50.700000000000273
 30
0.0
 11
215.49995660799871
 21
-49.500000000000227
 31
0.0
  0
LINE
  8
OUTLINE
  6
CONTINUOUS
 62
     3
 10
215.49995660799871
 20
-49.500000000000227
 30
0.0
 11
216.49995660799871
 21
-49.500000000000227
 31
0.0
  0
ARC
  8
OUTLINE
  6
CONTINUOUS
 62
     3
 10
216.49995660799857
 20
-42.000000000000078
 30
0.0
 40
7.5000000000001465
 50
270.0
 51
0.0
  0
LINE
  8
OUTLINE
  6
CONTINUOUS
 62
     3
 10
223.99995660799871
 20
-42.000000000000227
 30
0.0
 11
223.99995660799871
 21
42.0
 31
0.0
  0
ARC
  8
OUTLINE
  6
CONTINUOUS
 62
     3
 10
216.49995660799877
 20
42.00000000000005
 30
0.0
 40
7.4999999999999503
 50
0.0
 51
90.0
  0
LINE
  8
OUTLINE
  6
CONTINUOUS
 62
     3
 10
216.49995660799871
 20
49.5
 30
0.0
 11
207.89995660800381
 21
49.5
 31
0.0
  0
LINE
  8
OUTLINE
  6
CONTINUOUS
 62
     3
 10
207.89995660800381
 20
49.5
 30
0.0
 11
207.89995660800381
 21
123.33428414299991
 31
0.0
  0
LINE
  8
SIZE
  6
CONTINUOUS
 62
    30
 10
0.0000000000009107
 20
225.00520381999971
 30
0.0
 11
0.0000000000009239
 21
440.85409207264962
 31
0.0
  0
LINE
  8
SIZE
  6
CONTINUOUS
 62
    30
 10
223.99995660799871
 20
62.0
 30
0.0
 11
223.99995660799871
 21
440.85409207264962
 31
0.0
  0
LINE
  8
SIZE
  6
CONTINUOUS
 62
    30
 10
12.00000000000092
 20
420.85409207264962
 30
0.0
 11
211.99995660799871
 21
420.85409207264962
 31
0.0
  0
CIRCLE
  8
SIZE
  6
CONTINUOUS
 62
    30
 10
0.0000000000009227
 20
420.85409207264962
 30
0.0
 40
6.0
  0
LINE
  8
SIZE
  6
CONTINUOUS
 62
    30
 10
0.0000000000009227
 20
420.85409207264962
 30
0.0
 11
12.000000000000922
 21
420.85409207264962
 31
0.0
  0
CIRCLE
  8
SIZE
  6
CONTINUOUS
 62
    30
 10
223.99995660799871
 20
420.85409207264962
 30
0.0
 40
6.0
  0
LINE
  8
SIZE
  6
CONTINUOUS
 62
    30
 10
223.99995660799871
 20
420.85409207264962
 30
0.0
 11
211.99995660799871
 21
420.85409207264962
 31
0.0
  0
TEXT
  8
SIZE
  6
CONTINUOUS
 62
    30
 10
31.071978303999799
 20
445.85409207264962
 30
0.0
 40
64.0
  1
224
 50
0.0
 41
0.9
 51
0.0
  7
STANDARD
 71
     0
 72
     1
 11
111.9999783039998
 21
445.85409207264962
 31
0.0
210
0.0
220
0.0
230
1.0
  0
POINT
  8
DEFPOINTS
  6
CONTINUOUS
 62
    30
 10
0.0000000000009095
 20
205.00520381999971
 30
0.0
  0
POINT
  8
DEFPOINTS
  6
CONTINUOUS
 62
    30
 10
223.99995660799871
 20
42.0
 30
0.0
  0
POINT
  8
DEFPOINTS
  6
CONTINUOUS
 62
    30
 10
223.99995660799871
 20
420.85409207264962
 30
0.0
  0
LINE
  8
SIZE
  6
CONTINUOUS
 62
    30
 10
61.0
 20
230.0
 30
0.0
 11
61.000000000000007
 21
290.79316834125672
 31
0.0
  0
LINE
  8
SIZE
  6
CONTINUOUS
 62
    30
 10
111.0
 20
194.0
 30
0.0
 11
111.0
 21
290.79316834125672
 31
0.0
  0
LINE
  8
SIZE
  6
CONTINUOUS
 62
    30
 10
49.000000000000007
 20
270.79316834125672
 30
0.0
 11
37.000000000000007
 21
270.79316834125672
 31
0.0
  0
LINE
  8
SIZE
  6
CONTINUOUS
 62
    30
 10
123.0
 20
270.79316834125672
 30
0.0
 11
376.78106947279957
 21
270.79316834125672
 31
0.0
  0
LINE
  8
SIZE
  6
CONTINUOUS
 62
    30
 10
61.000000000000007
 20
270.79316834125672
 30
0.0
 11
111.0
 21
270.79316834125672
 31
0.0
  0
CIRCLE
  8
SIZE
  6
CONTINUOUS
 62
    30
 10
61.000000000000007
 20
270.79316834125672
 30
0.0
 40
6.0
  0
LINE
  8
SIZE
  6
CONTINUOUS
 62
    30
 10
61.000000000000007
 20
270.79316834125672
 30
0.0
 11
49.000000000000007
 21
270.79316834125672
 31
0.0
  0
CIRCLE
  8
SIZE
  6
CONTINUOUS
 62
    30
 10
111.0
 20
270.79316834125672
 30
0.0
 40
6.0
  0
LINE
  8
SIZE
  6
CONTINUOUS
 62
    30
 10
111.0
 20
270.79316834125672
 30
0.0
 11
123.0
 21
270.79316834125672
 31
0.0
  0
TEXT
  8
SIZE
  6
CONTINUOUS
 62
    30
 10
251.00849804422819
 20
295.79316834125672
 30
0.0
 40
64.0
  1
50
 50
0.0
 41
0.9
 51
0.0
  7
STANDARD
 71
     0
 72
     1
 11
305.1524980442282
 21
295.79316834125672
 31
0.0
210
0.0
220
0.0
230
1.0
  0
POINT
  8
DEFPOINTS
  6
CONTINUOUS
 62
    30
 10
61.0
 20
210.0
 30
0.0
  0
POINT
  8
DEFPOINTS
  6
CONTINUOUS
 62
    30
 10
111.0
 20
174.0
 30
0.0
  0
POINT
  8
DEFPOINTS
  6
CONTINUOUS
 62
    30
 10
111.0
 20
270.79316834125672
 30
0.0
  0
CIRCLE
  8
FIX
  6
CONTINUOUS
 62
    11
 10
0.0000000000009095
 20
190.0
 30
0.0
 40
5.0
  0
CIRCLE
  8
FIX
  6
CONTINUOUS
 62
    11
 10
0.0000000000009095
 20
-190.0
 30
0.0
 40
5.0
  0
LINE
  8
BASIS
  6
DASHDOT
 62
     6
 10
0.0000000000009095
 20
-210.0
 30
0.0
 11
0.0000000000009095
 21
-170.0
 31
0.0
  0
LINE
  8
BASIS
  6
DASHDOT
 62
     6
 10
20.000000000000909
 20
-190.0
 30
0.0
 11
-19.999999999999091
 21
-190.0
 31
0.0
  0
LINE
  8
BASIS
  6
DASHDOT
 62
     6
 10
0.0000000000009095
 20
170.0
 30
0.0
 11
0.0000000000009095
 21
210.0
 31
0.0
  0
LINE
  8
BASIS
  6
DASHDOT
 62
     6
 10
20.000000000000909
 20
190.0
 30
0.0
 11
-19.999999999999091
 21
190.0
 31
0.0
  0
LINE
  8
SIZE
  6
CONTINUOUS
 62
    30
 10
41.000000000000021
 20
210.00000000000011
 30
0.0
 11
-231.48233150927931
 21
210.00000000000011
 31
0.0
  0
LINE
  8
SIZE
  6
CONTINUOUS
 62
    30
 10
41.000000000000021
 20
-210.00000000000031
 30
0.0
 11
-231.48233150927919
 21
-210.0000000000004
 31
0.0
  0
LINE
  8
SIZE
  6
CONTINUOUS
 62
    30
 10
-211.48233150927931
 20
198.00000000000011
 30
0.0
 11
-211.48233150927919
 21
-198.0000000000004
 31
0.0
  0
CIRCLE
  8
SIZE
  6
CONTINUOUS
 62
    30
 10
-211.48233150927931
 20
210.00000000000011
 30
0.0
 40
6.0
  0
LINE
  8
SIZE
  6
CONTINUOUS
 62
    30
 10
-211.48233150927931
 20
210.00000000000011
 30
0.0
 11
-211.48233150927931
 21
198.00000000000011
 31
0.0
  0
CIRCLE
  8
SIZE
  6
CONTINUOUS
 62
    30
 10
-211.48233150927919
 20
-210.0000000000004
 30
0.0
 40
6.0
  0
LINE
  8
SIZE
  6
CONTINUOUS
 62
    30
 10
-211.48233150927919
 20
-210.0000000000004
 30
0.0
 11
-211.48233150927919
 21
-198.0000000000004
 31
0.0
  0
TEXT
  8
SIZE
  6
CONTINUOUS
 62
    30
 10
-236.48233150927922
 20
-81.50400000000009
 30
0.0
 40
64.0
  1
420
 50
90.0
 41
0.9
 51
0.0
  7
STANDARD
 71
     0
 72
     1
 11
-236.48233150927922
 21
-0.0000000000000673
 31
0.0
210
0.0
220
0.0
230
1.0
  0
POINT
  8
DEFPOINTS
  6
CONTINUOUS
 62
    30
 10
61.000000000000028
 20
210.00000000000011
 30
0.0
  0
POINT
  8
DEFPOINTS
  6
CONTINUOUS
 62
    30
 10
61.000000000000028
 20
-210.00000000000031
 30
0.0
  0
POINT
  8
DEFPOINTS
  6
CONTINUOUS
 62
    30
 10
-211.48233150927919
 20
-210.0000000000004
 30
0.0
  0
LINE
  8
SIZE
  6
CONTINUOUS
 62
    30
 10
-39.999999999999098
 20
190.00000000000011
 30
0.0
 11
-113.40005162252331
 21
190.0
 31
0.0
  0
LINE
  8
SIZE
  6
CONTINUOUS
 62
    30
 10
-39.999999999999098
 20
-190.00000000000011
 30
0.0
 11
-113.40005162252331
 21
-190.00000000000011
 31
0.0
  0
LINE
  8
SIZE
  6
CONTINUOUS
 62
    30
 10
-93.400051622523335
 20
178.0
 30
0.0
 11
-93.40005162252325
 21
-178.00000000000011
 31
0.0
  0
CIRCLE
  8
SIZE
  6
CONTINUOUS
 62
    30
 10
-93.400051622523335
 20
190.0
 30
0.0
 40
6.0
  0
LINE
  8
SIZE
  6
CONTINUOUS
 62
    30
 10
-93.400051622523335
 20
190.0
 30
0.0
 11
-93.400051622523335
 21
178.0
 31
0.0
  0
CIRCLE
  8
SIZE
  6
CONTINUOUS
 62
    30
 10
-93.40005162252325
 20
-190.00000000000011
 30
0.0
 40
6.0
  0
LINE
  8
SIZE
  6
CONTINUOUS
 62
    30
 10
-93.40005162252325
 20
-190.00000000000011
 30
0.0
 11
-93.40005162252325
 21
-178.00000000000011
 31
0.0
  0
TEXT
  8
SIZE
  6
CONTINUOUS
 62
    30
 10
-118.40005162252331
 20
-80.927999999999983
 30
0.0
 40
64.0
  1
380
 50
90.0
 41
0.9
 51
0.0
  7
STANDARD
 71
     0
 72
     1
 11
-118.40005162252331
 21
0.0000000000000107
 31
0.0
210
0.0
220
0.0
230
1.0
  0
POINT
  8
DEFPOINTS
  6
CONTINUOUS
 62
    30
 10
-19.999999999999101
 20
190.00000000000011
 30
0.0
  0
POINT
  8
DEFPOINTS
  6
CONTINUOUS
 62
    30
 10
-19.999999999999101
 20
-190.00000000000011
 30
0.0
  0
POINT
  8
DEFPOINTS
  6
CONTINUOUS
 62
    30
 10
-93.40005162252325
 20
-190.00000000000011
 30
0.0
  0
LINE
  8
SIZE
  6
CONTINUOUS
 62
    30
 10
131.00000000000011
 20
-174.00000000000011
 30
0.0
 11
648.46192203702344
 21
-174.0
 31
0.0
  0
LINE
  8
SIZE
  6
CONTINUOUS
 62
    30
 10
131.00000000000011
 20
174.00000000000011
 30
0.0
 11
648.46192203702344
 21
174.00000000000011
 31
0.0
  0
LINE
  8
SIZE
  6
CONTINUOUS
 62
    30
 10
628.46192203702344
 20
-162.0
 30
0.0
 11
628.46192203702344
 21
162.00000000000011
 31
0.0
  0
CIRCLE
  8
SIZE
  6
CONTINUOUS
 62
    30
 10
628.46192203702344
 20
-174.0
 30
0.0
 40
6.0
  0
LINE
  8
SIZE
  6
CONTINUOUS
 62
    30
 10
628.46192203702344
 20
-174.0
 30
0.0
 11
628.46192203702344
 21
-162.0
 31
0.0
  0
CIRCLE
  8
SIZE
  6
CONTINUOUS
 62
    30
 10
628.46192203702344
 20
174.00000000000011
 30
0.0
 40
6.0
  0
LINE
  8
SIZE
  6
CONTINUOUS
 62
    30
 10
628.46192203702344
 20
174.00000000000011
 30
0.0
 11
628.46192203702344
 21
162.00000000000011
 31
0.0
  0
TEXT
  8
SIZE
  6
CONTINUOUS
 62
    30
 10
603.46192203702333
 20
-115.48800000000008
 30
0.0
 40
64.0
  1
φ348
 50
90.0
 41
0.9
 51
0.0
  7
STANDARD
 71
     0
 72
     1
 11
603.46192203702333
 21
-0.0000000000000903
 31
0.0
210
0.0
220
0.0
230
1.0
  0
POINT
  8
DEFPOINTS
  6
CONTINUOUS
 62
    30
 10
111.0000000000001
 20
-174.00000000000011
 30
0.0
  0
POINT
  8
DEFPOINTS
  6
CONTINUOUS
 62
    30
 10
111.0000000000001
 20
174.00000000000011
 30
0.0
  0
POINT
  8
DEFPOINTS
  6
CONTINUOUS
 62
    30
 10
628.46192203702344
 20
174.00000000000011
 30
0.0
  0
POINT
  8
ARRANGE
  6
CONTINUOUS
 62
     1
 10
0.0
 20
0.0
 30
0.0
 50
180.0
  0
CIRCLE
  8
ARRANGE
  6
CONTINUOUS
 62
     1
 10
0.0
 20
0.0
 30
0.0
 40
40.0
  0
LINE
  8
SIZE
  6
CONTINUOUS
 62
    30
 10
61.0
 20
230.0
 30
0.0
 11
61.000000000000007
 21
290.79316834125672
 31
0.0
  0
LINE
  8
SIZE
  6
CONTINUOUS
 62
    30
 10
0.0000000000009107
 20
225.00520381999971
 30
0.0
 11
0.0000000000009147
 21
290.79316834125672
 31
0.0
  0
LINE
  8
SIZE
  6
CONTINUOUS
 62
    30
 10
73.0
 20
270.79316834125672
 30
0.0
 11
85.0
 21
270.79316834125672
 31
0.0
  0
LINE
  8
SIZE
  6
CONTINUOUS
 62
    30
 10
-11.999999999999091
 20
270.79316834125672
 30
0.0
 11
-142.57142857142799
 21
270.79316834125672
 31
0.0
  0
LINE
  8
SIZE
  6
CONTINUOUS
 62
    30
 10
61.000000000000007
 20
270.79316834125672
 30
0.0
 11
0.0000000000009135
 21
270.79316834125672
 31
0.0
  0
CIRCLE
  8
SIZE
  6
CONTINUOUS
 62
    30
 10
61.000000000000007
 20
270.79316834125672
 30
0.0
 40
6.0
  0
LINE
  8
SIZE
  6
CONTINUOUS
 62
    30
 10
61.000000000000007
 20
270.79316834125672
 30
0.0
 11
73.0
 21
270.79316834125672
 31
0.0
  0
CIRCLE
  8
SIZE
  6
CONTINUOUS
 62
    30
 10
0.0000000000009135
 20
270.79316834125672
 30
0.0
 40
6.0
  0
LINE
  8
SIZE
  6
CONTINUOUS
 62
    30
 10
0.0000000000009135
 20
270.79316834125672
 30
0.0
 11
-11.999999999999087
 21
270.79316834125672
 31
0.0
  0
TEXT
  8
SIZE
  6
CONTINUOUS
 62
    30
 10
-131.09371428571376
 20
295.79316834125672
 30
0.0
 40
64.0
  1
61
 50
0.0
 41
0.9
 51
0.0
  7
STANDARD
 71
     0
 72
     1
 11
-83.285714285713752
 21
295.79316834125672
 31
0.0
210
0.0
220
0.0
230
1.0
  0
POINT
  8
DEFPOINTS
  6
CONTINUOUS
 62
    30
 10
61.0
 20
210.0
 30
0.0
  0
POINT
  8
DEFPOINTS
  6
CONTINUOUS
 62
    30
 10
0.0000000000009095
 20
205.00520381999971
 30
0.0
  0
POINT
  8
DEFPOINTS
  6
CONTINUOUS
 62
    30
 10
0.0000000000009135
 20
270.79316834125672
 30
0.0
  0
LINE
  8
SIZE
  6
CONTINUOUS
 62
    30
 10
236.4999566079988
 20
49.500000000000028
 30
0.0
 11
512.48947759868418
 21
49.500000000000071
 31
0.0
  0
LINE
  8
SIZE
  6
CONTINUOUS
 62
    30
 10
236.4999566079988
 20
-49.500000000000263
 30
0.0
 11
512.48947759868418
 21
-49.500000000000213
 31
0.0
  0
LINE
  8
SIZE
  6
CONTINUOUS
 62
    30
 10
492.48947759868418
 20
-37.500000000000213
 30
0.0
 11
492.48947759868418
 21
37.500000000000057
 31
0.0
  0
LINE
  8
SIZE
  6
CONTINUOUS
 62
    30
 10
492.48947759868418
 20
49.500000000000071
 30
0.0
 11
492.48947759868412
 21
365.63458268424972
 31
0.0
  0
CIRCLE
  8
SIZE
  6
CONTINUOUS
 62
    30
 10
492.48947759868418
 20
-49.500000000000213
 30
0.0
 40
6.0
  0
LINE
  8
SIZE
  6
CONTINUOUS
 62
    30
 10
492.48947759868418
 20
-49.500000000000213
 30
0.0
 11
492.48947759868418
 21
-37.500000000000213
 31
0.0
  0
CIRCLE
  8
SIZE
  6
CONTINUOUS
 62
    30
 10
492.48947759868418
 20
49.500000000000071
 30
0.0
 40
6.0
  0
LINE
  8
SIZE
  6
CONTINUOUS
 62
    30
 10
492.48947759868418
 20
49.500000000000071
 30
0.0
 11
492.48947759868418
 21
37.500000000000071
 31
0.0
  0
TEXT
  8
SIZE
  6
CONTINUOUS
 62
    30
 10
467.48947759868412
 20
181.19229696996371
 30
0.0
 40
64.0
  1
φ99
 50
90.0
 41
0.9
 51
0.0
  7
STANDARD
 71
     0
 72
     1
 11
467.48947759868412
 21
269.32029696996369
 31
0.0
210
0.0
220
0.0
230
1.0
  0
POINT
  8
DEFPOINTS
  6
CONTINUOUS
 62
    30
 10
216.4999566079988
 20
49.500000000000028
 30
0.0
  0
POINT
  8
DEFPOINTS
  6
CONTINUOUS
 62
    30
 10
216.4999566079988
 20
-49.500000000000263
 30
0.0
  0
POINT
  8
DEFPOINTS
  6
CONTINUOUS
 62
    30
 10
492.48947759868418
 20
-49.500000000000213
 30
0.0
  0
TEXT
  8
ETC
  6
CONTINUOUS
 62
    61
 10
691.48806509694441
 20
468.14351886661871
 30
0.0
 40
64.0
  1
EF-30BSXC2-Q_5
 41
0.9
  0
TEXT
  8
ETC
  6
CONTINUOUS
 62
    61
 10
687.30207109694493
 20
350.18820885178752
 30
0.0
 40
64.0
  1
有圧換気扇
 41
0.9
  0
TEXT
  8
ETC
  6
CONTINUOUS
 62
    61
 10
738.00346934549998
 20
242.03943596556218
 30
0.0
 40
40.0
  1
EF-30BSXC2-Q
 50
0.0
 41
0.9
 51
0.0
  7
STANDARD
 71
     0
 11
0.0
 21
0.0
 31
0.0
210
0.0
220
0.0
230
1.0
  0
TEXT
  8
ETC
  6
CONTINUOUS
 62
    61
 10
738.00346934549998
 20
176.03943596556218
 30
0.0
 40
40.0
  1
EF-30BSXC2-FQ
 50
0.0
 41
0.9
 51
0.0
  7
STANDARD
 71
     0
 11
0.0
 21
0.0
 31
0.0
210
0.0
220
0.0
230
1.0
  0
TEXT
  8
ETC
  6
CONTINUOUS
 62
    61
 10
738.00346934549998
 20
110.03943596556218
 30
0.0
 40
40.0
  1
EF-30BTXC2-Q
 50
0.0
 41
0.9
 51
0.0
  7
STANDARD
 71
     0
 11
0.0
 21
0.0
 31
0.0
210
0.0
220
0.0
230
1.0
  0
TEXT
  8
ETC
  6
CONTINUOUS
 62
    61
 10
738.00346934549998
 20
44.039435965562177
 30
0.0
 40
40.0
  1
EF-30BTXC2-FQ
 50
0.0
 41
0.9
 51
0.0
  7
STANDARD
 71
     0
 11
0.0
 21
0.0
 31
0.0
210
0.0
220
0.0
230
1.0
  0
TEXT
  8
NOTE
  6
CONTINUOUS
 62
     4
 10
-362.10290236551344
 20
-318.72191765549007
 30
0.0
 40
64.0
  1
4-φ10
 50
0.0
 41
0.9
 51
0.0
  7
STANDARD
 71
     0
 72
     2
 11
-70.070902365513462
 21
-318.72191765549007
 31
0.0
210
0.0
220
0.0
230
1.0
  0
LINE
  8
NOTE
  6
CONTINUOUS
 62
     4
 10
-69.98090236551343
 20
-331.52191765549009
 30
0.0
 11
-338.87090236551342
 21
-331.52191765549009
 31
0.0
  0
LINE
  8
NOTE
  6
CONTINUOUS
 62
     4
 10
-17.569979236610806
 20
-215.61080459249638
 30
0.0
 11
0.0000000000009095
 21
-190.0
 31
0.0
  0
LINE
  8
NOTE
  6
CONTINUOUS
 62
     4
 10
0.0000000000009095
 20
-190.0
 30
0.0
 11
-2.4105994047135271
 21
-220.96460063943971
 31
0.0
  0
LINE
  8
NOTE
  6
CONTINUOUS
 62
     4
 10
0.0000000000009095
 20
-190.0
 30
0.0
 11
-19.980578641325241
 21
-246.57540523193609
 31
0.0
  0
LINE
  8
NOTE
  6
CONTINUOUS
 62
     4
 10
-19.980578641325248
 20
-246.57540523193609
 30
0.0
 11
-49.98090236551343
 21
-331.52191765549009
 31
0.0
  0
LINE
  8
NOTE
  6
CONTINUOUS
 62
     4
 10
-49.98090236551343
 20
-331.52191765549009
 30
0.0
 11
-69.98090236551343
 21
-331.52191765549009
 31
0.0
  0
TEXT
  8
NOTE
  6
CONTINUOUS
 62
     4
 10
267.43733393760891
 20
-314.02726805604129
 30
0.0
 40
64.0
  1
EL
 50
0.0
 41
0.9
 51
0.0
  7
STANDARD
 71
     0
 11
0.0
 21
0.0
 31
0.0
210
0.0
220
0.0
230
1.0
  0
LINE
  8
NOTE
  6
CONTINUOUS
 62
     4
 10
267.34733393760871
 20
-326.82726805604119
 30
0.0
 11
352.46590536618021
 21
-326.82726805604119
 31
0.0
  0
LINE
  8
NOTE
  6
CONTINUOUS
 62
     4
 10
105.2878126612776
 20
-199.81034568587924
 30
0.0
 11
89.392971282783037
 21
-173.1275516080002
 31
0.0
  0
LINE
  8
NOTE
  6
CONTINUOUS
 62
     4
 10
89.392971282783037
 20
-173.1275516080002
 30
0.0
 11
116.49972759069828
 21
-188.28806758580575
 31
0.0
  0
LINE
  8
NOTE
  6
CONTINUOUS
 62
     4
 10
89.392971282783037
 20
-173.1275516080002
 30
0.0
 11
132.39456896919285
 21
-214.97086166368479
 31
0.0
  0
LINE
  8
NOTE
  6
CONTINUOUS
 62
     4
 10
132.39456896919279
 20
-214.97086166368479
 30
0.0
 11
247.34733393760871
 21
-326.82726805604119
 31
0.0
  0
LINE
  8
NOTE
  6
CONTINUOUS
 62
     4
 10
247.34733393760871
 20
-326.82726805604119
 30
0.0
 11
267.34733393760871
 21
-326.82726805604119
 31
0.0
  0
ENDSEC
  0
EOF
