  0
SECTION
  2
HEADER
  9
$ACADVER
  1
AC1009
  9
$INSBASE
 10
0.0
 20
0.0
 30
0.0
  9
$EXTMIN
 10
-394.7250197929406
 20
-264.35850859195853
 30
-100.119172924072
  9
$EXTMAX
 10
762.25892239280245
 20
838.25684424752387
 30
50.009162623118868
  9
$LIMMIN
 10
-2970.0
 20
-2100.0
  9
$LIMMAX
 10
2970.0
 20
2100.0
  9
$ORTHOMODE
 70
     1
  9
$REGENMODE
 70
     1
  9
$FILLMODE
 70
     1
  9
$QTEXTMODE
 70
     0
  9
$MIRRTEXT
 70
     0
  9
$DRAGMODE
 70
     2
  9
$LTSCALE
 40
20.0
  9
$OSMODE
 70
    37
  9
$ATTMODE
 70
     1
  9
$TEXTSIZE
 40
64.0
  9
$TRACEWID
 40
0.05
  9
$TEXTSTYLE
  7
STANDARD
  9
$CLAYER
  8
SERVICESPACE
  9
$CELTYPE
  6
CONTINUOUS
  9
$CECOLOR
 62
     7
  9
$DIMSCALE
 40
1.0
  9
$DIMASZ
 40
2.0
  9
$DIMEXO
 40
20.0
  9
$DIMDLI
 40
200.0
  9
$DIMRND
 40
0.0
  9
$DIMDLE
 40
0.0
  9
$DIMEXE
 40
30.0
  9
$DIMTP
 40
0.1
  9
$DIMTM
 40
0.1
  9
$DIMTXT
 40
64.0
  9
$DIMCEN
 40
0.09
  9
$DIMTSZ
 40
0.0
  9
$DIMTOL
 70
     0
  9
$DIMLIM
 70
     0
  9
$DIMTIH
 70
     0
  9
$DIMTOH
 70
     0
  9
$DIMSE1
 70
     0
  9
$DIMSE2
 70
     0
  9
$DIMTAD
 70
     1
  9
$DIMZIN
 70
     8
  9
$DIMBLK
  1
DOT1
  9
$DIMASO
 70
     1
  9
$DIMSHO
 70
     0
  9
$DIMPOST
  1
<>
  9
$DIMAPOST
  1
"
  9
$DIMALT
 70
     0
  9
$DIMALTD
 70
     2
  9
$DIMALTF
 40
0.03937
  9
$DIMLFAC
 40
1.0
  9
$DIMTOFL
 70
     1
  9
$DIMTVP
 40
0.0
  9
$DIMTIX
 70
     0
  9
$DIMSOXD
 70
     0
  9
$DIMSAH
 70
     1
  9
$DIMBLK1
  1

  9
$DIMBLK2
  1

  9
$DIMSTYLE
  2
GEN-ISO
  9
$DIMCLRD
 70
     7
  9
$DIMCLRE
 70
     7
  9
$DIMCLRT
 70
     7
  9
$DIMTFAC
 40
1.0
  9
$DIMGAP
 40
25.0
  9
$LUNITS
 70
     2
  9
$LUPREC
 70
     4
  9
$SKETCHINC
 40
0.1
  9
$FILLETRAD
 40
5.0
  9
$AUNITS
 70
     1
  9
$AUPREC
 70
     3
  9
$MENU
  1
ACAD
  9
$ELEVATION
 40
0.0
  9
$PELEVATION
 40
0.0
  9
$THICKNESS
 40
0.0
  9
$LIMCHECK
 70
     0
  9
$BLIPMODE
 70
     0
  9
$CHAMFERA
 40
0.0
  9
$CHAMFERB
 40
0.0
  9
$SKPOLY
 70
     0
  9
$TDCREATE
 40
2451372.5474537038
  9
$TDUPDATE
 40
2454944.4552692822
  9
$TDINDWG
 40
0.7824766204
  9
$TDUSRTIMER
 40
0.7824766204
  9
$USRTIMER
 70
     1
  9
$ANGBASE
 50
0.0
  9
$ANGDIR
 70
     0
  9
$PDMODE
 70
     3
  9
$PDSIZE
 40
-2.0
  9
$PLINEWID
 40
0.0
  9
$COORDS
 70
     0
  9
$SPLFRAME
 70
     0
  9
$SPLINETYPE
 70
     6
  9
$SPLINESEGS
 70
     8
  9
$ATTDIA
 70
     0
  9
$ATTREQ
 70
     1
  9
$HANDLING
 70
     1
  9
$HANDSEED
  5
31B
  9
$SURFTAB1
 70
     6
  9
$SURFTAB2
 70
     6
  9
$SURFTYPE
 70
     6
  9
$SURFU
 70
     6
  9
$SURFV
 70
     6
  9
$UCSNAME
  2

  9
$UCSORG
 10
0.0
 20
0.0
 30
0.0
  9
$UCSXDIR
 10
1.0
 20
0.0
 30
0.0
  9
$UCSYDIR
 10
0.0
 20
1.0
 30
0.0
  9
$PUCSNAME
  2

  9
$PUCSORG
 10
0.0
 20
0.0
 30
0.0
  9
$PUCSXDIR
 10
1.0
 20
0.0
 30
0.0
  9
$PUCSYDIR
 10
0.0
 20
1.0
 30
0.0
  9
$USERI1
 70
     0
  9
$USERI2
 70
     0
  9
$USERI3
 70
     0
  9
$USERI4
 70
     0
  9
$USERI5
 70
     0
  9
$USERR1
 40
20.0
  9
$USERR2
 40
0.0
  9
$USERR3
 40
0.0
  9
$USERR4
 40
0.0
  9
$USERR5
 40
0.0
  9
$WORLDVIEW
 70
     1
  9
$SHADEDGE
 70
     3
  9
$SHADEDIF
 70
    70
  9
$TILEMODE
 70
     1
  9
$MAXACTVP
 70
    48
  9
$PLIMCHECK
 70
     0
  9
$PEXTMIN
 10
-1.0000000000000000E+020
 20
-1.0000000000000000E+020
 30
-1.0000000000000000E+020
  9
$PEXTMAX
 10
1.0000000000000000E+020
 20
1.0000000000000000E+020
 30
1.0000000000000000E+020
  9
$PLIMMIN
 10
0.0
 20
0.0
  9
$PLIMMAX
 10
12.0
 20
9.0
  9
$UNITMODE
 70
     0
  9
$VISRETAIN
 70
     0
  9
$PLINEGEN
 70
     0
  9
$PSLTSCALE
 70
     0
  0
ENDSEC
  0
SECTION
  2
TABLES
  0
TABLE
  2
VPORT
 70
     1
  0
VPORT
  2
*ACTIVE
 70
     0
 10
0.0
 20
0.0
 11
1.0
 21
1.0
 12
221.71660760139301
 22
247.15994392331351
 13
0.0
 23
0.0
 14
50.0
 24
50.0
 15
400.0
 25
400.0
 16
0.0
 26
0.0
 36
1.0
 17
0.0
 27
0.0
 37
0.0
 40
1249.023511025991
 41
1.3098995695839311
 42
50.0
 43
0.0
 44
0.0
 50
0.0
 51
0.0
 71
     0
 72
   500
 73
     1
 74
     0
 75
     0
 76
     0
 77
     0
 78
     0
  0
ENDTAB
  0
TABLE
  2
LTYPE
 70
     4
  0
LTYPE
  2
CONTINUOUS
 70
     0
  3
実線
 72
    65
 73
     0
 40
0.0
  0
LTYPE
  2
DASHDOT
 70
     0
  3
____ _ ____ _ ____ _ ____ _ ____ _ ____ _ ____
 72
    65
 73
     4
 40
5.5
 49
4.0
 49
-0.6
 49
0.3
 49
-0.6
  0
LTYPE
  2
DASHED
 70
     0
  3
-- -- -- -- -- -- -- -- -- -- -- -- -- -- --
 72
    65
 73
     2
 40
0.75
 49
0.5
 49
-0.25
  0
ENDTAB
  0
TABLE
  2
LAYER
 70
    12
  0
LAYER
  2
0
 70
     0
 62
     7
  6
CONTINUOUS
  0
LAYER
  2
SERVICESPACE
 70
     0
 62
     2
  6
DASHDOT
  0
LAYER
  2
OUTLINE
 70
     0
 62
     3
  6
CONTINUOUS
  0
LAYER
  2
DETAIL
 70
     0
 62
     5
  6
CONTINUOUS
  0
LAYER
  2
BASIS
 70
     0
 62
     6
  6
DASHDOT
  0
LAYER
  2
NOTE
 70
     0
 62
     4
  6
CONTINUOUS
  0
LAYER
  2
DEFPOINTS
 70
     0
 62
     7
  6
CONTINUOUS
  0
LAYER
  2
SIZE
 70
     0
 62
    30
  6
CONTINUOUS
  0
LAYER
  2
ARRANGE
 70
     0
 62
     1
  6
CONTINUOUS
  0
LAYER
  2
ETC
 70
     0
 62
    61
  6
CONTINUOUS
  0
LAYER
  2
FIX
 70
     0
 62
    11
  6
CONTINUOUS
  0
LAYER
  2
SYMBOLLINE
 70
     0
 62
    15
  6
CONTINUOUS
  0
ENDTAB
  0
TABLE
  2
STYLE
 70
     3
  0
STYLE
  2
STANDARD
 70
     0
 40
0.0
 41
0.9
 50
0.0
 71
     0
 42
64.0
  3
SIMPLEX
  4
BIGFONT
  0
STYLE
  2
ANNOTATIVE
 70
     0
 40
0.0
 41
1.0
 50
0.0
 71
     0
 42
0.2
  3
txt
  4

  0
STYLE
  2

 70
     1
 40
0.0
 41
1.0
 50
0.0
 71
     0
 42
64.0
  3
ltypeshp.shx
  4

  0
ENDTAB
  0
TABLE
  2
VIEW
 70
     1
  0
VIEW
  2
ALL
 70
     0
 40
4282.6198079999986
 10
0.0
 20
41.309903999999989
 41
5940.0
 11
0.0
 21
0.0
 31
1.0
 12
0.0
 22
0.0
 32
0.0
 42
50.0
 43
0.0
 44
0.0
 50
0.0
 71
     0
  0
ENDTAB
  0
TABLE
  2
UCS
 70
     0
  0
ENDTAB
  0
TABLE
  2
APPID
 70
    14
  0
APPID
  2
ACAD
 70
     0
  0
APPID
  2
ACADANNOTATIVE
 70
     0
  0
APPID
  2
ACAD_MLEADERVER
 70
     0
  0
APPID
  2
CONTENTBLOCKDESCRIPTION
 70
     0
  0
APPID
  2
CONTENTBLOCKICON
 70
     0
  0
APPID
  2
GENIUS_GENCFG_13
 70
     0
  0
APPID
  2
GENIUS_GENCFG0_13
 70
     0
  0
APPID
  2
GENIUS_GENCFG1_13
 70
     0
  0
APPID
  2
GENIUS_GENCFG2_13
 70
     0
  0
APPID
  2
GENIUS_GENCFG3_13
 70
     0
  0
APPID
  2
GENIUS_GENCFG4_13
 70
     0
  0
APPID
  2
GENIUS_GEVCFG0_13
 70
     0
  0
APPID
  2
GENIUS_GENOENT_13
 70
     0
  0
APPID
  2
ACAD_EXEMPT_FROM_CAD_STANDARDS
 70
     0
  0
ENDTAB
  0
TABLE
  2
DIMSTYLE
 70
     3
  0
DIMSTYLE
  2
STANDARD
 70
     0
  3

  4

  5

  6

  7

 40
1.0
 41
0.18
 42
0.0625
 43
0.38
 44
0.18
 45
0.0
 46
0.0
 47
0.0
 48
0.0
140
0.18
141
0.09
142
0.0
143
25.399999999999999
144
1.0
145
0.0
146
1.0
147
0.09
 71
     0
 72
     0
 73
     1
 74
     1
 75
     0
 76
     0
 77
     0
 78
     0
170
     0
171
     2
172
     0
173
     0
174
     0
175
     0
176
     0
177
     0
178
     0
  0
DIMSTYLE
  2
ANNOTATIVE
 70
     0
  3

  4

  5

  6

  7

 40
1.0
 41
0.18
 42
0.0625
 43
0.38
 44
0.18
 45
0.0
 46
0.0
 47
0.0
 48
0.0
140
0.18
141
0.09
142
0.0
143
25.399999999999999
144
1.0
145
0.0
146
1.0
147
0.09
 71
     0
 72
     0
 73
     1
 74
     1
 75
     0
 76
     0
 77
     0
 78
     0
170
     0
171
     2
172
     0
173
     0
174
     0
175
     0
176
     0
177
     0
178
     0
  0
DIMSTYLE
  2
GEN-ISO
 70
     0
  3

  4
"
  5

  6

  7

 40
1.0
 41
2.0
 42
20.0
 43
200.0
 44
30.0
 45
0.0
 46
0.0
 47
0.1
 48
0.1
140
64.0
141
0.09
142
0.0
143
0.03937
144
1.0
145
0.0
146
1.0
147
25.0
 71
     0
 72
     0
 73
     0
 74
     0
 75
     0
 76
     0
 77
     1
 78
     8
170
     0
171
     2
172
     1
173
     1
174
     0
175
     0
176
     7
177
     7
178
     7
  0
ENDTAB
  0
ENDSEC
  0
SECTION
  2
BLOCKS
  0
BLOCK
  8
0
  2
$MODEL_SPACE
 70
     0
 10
0.0
 20
0.0
 30
0.0
  3
$MODEL_SPACE
  1

  0
ENDBLK
  5
76
  8
0
  0
BLOCK
 67
     1
  8
0
  2
$PAPER_SPACE
 70
     0
 10
0.0
 20
0.0
 30
0.0
  3
$PAPER_SPACE
  1

  0
ENDBLK
  5
72
 67
     1
  8
0
  0
BLOCK
  8
OUTLINE
  2
DOT1
 70
     0
 10
0.0
 20
0.0
 30
0.0
  3
DOT1
  1

  0
CIRCLE
  5
99
  8
SIZE
  6
CONTINUOUS
 62
     7
 10
0.0
 20
0.0
 30
0.0
 40
3.0
  0
ENDBLK
  5
9A
  8
OUTLINE
  0
ENDSEC
  0
SECTION
  2
ENTITIES
  0
LINE
  5
9B
  8
OUTLINE
  6
CONTINUOUS
 62
     3
 10
-182.0
 20
-47.697171999999988
 30
0.0
 11
-182.0
 21
0.0
 31
0.0
  0
LINE
  5
9C
  8
OUTLINE
  6
CONTINUOUS
 62
     3
 10
-142.0
 20
-55.232250000000001
 30
0.0
 11
-142.0
 21
0.0
 31
0.0
  0
LINE
  5
9D
  8
OUTLINE
  6
CONTINUOUS
 62
     3
 10
-140.80000000000001
 20
-43.702249999999999
 30
0.0
 11
-140.80000000000001
 21
0.0
 31
0.0
  0
LINE
  5
9E
  8
OUTLINE
  6
CONTINUOUS
 62
     3
 10
-165.5
 20
-49.232250000000001
 30
0.0
 11
-165.5
 21
0.0
 31
0.0
  0
LINE
  5
9F
  8
OUTLINE
  6
CONTINUOUS
 62
     3
 10
-143.0
 20
-0.9322499999999999
 30
0.0
 11
-143.0
 21
69.400000000000006
 31
0.0
  0
LINE
  5
A0
  8
OUTLINE
  6
CONTINUOUS
 62
     3
 10
-176.09999999999999
 20
-34.200000000000003
 30
0.0
 11
-176.09999999999999
 21
-102.23224999999999
 31
0.0
  0
LINE
  5
A1
  8
OUTLINE
  6
CONTINUOUS
 62
     3
 10
-146.0
 20
0.0
 30
0.0
 11
-146.0
 21
-68.103952000000007
 31
0.0
  0
LINE
  5
A2
  8
OUTLINE
  6
CONTINUOUS
 62
     3
 10
-143.0
 20
0.9322499999999999
 30
0.0
 11
-143.0
 21
-69.400000000000006
 31
0.0
  0
LINE
  5
A3
  8
OUTLINE
  6
CONTINUOUS
 62
     3
 10
-146.0
 20
0.0
 30
0.0
 11
-146.0
 21
-68.103952000000007
 31
0.0
  0
LINE
  5
A4
  8
OUTLINE
  6
CONTINUOUS
 62
     3
 10
0.0
 20
0.0
 30
0.0
 11
0.0
 21
-208.40000000000001
 31
0.0
  0
LINE
  5
A5
  8
OUTLINE
  6
CONTINUOUS
 62
     3
 10
0.0
 20
0.0
 30
0.0
 11
0.0
 21
-233.40000000000001
 31
0.0
  0
LINE
  5
A6
  8
OUTLINE
  6
CONTINUOUS
 62
     3
 10
-5.2000000000000002
 20
-233.59999999999999
 30
0.0
 11
-5.2000000000000002
 21
0.0
 31
0.0
  0
LINE
  5
A7
  8
OUTLINE
  6
CONTINUOUS
 62
     3
 10
-10.0
 20
-230.30000000000001
 30
0.0
 11
-10.0
 21
0.0
 31
0.0
  0
LINE
  5
A8
  8
OUTLINE
  6
CONTINUOUS
 62
     3
 10
-19.989761000000001
 20
-194.22602599999999
 30
0.0
 11
-19.989761000000001
 21
0.0
 31
0.0
  0
LINE
  5
A9
  8
SIZE
  6
CONTINUOUS
 62
    30
 10
-196.10794200000001
 20
-57.5
 30
0.0
 11
-335.46648900000002
 21
-57.5
 31
0.0
  0
LINE
  5
AA
  8
SIZE
  6
CONTINUOUS
 62
    30
 10
-196.09999999999999
 20
57.5
 30
0.0
 11
-335.46648900000002
 21
57.5
 31
0.0
  0
LINE
  5
AB
  8
SIZE
  6
CONTINUOUS
 62
    30
 10
-305.46648900000002
 20
-55.5
 30
0.0
 11
-305.46648900000002
 21
55.5
 31
0.0
  0
LINE
  5
AC
  8
SIZE
  6
CONTINUOUS
 62
    30
 10
-305.46648900000002
 20
57.5
 30
0.0
 11
-305.46648900000002
 21
287.7857140000001
 31
0.0
  0
CIRCLE
  5
AD
  8
SIZE
  6
CONTINUOUS
 62
    30
 10
-305.46648900000002
 20
-57.5
 30
0.0
 40
6.0
  0
CIRCLE
  5
AE
  8
SIZE
  6
CONTINUOUS
 62
    30
 10
-305.46648900000002
 20
57.5
 30
0.0
 40
6.0
  0
TEXT
  5
AF
  8
SIZE
  6
CONTINUOUS
 62
    30
 10
-330.46648900000002
 20
70.237142714285724
 30
0.0
 40
64.0
  1
φ115
 50
90.0
 41
0.9
 72
     1
 11
-330.46648900000002
 21
173.64285699999999
 31
0.0
  0
POINT
  5
B0
  8
DEFPOINTS
  6
CONTINUOUS
 62
    30
 10
-176.10794199999989
 20
-57.5
 30
0.0
  0
POINT
  5
B1
  8
DEFPOINTS
  6
CONTINUOUS
 62
    30
 10
-176.09999999999999
 20
57.5
 30
0.0
  0
POINT
  5
B2
  8
DEFPOINTS
  6
CONTINUOUS
 62
    30
 10
-305.46648900000002
 20
57.5
 30
0.0
  0
LINE
  5
B3
  8
SIZE
  6
CONTINUOUS
 62
    30
 10
40.0
 20
-217.0
 30
0.0
 11
232.787116
 21
-217.0
 31
0.0
  0
LINE
  5
B4
  8
SIZE
  6
CONTINUOUS
 62
    30
 10
40.0
 20
217.0
 30
0.0
 11
232.787116
 21
217.0
 31
0.0
  0
LINE
  5
B5
  8
SIZE
  6
CONTINUOUS
 62
    30
 10
202.787116
 20
-215.0
 30
0.0
 11
202.787116
 21
215.0
 31
0.0
  0
CIRCLE
  5
B6
  8
SIZE
  6
CONTINUOUS
 62
    30
 10
202.787116
 20
-217.0
 30
0.0
 40
6.0
  0
CIRCLE
  5
B7
  8
SIZE
  6
CONTINUOUS
 62
    30
 10
202.787116
 20
217.0
 30
0.0
 40
6.0
  0
TEXT
  5
B8
  8
SIZE
  6
CONTINUOUS
 62
    30
 10
177.787116
 20
-75.428571428571416
 30
0.0
 40
64.0
  1
434
 50
90.0
 41
0.9
 72
     1
 11
177.787116
 21
0.0
 31
0.0
  0
POINT
  5
B9
  8
DEFPOINTS
  6
CONTINUOUS
 62
    30
 10
20.0
 20
-217.0
 30
0.0
  0
POINT
  5
BA
  8
DEFPOINTS
  6
CONTINUOUS
 62
    30
 10
20.0
 20
217.0
 30
0.0
  0
POINT
  5
BB
  8
DEFPOINTS
  6
CONTINUOUS
 62
    30
 10
202.787116
 20
217.0
 30
0.0
  0
LINE
  5
BC
  8
DETAIL
  6
CONTINUOUS
 62
     5
 10
-182.0
 20
-47.697171999999988
 30
0.0
 11
-182.0
 21
0.0
 31
0.0
  0
LINE
  5
BD
  8
DETAIL
  6
CONTINUOUS
 62
     5
 10
-176.09999999999999
 20
0.0
 30
0.0
 11
-176.09999999999999
 21
-102.23224999999999
 31
0.0
  0
LINE
  5
BE
  8
DETAIL
  6
CONTINUOUS
 62
     5
 10
-126.500181
 20
-48.779809
 30
0.0
 11
-126.502944
 21
0.0
 31
0.0
  0
LINE
  5
BF
  8
DETAIL
  6
CONTINUOUS
 62
     5
 10
-125.634073
 20
-48.779665999999999
 30
0.0
 11
-125.635496
 21
0.575167
 31
0.0
  0
LINE
  5
C0
  8
DETAIL
  6
CONTINUOUS
 62
     5
 10
-126.502944
 20
0.0
 30
0.0
 11
-126.502944
 21
-31.969999999999999
 31
0.0
  0
LINE
  5
C1
  8
DETAIL
  6
CONTINUOUS
 62
     5
 10
-125.635496
 20
0.575167
 30
0.0
 11
-125.63691799999999
 21
-31.469999999999999
 31
0.0
  0
LINE
  5
C2
  8
DETAIL
  6
CONTINUOUS
 62
     5
 10
-125.635496
 20
-0.575167
 30
0.0
 11
-125.63691799999999
 21
31.469999999999999
 31
0.0
  0
LINE
  5
C3
  8
DETAIL
  6
CONTINUOUS
 62
     5
 10
-125.634073
 20
48.779665999999999
 30
0.0
 11
-125.635496
 21
-0.575167
 31
0.0
  0
LINE
  5
C4
  8
DETAIL
  6
CONTINUOUS
 62
     5
 10
-146.0
 20
0.0
 30
0.0
 11
-146.0
 21
-68.103952000000007
 31
0.0
  0
LINE
  5
C5
  8
DETAIL
  6
CONTINUOUS
 62
     5
 10
-143.0
 20
-33.267749999999999
 30
0.0
 11
-143.0
 21
-103.59999999999999
 31
0.0
  0
LINE
  5
C6
  8
DETAIL
  6
CONTINUOUS
 62
     5
 10
-142.0
 20
-55.232250000000001
 30
0.0
 11
-142.0
 21
0.0
 31
0.0
  0
LINE
  5
C7
  8
DETAIL
  6
CONTINUOUS
 62
     5
 10
-140.80000000000001
 20
-43.702249999999999
 30
0.0
 11
-140.80000000000001
 21
0.0
 31
0.0
  0
LINE
  5
C8
  8
DETAIL
  6
CONTINUOUS
 62
     5
 10
-146.0
 20
0.0
 30
0.0
 11
-146.0
 21
-68.103952000000007
 31
0.0
  0
LINE
  5
C9
  8
DETAIL
  6
CONTINUOUS
 62
     5
 10
-165.5
 20
-49.232250000000001
 30
0.0
 11
-165.5
 21
0.0
 31
0.0
  0
LINE
  5
CA
  8
DETAIL
  6
CONTINUOUS
 62
     5
 10
-143.0
 20
-0.9322499999999999
 30
0.0
 11
-143.0
 21
69.400000000000006
 31
0.0
  0
LINE
  5
CB
  8
SIZE
  6
CONTINUOUS
 62
    30
 10
18.399999999999999
 20
-235.0
 30
0.0
 11
387.60987899999998
 21
-235.0
 31
0.0
  0
LINE
  5
CC
  8
SIZE
  6
CONTINUOUS
 62
    30
 10
18.399999999999999
 20
235.0
 30
0.0
 11
387.60987899999998
 21
235.0
 31
0.0
  0
LINE
  5
CD
  8
SIZE
  6
CONTINUOUS
 62
    30
 10
357.60987899999998
 20
-233.0
 30
0.0
 11
357.60987899999998
 21
233.0
 31
0.0
  0
CIRCLE
  5
CE
  8
SIZE
  6
CONTINUOUS
 62
    30
 10
357.60987899999998
 20
-235.0
 30
0.0
 40
6.0
  0
CIRCLE
  5
CF
  8
SIZE
  6
CONTINUOUS
 62
    30
 10
357.60987899999998
 20
235.0
 30
0.0
 40
6.0
  0
TEXT
  5
D0
  8
SIZE
  6
CONTINUOUS
 62
    30
 10
332.60987899999998
 20
-74.05714285714285
 30
0.0
 40
64.0
  1
470
 50
90.0
 41
0.9
 72
     1
 11
332.60987899999998
 21
0.0
 31
0.0
  0
POINT
  5
D1
  8
DEFPOINTS
  6
CONTINUOUS
 62
    30
 10
-1.6000000000000001
 20
-235.0
 30
0.0
  0
POINT
  5
D2
  8
DEFPOINTS
  6
CONTINUOUS
 62
    30
 10
-1.6000000000000001
 20
235.0
 30
0.0
  0
POINT
  5
D3
  8
DEFPOINTS
  6
CONTINUOUS
 62
    30
 10
357.60987899999998
 20
235.0
 30
0.0
  0
LINE
  5
D4
  8
DETAIL
  6
CONTINUOUS
 62
     5
 10
-99.115188000000003
 20
-25.799316000000001
 30
0.0
 11
-107.505976
 21
0.000027
 31
0.0
  0
LINE
  5
D5
  8
DETAIL
  6
CONTINUOUS
 62
     5
 10
-100.402756
 20
6.515642999999999
 30
0.0
 11
-92.677015999999995
 21
-5.7109540000000001
 31
0.0
  0
LINE
  5
D6
  8
DETAIL
  6
CONTINUOUS
 62
     5
 10
0.0
 20
0.0
 30
0.0
 11
0.0
 21
-208.40000000000001
 31
0.0
  0
LINE
  5
D7
  8
DETAIL
  6
CONTINUOUS
 62
     5
 10
0.0
 20
0.0
 30
0.0
 11
0.0
 21
-233.40000000000001
 31
0.0
  0
LINE
  5
D8
  8
DETAIL
  6
CONTINUOUS
 62
     5
 10
-5.2000000000000002
 20
-233.59999999999999
 30
0.0
 11
-5.2000000000000002
 21
0.0
 31
0.0
  0
LINE
  5
D9
  8
DETAIL
  6
CONTINUOUS
 62
     5
 10
-10.0
 20
-230.30000000000001
 30
0.0
 11
-10.0
 21
0.0
 31
0.0
  0
LINE
  5
DA
  8
DETAIL
  6
CONTINUOUS
 62
     5
 10
-19.989761000000001
 20
-194.22602599999999
 30
0.0
 11
-19.989761000000001
 21
0.0
 31
0.0
  0
LINE
  5
DB
  8
DETAIL
  6
CONTINUOUS
 62
     5
 10
-70.0
 20
-164.82997900000001
 30
0.0
 11
-70.0
 21
0.0
 31
0.0
  0
LINE
  5
DC
  8
DETAIL
  6
CONTINUOUS
 62
     5
 10
-66.0
 20
0.0
 30
0.0
 11
-66.0
 21
-164.82997900000001
 31
0.0
  0
ARC
  5
DD
  8
OUTLINE
  6
CONTINUOUS
 62
     3
 10
-1.6000000000000001
 20
208.40000000000001
 30
0.0
 40
1.6000000000000001
 50
0.0
 51
90.0
  0
ARC
  5
DE
  8
OUTLINE
  6
CONTINUOUS
 62
     3
 10
-1.6000000000000001
 20
233.40000000000001
 30
0.0
 40
1.6000000000000001
 50
0.0
 51
90.0
  0
LINE
  5
DF
  8
NOTE
  6
CONTINUOUS
 62
     4
 39
50.0
 10
93.606623999999996
 20
262.74375800000001
 30
0.0
 11
0.0
 21
217.0
 31
0.0
  0
LINE
  5
E0
  8
NOTE
  6
CONTINUOUS
 62
     4
 10
26.473448000000001
 20
246.985939
 30
0.0
 11
0.0
 21
217.0
 31
0.0
  0
LINE
  5
E1
  8
NOTE
  6
CONTINUOUS
 62
     4
 10
0.0
 20
217.0
 30
0.0
 11
37.919648000000002
 21
229.73186100000001
 31
0.0
  0
LINE
  5
E2
  8
NOTE
  6
CONTINUOUS
 62
     4
 10
-20.0
 20
217.0
 30
0.0
 11
20.0
 21
217.0
 31
0.0
  0
LINE
  5
E3
  8
NOTE
  6
CONTINUOUS
 62
     4
 10
0.0
 20
237.0
 30
0.0
 11
0.0
 21
197.0
 31
0.0
  0
ARC
  5
E4
  8
DETAIL
  6
CONTINUOUS
 62
     5
 10
-1.6000000000000001
 20
233.40000000000001
 30
0.0
 40
1.6000000000000001
 50
0.0
 51
90.0
  0
ARC
  5
E5
  8
DETAIL
  6
CONTINUOUS
 62
     5
 10
-1.6000000000000001
 20
208.40000000000001
 30
0.0
 40
1.6000000000000001
 50
0.0
 51
90.0
  0
LINE
  5
E6
  8
BASIS
  6
DASHDOT
 62
     6
 39
100.110011
 10
-209.268767
 20
0.0
 30
-100.110011
 11
35.268766999999997
 21
0.0
 31
-100.110011
  0
ARC
  5
E7
  8
OUTLINE
  6
CONTINUOUS
 62
     3
 10
-7.5
 20
230.30000000000001
 30
0.0
 40
2.5
 50
90.0
 51
180.0
  0
LINE
  5
E8
  8
OUTLINE
  6
CONTINUOUS
 62
     3
 10
-5.2000000000000002
 20
233.59999999999999
 30
0.0
 11
-5.2000000000000002
 21
0.0
 31
0.0
  0
LINE
  5
E9
  8
OUTLINE
  6
CONTINUOUS
 62
     3
 10
0.0
 20
0.0
 30
0.0
 11
0.0
 21
233.40000000000001
 31
0.0
  0
ARC
  5
EA
  8
DETAIL
  6
CONTINUOUS
 62
     5
 10
-7.5
 20
230.30000000000001
 30
0.0
 40
2.5
 50
90.0
 51
180.0
  0
LINE
  5
EB
  8
DETAIL
  6
CONTINUOUS
 62
     5
 10
-5.2000000000000002
 20
233.59999999999999
 30
0.0
 11
-5.2000000000000002
 21
0.0
 31
0.0
  0
LINE
  5
EC
  8
DETAIL
  6
CONTINUOUS
 62
     5
 10
0.0
 20
0.0
 30
0.0
 11
0.0
 21
233.40000000000001
 31
0.0
  0
LINE
  5
ED
  8
OUTLINE
  6
CONTINUOUS
 62
     3
 10
-1.6000000000000001
 20
235.0
 30
0.0
 11
-4.563034
 21
234.38321099999999
 31
0.0
  0
ARC
  5
EE
  8
OUTLINE
  6
CONTINUOUS
 62
     3
 10
-4.4000000000000004
 20
233.59999999999999
 30
0.0
 40
0.8
 50
101.758836
 51
180.0
  0
LINE
  5
EF
  8
OUTLINE
  6
CONTINUOUS
 62
     3
 10
-5.2000000000000002
 20
232.80000000000001
 30
0.0
 11
-7.5
 21
232.80000000000001
 31
0.0
  0
LINE
  5
F0
  8
DETAIL
  6
CONTINUOUS
 62
     5
 10
-1.6000000000000001
 20
235.0
 30
0.0
 11
-4.563034
 21
234.38321099999999
 31
0.0
  0
ARC
  5
F1
  8
DETAIL
  6
CONTINUOUS
 62
     5
 10
-4.4000000000000004
 20
233.59999999999999
 30
0.0
 40
0.8
 50
101.758836
 51
180.0
  0
LINE
  5
F2
  8
DETAIL
  6
CONTINUOUS
 62
     5
 10
-5.2000000000000002
 20
232.80000000000001
 30
0.0
 11
-7.5
 21
232.80000000000001
 31
0.0
  0
LINE
  5
F3
  8
OUTLINE
  6
CONTINUOUS
 62
     3
 10
-171.0
 20
67.849999999999994
 30
0.0
 11
-146.0
 21
67.849999999999994
 31
0.0
  0
ARC
  5
F4
  8
OUTLINE
  6
CONTINUOUS
 62
     3
 10
-106.0
 20
120.30878
 30
0.0
 40
65.0
 50
90.0
 51
180.0
  0
ARC
  5
F5
  8
OUTLINE
  6
CONTINUOUS
 62
     3
 10
-106.0
 20
122.029509
 30
0.0
 40
65.0
 50
90.0
 51
180.0
  0
ARC
  5
F6
  8
DETAIL
  6
CONTINUOUS
 62
     5
 10
-106.0
 20
120.30878
 30
0.0
 40
65.0
 50
90.0
 51
180.0
  0
ARC
  5
F7
  8
DETAIL
  6
CONTINUOUS
 62
     5
 10
-106.0
 20
122.029509
 30
0.0
 40
65.0
 50
90.0
 51
180.0
  0
LINE
  5
F8
  8
DETAIL
  6
CONTINUOUS
 62
     5
 10
-171.0
 20
67.849999999999994
 30
0.0
 11
-146.0
 21
67.849999999999994
 31
0.0
  0
LINE
  5
F9
  8
OUTLINE
  6
CONTINUOUS
 62
     3
 10
-171.0
 20
120.30878
 30
0.0
 11
-171.0
 21
69.400000000000006
 31
0.0
  0
LINE
  5
FA
  8
DETAIL
  6
CONTINUOUS
 62
     5
 10
-171.0
 20
120.30878
 30
0.0
 11
-171.0
 21
69.400000000000006
 31
0.0
  0
LINE
  5
FB
  8
OUTLINE
  6
CONTINUOUS
 62
     3
 10
-176.09999999999999
 20
57.722582999999993
 30
0.0
 11
-176.09999999999999
 21
67.799999999999997
 31
0.0
  0
LINE
  5
FC
  8
OUTLINE
  6
CONTINUOUS
 62
     3
 10
-176.09999999999999
 20
0.0
 30
0.0
 11
-176.09999999999999
 21
68.032250000000005
 31
0.0
  0
LINE
  5
FD
  8
OUTLINE
  6
CONTINUOUS
 62
     3
 10
-171.0
 20
53.527124000000001
 30
0.0
 11
-171.0
 21
69.400000000000006
 31
0.0
  0
LINE
  5
FE
  8
OUTLINE
  6
CONTINUOUS
 62
     3
 10
-171.5
 20
69.400000000000006
 30
0.0
 11
-171.5
 21
54.232250000000001
 31
0.0
  0
LINE
  5
FF
  8
DETAIL
  6
CONTINUOUS
 62
     5
 10
-176.09999999999999
 20
0.0
 30
0.0
 11
-176.09999999999999
 21
68.032250000000005
 31
0.0
  0
LINE
  5
100
  8
DETAIL
  6
CONTINUOUS
 62
     5
 10
-176.09999999999999
 20
57.722582999999993
 30
0.0
 11
-176.09999999999999
 21
67.799999999999997
 31
0.0
  0
LINE
  5
101
  8
DETAIL
  6
CONTINUOUS
 62
     5
 10
-171.0
 20
53.527124000000001
 30
0.0
 11
-171.0
 21
69.400000000000006
 31
0.0
  0
LINE
  5
102
  8
DETAIL
  6
CONTINUOUS
 62
     5
 10
-171.5
 20
69.400000000000006
 30
0.0
 11
-171.5
 21
54.232250000000001
 31
0.0
  0
ARC
  5
103
  8
OUTLINE
  6
CONTINUOUS
 62
     3
 10
-174.5
 20
67.799999999999997
 30
0.0
 40
1.6000000000000001
 50
90.0
 51
180.0
  0
LINE
  5
104
  8
OUTLINE
  6
CONTINUOUS
 62
     3
 10
-171.0
 20
61.100000000000001
 30
0.0
 11
-171.0
 21
65.303482999999986
 31
0.0
  0
LINE
  5
105
  8
OUTLINE
  6
CONTINUOUS
 62
     3
 10
-171.5
 20
69.400000000000006
 30
0.0
 11
-174.5
 21
69.400000000000006
 31
0.0
  0
LINE
  5
106
  8
OUTLINE
  6
CONTINUOUS
 62
     3
 10
-171.5
 20
69.400000000000006
 30
0.0
 11
-171.07712699999999
 21
69.372915000000006
 31
0.0
  0
ARC
  5
107
  8
DETAIL
  6
CONTINUOUS
 62
     5
 10
-174.5
 20
67.799999999999997
 30
0.0
 40
1.6000000000000001
 50
90.0
 51
180.0
  0
LINE
  5
108
  8
DETAIL
  6
CONTINUOUS
 62
     5
 10
-171.0
 20
61.100000000000001
 30
0.0
 11
-171.0
 21
65.303482999999986
 31
0.0
  0
LINE
  5
109
  8
DETAIL
  6
CONTINUOUS
 62
     5
 10
-171.5
 20
69.400000000000006
 30
0.0
 11
-174.5
 21
69.400000000000006
 31
0.0
  0
LINE
  5
10A
  8
DETAIL
  6
CONTINUOUS
 62
     5
 10
-171.5
 20
69.400000000000006
 30
0.0
 11
-171.07712699999999
 21
69.372915000000006
 31
0.0
  0
LINE
  5
10B
  8
OUTLINE
  6
CONTINUOUS
 62
     3
 10
-182.0
 20
47.697171999999988
 30
0.0
 11
-182.0
 21
0.0
 31
0.0
  0
ARC
  5
10C
  8
OUTLINE
  6
CONTINUOUS
 62
     3
 10
-174.86619300000001
 20
46.337125
 30
0.0
 40
7.2622949999999991
 50
144.45120800000001
 51
169.546052
  0
ARC
  5
10D
  8
OUTLINE
  6
CONTINUOUS
 62
     3
 10
-169.5
 20
54.232250000000001
 30
0.0
 40
2.0
 50
180.0
 51
270.0
  0
LINE
  5
10E
  8
OUTLINE
  6
CONTINUOUS
 62
     3
 10
-165.5
 20
49.232250000000001
 30
0.0
 11
-165.5
 21
0.0
 31
0.0
  0
LINE
  5
10F
  8
OUTLINE
  6
CONTINUOUS
 62
     3
 10
-169.5
 20
52.232250000000001
 30
0.0
 11
-168.5
 21
52.232250000000001
 31
0.0
  0
ARC
  5
110
  8
OUTLINE
  6
CONTINUOUS
 62
     3
 10
-168.5
 20
49.232250000000001
 30
0.0
 40
3.0
 50
0.0
 51
90.0
  0
ARC
  5
111
  8
OUTLINE
  6
CONTINUOUS
 62
     3
 10
-179.569862
 20
57.534843000000002
 30
0.0
 40
3.470037
 50
321.04402399999998
 51
359.42468100000002
  0
LINE
  5
112
  8
OUTLINE
  6
CONTINUOUS
 62
     3
 10
-176.87146000000001
 20
55.353149999999999
 30
0.0
 11
-180.774947
 21
50.559395000000002
 31
0.0
  0
ARC
  5
113
  8
DETAIL
  6
CONTINUOUS
 62
     5
 10
-179.569862
 20
57.534843000000002
 30
0.0
 40
3.470037
 50
321.04402399999998
 51
359.42468100000002
  0
LINE
  5
114
  8
DETAIL
  6
CONTINUOUS
 62
     5
 10
-176.87146000000001
 20
55.353149999999999
 30
0.0
 11
-180.774947
 21
50.559395000000002
 31
0.0
  0
LINE
  5
115
  8
DETAIL
  6
CONTINUOUS
 62
     5
 10
-182.0
 20
47.697171999999988
 30
0.0
 11
-182.0
 21
0.0
 31
0.0
  0
ARC
  5
116
  8
DETAIL
  6
CONTINUOUS
 62
     5
 10
-174.86619300000001
 20
46.337125
 30
0.0
 40
7.2622949999999991
 50
144.45120800000001
 51
169.546052
  0
ARC
  5
117
  8
DETAIL
  6
CONTINUOUS
 62
     5
 10
-169.5
 20
54.232250000000001
 30
0.0
 40
2.0
 50
180.0
 51
270.0
  0
LINE
  5
118
  8
DETAIL
  6
CONTINUOUS
 62
     5
 10
-165.5
 20
49.232250000000001
 30
0.0
 11
-165.5
 21
0.0
 31
0.0
  0
LINE
  5
119
  8
DETAIL
  6
CONTINUOUS
 62
     5
 10
-169.5
 20
52.232250000000001
 30
0.0
 11
-168.5
 21
52.232250000000001
 31
0.0
  0
ARC
  5
11A
  8
DETAIL
  6
CONTINUOUS
 62
     5
 10
-168.5
 20
49.232250000000001
 30
0.0
 40
3.0
 50
0.0
 51
90.0
  0
LINE
  5
11B
  8
OUTLINE
  6
CONTINUOUS
 62
     3
 10
-19.989761000000001
 20
194.22602599999999
 30
0.0
 11
-19.989761000000001
 21
0.0
 31
0.0
  0
LINE
  5
11C
  8
OUTLINE
  6
CONTINUOUS
 62
     3
 10
-10.0
 20
230.30000000000001
 30
0.0
 11
-10.0
 21
0.0
 31
0.0
  0
LINE
  5
11D
  8
OUTLINE
  6
CONTINUOUS
 62
     3
 10
0.0
 20
0.0
 30
0.0
 11
0.0
 21
208.40000000000001
 31
0.0
  0
LINE
  5
11E
  8
OUTLINE
  6
CONTINUOUS
 62
     3
 10
-146.0
 20
127.82997899999999
 30
0.0
 11
-146.0
 21
70.171701999999996
 31
0.0
  0
LINE
  5
11F
  8
DETAIL
  6
CONTINUOUS
 62
     5
 10
-146.0
 20
127.82997899999999
 30
0.0
 11
-146.0
 21
70.171701999999996
 31
0.0
  0
LINE
  5
120
  8
DETAIL
  6
CONTINUOUS
 62
     5
 10
-107.50604800000001
 20
128.667428
 30
0.0
 11
-118.995651
 21
95.500497999999993
 31
0.0
  0
LINE
  5
121
  8
DETAIL
  6
CONTINUOUS
 62
     5
 10
-66.0
 20
0.0
 30
0.0
 11
-66.0
 21
164.82997900000001
 31
0.0
  0
LINE
  5
122
  8
DETAIL
  6
CONTINUOUS
 62
     5
 10
-70.0
 20
164.82997900000001
 30
0.0
 11
-70.0
 21
0.0
 31
0.0
  0
LINE
  5
123
  8
DETAIL
  6
CONTINUOUS
 62
     5
 10
-19.989761000000001
 20
194.22602599999999
 30
0.0
 11
-19.989761000000001
 21
0.0
 31
0.0
  0
LINE
  5
124
  8
DETAIL
  6
CONTINUOUS
 62
     5
 10
-10.0
 20
230.30000000000001
 30
0.0
 11
-10.0
 21
0.0
 31
0.0
  0
LINE
  5
125
  8
DETAIL
  6
CONTINUOUS
 62
     5
 10
0.0
 20
0.0
 30
0.0
 11
0.0
 21
208.40000000000001
 31
0.0
  0
LINE
  5
126
  8
OUTLINE
  6
CONTINUOUS
 62
     3
 10
-94.0
 20
164.82997900000001
 30
0.0
 11
-50.0
 21
164.82997900000001
 31
0.0
  0
LINE
  5
127
  8
OUTLINE
  6
CONTINUOUS
 62
     3
 10
-106.0
 20
187.02950899999999
 30
0.0
 11
-19.989761000000001
 21
187.02950899999999
 31
0.0
  0
LINE
  5
128
  8
OUTLINE
  6
CONTINUOUS
 62
     3
 10
-106.0
 20
185.30878000000001
 30
0.0
 11
-19.989761000000001
 21
185.30878000000001
 31
0.0
  0
LINE
  5
129
  8
OUTLINE
  6
CONTINUOUS
 62
     3
 10
-106.0
 20
164.82997900000001
 30
0.0
 11
-27.989758999999999
 21
164.82997900000001
 31
0.0
  0
LINE
  5
12A
  8
DETAIL
  6
CONTINUOUS
 62
     5
 10
-106.0
 20
187.02950899999999
 30
0.0
 11
-19.989761000000001
 21
187.02950899999999
 31
0.0
  0
LINE
  5
12B
  8
DETAIL
  6
CONTINUOUS
 62
     5
 10
-106.0
 20
185.30878000000001
 30
0.0
 11
-19.989761000000001
 21
185.30878000000001
 31
0.0
  0
LINE
  5
12C
  8
DETAIL
  6
CONTINUOUS
 62
     5
 10
-106.0
 20
164.82997900000001
 30
0.0
 11
-27.989758999999999
 21
164.82997900000001
 31
0.0
  0
LINE
  5
12D
  8
DETAIL
  6
CONTINUOUS
 62
     5
 10
-88.785884999999993
 20
146.315224
 30
0.0
 11
-76.418993
 21
148.572328
 31
0.0
  0
LINE
  5
12E
  8
DETAIL
  6
CONTINUOUS
 62
     5
 10
-94.0
 20
164.82997900000001
 30
0.0
 11
-50.0
 21
164.82997900000001
 31
0.0
  0
ARC
  5
12F
  8
OUTLINE
  6
CONTINUOUS
 62
     3
 10
-105.90877
 20
124.60973
 30
0.0
 40
40.220351999999998
 50
90.12996099999998
 51
175.407689
  0
ARC
  5
130
  8
DETAIL
  6
CONTINUOUS
 62
     5
 10
-105.90877
 20
124.60973
 30
0.0
 40
40.220351999999998
 50
90.12996099999998
 51
175.407689
  0
LINE
  5
131
  8
DETAIL
  6
CONTINUOUS
 62
     5
 10
-88.785882999999998
 20
146.31523799999999
 30
0.0
 11
-99.115215000000006
 21
139.61228
 31
0.0
  0
LINE
  5
132
  8
DETAIL
  6
CONTINUOUS
 62
     5
 10
-99.115208999999993
 20
139.61226500000001
 30
0.0
 11
-107.505995
 21
128.66744
 31
0.0
  0
ARC
  5
133
  8
OUTLINE
  6
CONTINUOUS
 62
     3
 10
-25.673355000000001
 20
174.23852600000001
 30
0.0
 40
2.3164060000000002
 50
180.0
 51
218.35799700000001
  0
LINE
  5
134
  8
OUTLINE
  6
CONTINUOUS
 62
     3
 10
-22.989761000000001
 20
185.30878000000001
 30
0.0
 11
-22.989761000000001
 21
164.17602600000001
 31
0.0
  0
LINE
  5
135
  8
OUTLINE
  6
CONTINUOUS
 62
     3
 10
-19.989761000000001
 20
153.950861
 30
0.0
 11
-19.989761000000001
 21
181.02950899999999
 31
0.0
  0
LINE
  5
136
  8
OUTLINE
  6
CONTINUOUS
 62
     3
 10
-22.989761000000001
 20
164.176027
 30
0.0
 11
-22.989761000000001
 21
175.67602600000001
 31
0.0
  0
LINE
  5
137
  8
OUTLINE
  6
CONTINUOUS
 62
     3
 10
-27.989758999999999
 20
174.82602499999999
 30
0.0
 11
-27.989758999999999
 21
165.026028
 31
0.0
  0
LINE
  5
138
  8
DETAIL
  6
CONTINUOUS
 62
     5
 10
-22.989761000000001
 20
185.30878000000001
 30
0.0
 11
-22.989761000000001
 21
164.17602600000001
 31
0.0
  0
ARC
  5
139
  8
DETAIL
  6
CONTINUOUS
 62
     5
 10
-25.673355000000001
 20
174.23852600000001
 30
0.0
 40
2.3164060000000002
 50
180.0
 51
218.35799700000001
  0
LINE
  5
13A
  8
DETAIL
  6
CONTINUOUS
 62
     5
 10
-19.989761000000001
 20
153.950861
 30
0.0
 11
-19.989761000000001
 21
181.02950899999999
 31
0.0
  0
LINE
  5
13B
  8
DETAIL
  6
CONTINUOUS
 62
     5
 10
-22.989761000000001
 20
164.176027
 30
0.0
 11
-22.989761000000001
 21
175.67602600000001
 31
0.0
  0
LINE
  5
13C
  8
DETAIL
  6
CONTINUOUS
 62
     5
 10
-27.989758999999999
 20
174.82602499999999
 30
0.0
 11
-27.989758999999999
 21
165.026028
 31
0.0
  0
LINE
  5
13D
  8
OUTLINE
  6
CONTINUOUS
 62
     3
 10
-19.989761000000001
 20
185.41004000000001
 30
0.0
 11
-22.989761000000001
 21
185.41004000000001
 31
0.0
  0
ARC
  5
13E
  8
OUTLINE
  6
CONTINUOUS
 62
     3
 10
-25.989761000000001
 20
178.022074
 30
0.0
 40
3.0
 50
308.55447900000001
 51
0.0
  0
ARC
  5
13F
  8
OUTLINE
  6
CONTINUOUS
 62
     3
 10
-17.489761000000001
 20
194.22602599999999
 30
0.0
 40
2.5
 50
90.0
 51
180.0
  0
ARC
  5
140
  8
OUTLINE
  6
CONTINUOUS
 62
     3
 10
-17.489761000000001
 20
193.42211699999999
 30
0.0
 40
2.5
 50
90.0
 51
179.99999700000001
  0
ARC
  5
141
  8
OUTLINE
  6
CONTINUOUS
 62
     3
 10
-12.489761
 20
198.42211699999999
 30
0.0
 40
2.5
 50
270.0
 51
358.56440300000003
  0
ARC
  5
142
  8
OUTLINE
  6
CONTINUOUS
 62
     3
 10
-12.489761
 20
199.22602599999999
 30
0.0
 40
2.5
 50
270.0
 51
354.81277599999999
  0
LINE
  5
143
  8
OUTLINE
  6
CONTINUOUS
 62
     3
 10
-12.489761
 20
196.72602599999999
 30
0.0
 11
-17.489761000000001
 21
196.72602599999999
 31
0.0
  0
LINE
  5
144
  8
OUTLINE
  6
CONTINUOUS
 62
     3
 10
-12.489761
 20
195.92211699999999
 30
0.0
 11
-17.489761000000001
 21
195.92211699999999
 31
0.0
  0
ARC
  5
145
  8
OUTLINE
  6
DASHED
 62
     3
 10
-29.989761000000001
 20
174.82602600000001
 30
0.0
 40
10.0
 50
359.8837529999999
 51
0.0
  0
LINE
  5
146
  8
OUTLINE
  6
CONTINUOUS
 62
     3
 10
-22.989761000000001
 20
175.67602600000001
 30
0.0
 11
-27.489761000000001
 21
175.67602600000001
 31
0.0
  0
LINE
  5
147
  8
OUTLINE
  6
CONTINUOUS
 62
     3
 10
-27.489771000000001
 20
175.67603099999999
 30
0.0
 11
-27.989771000000001
 21
174.826031
 31
0.0
  0
LINE
  5
148
  8
DETAIL
  6
CONTINUOUS
 62
     5
 10
-19.989761000000001
 20
185.41004000000001
 30
0.0
 11
-22.989761000000001
 21
185.41004000000001
 31
0.0
  0
ARC
  5
149
  8
DETAIL
  6
CONTINUOUS
 62
     5
 10
-25.989761000000001
 20
178.022074
 30
0.0
 40
3.0
 50
308.55447900000001
 51
0.0
  0
ARC
  5
14A
  8
DETAIL
  6
CONTINUOUS
 62
     5
 10
-17.489761000000001
 20
194.22602599999999
 30
0.0
 40
2.5
 50
90.0
 51
180.0
  0
ARC
  5
14B
  8
DETAIL
  6
CONTINUOUS
 62
     5
 10
-17.489761000000001
 20
193.42211699999999
 30
0.0
 40
2.5
 50
90.0
 51
179.99999700000001
  0
ARC
  5
14C
  8
DETAIL
  6
CONTINUOUS
 62
     5
 10
-12.489761
 20
198.42211699999999
 30
0.0
 40
2.5
 50
270.0
 51
358.56440300000003
  0
ARC
  5
14D
  8
DETAIL
  6
CONTINUOUS
 62
     5
 10
-12.489761
 20
199.22602599999999
 30
0.0
 40
2.5
 50
270.0
 51
354.81277599999999
  0
LINE
  5
14E
  8
DETAIL
  6
CONTINUOUS
 62
     5
 10
-12.489761
 20
196.72602599999999
 30
0.0
 11
-17.489761000000001
 21
196.72602599999999
 31
0.0
  0
LINE
  5
14F
  8
DETAIL
  6
CONTINUOUS
 62
     5
 10
-12.489761
 20
195.92211699999999
 30
0.0
 11
-17.489761000000001
 21
195.92211699999999
 31
0.0
  0
ARC
  5
150
  8
DETAIL
  6
DASHED
 62
     5
 10
-29.989761000000001
 20
174.82602600000001
 30
0.0
 40
10.0
 50
359.8837529999999
 51
0.0
  0
LINE
  5
151
  8
DETAIL
  6
CONTINUOUS
 62
     5
 10
-22.989761000000001
 20
175.67602600000001
 30
0.0
 11
-27.489761000000001
 21
175.67602600000001
 31
0.0
  0
LINE
  5
152
  8
DETAIL
  6
CONTINUOUS
 62
     5
 10
-27.489771000000001
 20
175.67603099999999
 30
0.0
 11
-27.989771000000001
 21
174.826031
 31
0.0
  0
LINE
  5
153
  8
OUTLINE
  6
CONTINUOUS
 62
     3
 10
-19.989761000000001
 20
164.82997900000001
 30
0.0
 11
-22.989761000000001
 21
164.82997900000001
 31
0.0
  0
LINE
  5
154
  8
OUTLINE
  6
CONTINUOUS
 62
     3
 10
-19.989761000000001
 20
168.20784699999999
 30
0.0
 11
-22.989761000000001
 21
168.20784699999999
 31
0.0
  0
ARC
  5
155
  8
OUTLINE
  6
DASHED
 62
     3
 10
-12.5
 20
166.696091
 30
0.0
 40
2.5
 50
358.56440300000003
 51
0.0
  0
ARC
  5
156
  8
OUTLINE
  6
DASHED
 62
     3
 10
-12.5
 20
167.5
 30
0.0
 40
2.5
 50
354.81277599999999
 51
0.0
  0
LINE
  5
157
  8
OUTLINE
  6
CONTINUOUS
 62
     3
 10
-27.989771000000001
 20
165.02602200000001
 30
0.0
 11
-27.489771000000001
 21
164.17602199999999
 31
0.0
  0
LINE
  5
158
  8
OUTLINE
  6
CONTINUOUS
 62
     3
 10
-27.489761000000001
 20
164.17602600000001
 30
0.0
 11
-22.989761000000001
 21
164.17602600000001
 31
0.0
  0
LINE
  5
159
  8
OUTLINE
  6
CONTINUOUS
 62
     3
 10
-22.989761000000001
 20
167.05102600000001
 30
0.0
 11
-27.489761000000001
 21
167.05102600000001
 31
0.0
  0
ARC
  5
15A
  8
OUTLINE
  6
CONTINUOUS
 62
     3
 10
-25.673355000000001
 20
165.61352600000001
 30
0.0
 40
2.3164060000000002
 50
141.64194699999999
 51
180.0
  0
LINE
  5
15B
  8
OUTLINE
  6
CONTINUOUS
 62
     3
 10
-22.989761000000001
 20
172.80102500000001
 30
0.0
 11
-27.489761000000001
 21
172.80102500000001
 31
0.0
  0
ARC
  5
15C
  8
OUTLINE
  6
CONTINUOUS
 62
     3
 10
-19.474136000000001
 20
169.92602600000001
 30
0.0
 40
8.515625
 50
160.26832999999999
 51
199.73157900000001
  0
LINE
  5
15D
  8
DETAIL
  6
CONTINUOUS
 62
     5
 10
-76.418994999999995
 20
148.57228699999999
 30
0.0
 11
-69.089425000000006
 21
147.443736
 31
0.0
  0
LINE
  5
15E
  8
DETAIL
  6
CONTINUOUS
 62
     5
 10
-19.989761000000001
 20
164.82997900000001
 30
0.0
 11
-22.989761000000001
 21
164.82997900000001
 31
0.0
  0
LINE
  5
15F
  8
DETAIL
  6
CONTINUOUS
 62
     5
 10
-19.989761000000001
 20
168.20784699999999
 30
0.0
 11
-22.989761000000001
 21
168.20784699999999
 31
0.0
  0
ARC
  5
160
  8
DETAIL
  6
DASHED
 62
     5
 10
-12.5
 20
166.696091
 30
0.0
 40
2.5
 50
358.56440300000003
 51
0.0
  0
ARC
  5
161
  8
DETAIL
  6
DASHED
 62
     5
 10
-12.5
 20
167.5
 30
0.0
 40
2.5
 50
354.81277599999999
 51
0.0
  0
LINE
  5
162
  8
DETAIL
  6
CONTINUOUS
 62
     5
 10
-27.989771000000001
 20
165.02602200000001
 30
0.0
 11
-27.489771000000001
 21
164.17602199999999
 31
0.0
  0
LINE
  5
163
  8
DETAIL
  6
CONTINUOUS
 62
     5
 10
-27.489761000000001
 20
164.17602600000001
 30
0.0
 11
-22.989761000000001
 21
164.17602600000001
 31
0.0
  0
LINE
  5
164
  8
DETAIL
  6
CONTINUOUS
 62
     5
 10
-22.989761000000001
 20
167.05102600000001
 30
0.0
 11
-27.489761000000001
 21
167.05102600000001
 31
0.0
  0
ARC
  5
165
  8
DETAIL
  6
CONTINUOUS
 62
     5
 10
-19.474136000000001
 20
169.92602600000001
 30
0.0
 40
8.515625
 50
160.26832999999999
 51
199.73157900000001
  0
LINE
  5
166
  8
DETAIL
  6
CONTINUOUS
 62
     5
 10
-22.989761000000001
 20
172.80102500000001
 30
0.0
 11
-27.489761000000001
 21
172.80102500000001
 31
0.0
  0
ARC
  5
167
  8
DETAIL
  6
CONTINUOUS
 62
     5
 10
-25.673355000000001
 20
165.61352600000001
 30
0.0
 40
2.3164060000000002
 50
141.64194699999999
 51
180.0
  0
LINE
  5
168
  8
DETAIL
  6
CONTINUOUS
 62
     5
 10
-75.810574000000003
 20
62.228794999999998
 30
0.0
 11
-84.470201000000003
 21
73.427516999999995
 31
0.0
  0
LINE
  5
169
  8
DETAIL
  6
CONTINUOUS
 62
     5
 10
-95.290515999999997
 20
4.075213999999999
 30
0.0
 11
-70.0
 21
4.0265859999999991
 31
0.0
  0
LINE
  5
16A
  8
OUTLINE
  6
CONTINUOUS
 62
     3
 10
-146.0
 20
0.0
 30
0.0
 11
-146.0
 21
68.103952000000007
 31
0.0
  0
LINE
  5
16B
  8
OUTLINE
  6
CONTINUOUS
 62
     3
 10
-146.0
 20
0.0
 30
0.0
 11
-146.0
 21
68.103952000000007
 31
0.0
  0
LINE
  5
16C
  8
OUTLINE
  6
CONTINUOUS
 62
     3
 10
-142.0
 20
59.482250000000001
 30
0.0
 11
-142.0
 21
11.18225
 31
0.0
  0
LINE
  5
16D
  8
OUTLINE
  6
CONTINUOUS
 62
     3
 10
-140.80000000000001
 20
59.482250000000001
 30
0.0
 11
-140.80000000000001
 21
51.632249999999999
 31
0.0
  0
LINE
  5
16E
  8
DETAIL
  6
CONTINUOUS
 62
     5
 10
-146.0
 20
0.0
 30
0.0
 11
-146.0
 21
68.103952000000007
 31
0.0
  0
LINE
  5
16F
  8
DETAIL
  6
CONTINUOUS
 62
     5
 10
-146.0
 20
0.0
 30
0.0
 11
-146.0
 21
68.103952000000007
 31
0.0
  0
LINE
  5
170
  8
DETAIL
  6
CONTINUOUS
 62
     5
 10
-142.0
 20
59.482250000000001
 30
0.0
 11
-142.0
 21
11.18225
 31
0.0
  0
LINE
  5
171
  8
DETAIL
  6
CONTINUOUS
 62
     5
 10
-140.80000000000001
 20
59.482250000000001
 30
0.0
 11
-140.80000000000001
 21
51.632249999999999
 31
0.0
  0
LINE
  5
172
  8
DETAIL
  6
CONTINUOUS
 62
     5
 10
-118.995614
 20
50.814703000000002
 30
0.0
 11
-120.679416
 21
61.824197999999988
 31
0.0
  0
LINE
  5
173
  8
DETAIL
  6
CONTINUOUS
 62
     5
 10
-120.679402
 20
61.824195999999993
 30
0.0
 11
-114.411073
 21
40.623013
 31
0.0
  0
LINE
  5
174
  8
OUTLINE
  6
CONTINUOUS
 62
     3
 10
-146.0
 20
58.650326
 30
0.0
 11
-146.0
 21
70.171701999999996
 31
0.0
  0
LINE
  5
175
  8
OUTLINE
  6
CONTINUOUS
 62
     3
 10
-142.0
 20
59.482250000000001
 30
0.0
 11
-140.80000000000001
 21
59.482250000000001
 31
0.0
  0
LINE
  5
176
  8
OUTLINE
  6
CONTINUOUS
 62
     3
 10
-141.5
 20
63.805622999999997
 30
0.0
 11
-141.5
 21
59.80562299999999
 31
0.0
  0
LINE
  5
177
  8
OUTLINE
  6
CONTINUOUS
 62
     3
 10
-143.0
 20
59.305622999999997
 30
0.0
 11
-142.0
 21
59.305622999999997
 31
0.0
  0
ARC
  5
178
  8
OUTLINE
  6
CONTINUOUS
 62
     3
 10
-142.0
 20
59.80562299999999
 30
0.0
 40
0.5
 50
270.0
 51
0.0
  0
LINE
  5
179
  8
OUTLINE
  6
CONTINUOUS
 62
     3
 10
-143.0
 20
65.099999999999994
 30
0.0
 11
-143.0
 21
63.79999999999999
 31
0.0
  0
LINE
  5
17A
  8
OUTLINE
  6
CONTINUOUS
 62
     3
 10
-141.5
 20
67.805622999999997
 30
0.0
 11
-141.5
 21
63.805622999999997
 31
0.0
  0
LINE
  5
17B
  8
OUTLINE
  6
CONTINUOUS
 62
     3
 10
-143.0
 20
68.305622999999997
 30
0.0
 11
-142.0
 21
68.305622999999997
 31
0.0
  0
ARC
  5
17C
  8
OUTLINE
  6
CONTINUOUS
 62
     3
 10
-142.0
 20
67.805622999999997
 30
0.0
 40
0.5
 50
0.0
 51
90.0
  0
LINE
  5
17D
  8
OUTLINE
  6
CONTINUOUS
 62
     3
 10
-146.0
 20
69.400000000000006
 30
0.0
 11
-143.0
 21
69.400000000000006
 31
0.0
  0
LINE
  5
17E
  8
DETAIL
  6
CONTINUOUS
 62
     5
 10
-146.0
 20
58.650326
 30
0.0
 11
-146.0
 21
70.171701999999996
 31
0.0
  0
LINE
  5
17F
  8
DETAIL
  6
CONTINUOUS
 62
     5
 10
-142.0
 20
59.482250000000001
 30
0.0
 11
-140.80000000000001
 21
59.482250000000001
 31
0.0
  0
LINE
  5
180
  8
DETAIL
  6
CONTINUOUS
 62
     5
 10
-141.5
 20
63.805622999999997
 30
0.0
 11
-141.5
 21
59.80562299999999
 31
0.0
  0
LINE
  5
181
  8
DETAIL
  6
CONTINUOUS
 62
     5
 10
-143.0
 20
59.305622999999997
 30
0.0
 11
-142.0
 21
59.305622999999997
 31
0.0
  0
ARC
  5
182
  8
DETAIL
  6
CONTINUOUS
 62
     5
 10
-142.0
 20
59.80562299999999
 30
0.0
 40
0.5
 50
270.0
 51
0.0
  0
LINE
  5
183
  8
DETAIL
  6
CONTINUOUS
 62
     5
 10
-143.0
 20
65.099999999999994
 30
0.0
 11
-143.0
 21
63.79999999999999
 31
0.0
  0
LINE
  5
184
  8
DETAIL
  6
CONTINUOUS
 62
     5
 10
-141.5
 20
67.805622999999997
 30
0.0
 11
-141.5
 21
63.805622999999997
 31
0.0
  0
LINE
  5
185
  8
DETAIL
  6
CONTINUOUS
 62
     5
 10
-143.0
 20
68.305622999999997
 30
0.0
 11
-142.0
 21
68.305622999999997
 31
0.0
  0
ARC
  5
186
  8
DETAIL
  6
CONTINUOUS
 62
     5
 10
-142.0
 20
67.805622999999997
 30
0.0
 40
0.5
 50
0.0
 51
90.0
  0
LINE
  5
187
  8
DETAIL
  6
CONTINUOUS
 62
     5
 10
-146.0
 20
69.400000000000006
 30
0.0
 11
-143.0
 21
69.400000000000006
 31
0.0
  0
LINE
  5
188
  8
DETAIL
  6
CONTINUOUS
 62
     5
 10
-92.677065999999996
 20
82.35300500000001
 30
0.0
 11
-100.40281299999999
 21
88.474058999999997
 31
0.0
  0
LINE
  5
189
  8
DETAIL
  6
CONTINUOUS
 62
     5
 10
-107.647493
 20
91.374328000000006
 30
0.0
 11
-114.41108800000001
 21
90.658784999999995
 31
0.0
  0
LINE
  5
18A
  8
DETAIL
  6
CONTINUOUS
 62
     5
 10
-114.411079
 20
90.658764999999988
 30
0.0
 11
-120.679401
 21
86.086290999999989
 31
0.0
  0
LINE
  5
18B
  8
DETAIL
  6
CONTINUOUS
 62
     5
 10
-100.402824
 20
88.474126999999996
 30
0.0
 11
-107.64751099999999
 21
91.374376999999996
 31
0.0
  0
LINE
  5
18C
  8
DETAIL
  6
CONTINUOUS
 62
     5
 10
-118.995634
 20
95.500497999999993
 30
0.0
 11
-120.679438
 21
86.086292000000014
 31
0.0
  0
LINE
  5
18D
  8
DETAIL
  6
CONTINUOUS
 62
     5
 10
-84.470223999999988
 20
73.42751899999999
 30
0.0
 11
-92.677062000000006
 21
82.353049999999996
 31
0.0
  0
LINE
  5
18E
  8
OUTLINE
  6
CONTINUOUS
 62
     3
 10
-140.80000000000001
 20
43.702249999999999
 30
0.0
 11
-140.80000000000001
 21
0.0
 31
0.0
  0
LINE
  5
18F
  8
OUTLINE
  6
CONTINUOUS
 62
     3
 10
-140.80000000000001
 20
0.65225
 30
0.0
 11
-140.80000000000001
 21
42.402250000000002
 31
0.0
  0
LINE
  5
190
  8
OUTLINE
  6
CONTINUOUS
 62
     3
 10
-140.80000000000001
 20
54.232250000000001
 30
0.0
 11
-140.80000000000001
 21
51.632249999999999
 31
0.0
  0
ARC
  5
191
  8
OUTLINE
  6
CONTINUOUS
 62
     3
 10
-138.65313599999999
 20
42.552384999999987
 30
0.0
 40
1.8531329999999999
 50
359.99998199999999
 51
38.357669000000001
  0
ARC
  5
192
  8
OUTLINE
  6
CONTINUOUS
 62
     3
 10
-143.61250000000001
 20
46.002383000000002
 30
0.0
 40
6.8124979999999988
 50
340.26832999999999
 51
19.731579
  0
ARC
  5
193
  8
OUTLINE
  6
CONTINUOUS
 62
     3
 10
-138.65313800000001
 20
49.452382
 30
0.0
 40
1.8531349999999991
 50
321.64226500000001
 51
359.99998199999999
  0
LINE
  5
194
  8
OUTLINE
  6
CONTINUOUS
 62
     3
 10
-137.20000099999999
 20
43.702382999999998
 30
0.0
 11
-140.80000000000001
 21
43.702382999999998
 31
0.0
  0
LINE
  5
195
  8
OUTLINE
  6
CONTINUOUS
 62
     3
 10
-137.20000099999999
 20
48.302384000000004
 30
0.0
 11
-140.80000000000001
 21
48.302384000000004
 31
0.0
  0
LINE
  5
196
  8
OUTLINE
  6
CONTINUOUS
 62
     3
 10
-137.20000099999999
 20
50.602383000000003
 30
0.0
 11
-140.79999900000001
 21
50.602383000000003
 31
0.0
  0
LINE
  5
197
  8
OUTLINE
  6
CONTINUOUS
 62
     3
 10
-136.80000699999999
 20
49.902377999999999
 30
0.0
 11
-137.200007
 21
50.602378000000002
 31
0.0
  0
LINE
  5
198
  8
OUTLINE
  6
CONTINUOUS
 62
     3
 10
-136.80000000000001
 20
42.102384999999991
 30
0.0
 11
-136.80000000000001
 21
49.902382000000003
 31
0.0
  0
LINE
  5
199
  8
OUTLINE
  6
CONTINUOUS
 62
     3
 10
-137.200007
 20
41.402388000000002
 30
0.0
 11
-136.80000699999999
 21
42.102389000000002
 31
0.0
  0
LINE
  5
19A
  8
OUTLINE
  6
CONTINUOUS
 62
     3
 10
-140.80000100000001
 20
41.402383999999998
 30
0.0
 11
-137.20000099999999
 21
41.402383999999998
 31
0.0
  0
LINE
  5
19B
  8
OUTLINE
  6
CONTINUOUS
 62
     3
 10
-140.80000000000001
 20
50.602384000000001
 30
0.0
 11
-140.80000000000001
 21
41.402383
 31
0.0
  0
LINE
  5
19C
  8
OUTLINE
  6
CONTINUOUS
 62
     3
 10
-134.400002
 20
48.502383000000002
 30
0.0
 11
-134.400002
 21
43.502383000000002
 31
0.0
  0
LINE
  5
19D
  8
OUTLINE
  6
CONTINUOUS
 62
     3
 10
-134.400002
 20
48.502383000000002
 30
0.0
 11
-136.80000200000001
 21
48.502383000000002
 31
0.0
  0
LINE
  5
19E
  8
OUTLINE
  6
CONTINUOUS
 62
     3
 10
-134.400002
 20
43.502383000000002
 30
0.0
 11
-136.80000200000001
 21
43.502383000000002
 31
0.0
  0
ARC
  5
19F
  8
OUTLINE
  6
CONTINUOUS
 62
     3
 10
-139.59999999999999
 20
51.632249999999999
 30
0.0
 40
1.1999999999999991
 50
180.0
 51
239.117615
  0
LINE
  5
1A0
  8
OUTLINE
  6
CONTINUOUS
 62
     3
 10
-140.80000000000001
 20
55.732250000000001
 30
0.0
 11
-139.0
 21
55.732250000000001
 31
0.0
  0
ARC
  5
1A1
  8
OUTLINE
  6
CONTINUOUS
 62
     3
 10
-141.5
 20
55.232250000000001
 30
0.0
 40
1.5
 50
109.471221
 51
180.0
  0
LINE
  5
1A2
  8
OUTLINE
  6
CONTINUOUS
 62
     3
 10
-140.80000000000001
 20
56.732250000000001
 30
0.0
 11
-139.0
 21
56.732250000000001
 31
0.0
  0
LINE
  5
1A3
  8
OUTLINE
  6
CONTINUOUS
 62
     3
 10
-139.0
 20
55.732250000000001
 30
0.0
 11
-139.0
 21
56.732250000000001
 31
0.0
  0
LINE
  5
1A4
  8
OUTLINE
  6
CONTINUOUS
 62
     3
 10
-142.0
 20
55.232250000000001
 30
0.0
 11
-142.0
 21
0.0
 31
0.0
  0
LINE
  5
1A5
  8
OUTLINE
  6
CONTINUOUS
 62
     3
 10
-143.0
 20
9.2322500000000005
 30
0.0
 11
-143.0
 21
55.232250000000001
 31
0.0
  0
LINE
  5
1A6
  8
DETAIL
  6
CONTINUOUS
 62
     5
 10
-109.174384
 20
49.929544
 30
0.0
 11
-115.34783400000001
 21
49.930559000000002
 31
0.0
  0
ARC
  5
1A7
  8
DETAIL
  6
CONTINUOUS
 62
     5
 10
-109.34999999999999
 20
44.232250000000001
 30
0.0
 40
5.7000000000000002
 50
0.0
 51
88.234443999999996
  0
LINE
  5
1A8
  8
DETAIL
  6
CONTINUOUS
 62
     5
 10
-103.65000000000001
 20
44.232250000000001
 30
0.0
 11
-103.025144
 21
14.278748
 31
0.0
  0
LINE
  5
1A9
  8
DETAIL
  6
CONTINUOUS
 62
     5
 10
-126.502944
 20
0.0
 30
0.0
 11
-126.502944
 21
31.969999999999999
 31
0.0
  0
LINE
  5
1AA
  8
DETAIL
  6
CONTINUOUS
 62
     5
 10
-126.500181
 20
48.779809
 30
0.0
 11
-126.502944
 21
0.0
 31
0.0
  0
LINE
  5
1AB
  8
DETAIL
  6
CONTINUOUS
 62
     5
 10
-126.502944
 20
50.432250000000003
 30
0.0
 11
-125.63691799999999
 21
49.932250000000003
 31
0.0
  0
LINE
  5
1AC
  8
DETAIL
  6
CONTINUOUS
 62
     5
 10
-117.40565100000001
 20
49.930896999999987
 30
0.0
 11
-125.63691799999999
 21
49.932250000000003
 31
0.0
  0
LINE
  5
1AD
  8
DETAIL
  6
CONTINUOUS
 62
     5
 10
-140.80000000000001
 20
43.702249999999999
 30
0.0
 11
-140.80000000000001
 21
0.0
 31
0.0
  0
LINE
  5
1AE
  8
DETAIL
  6
CONTINUOUS
 62
     5
 10
-142.0
 20
55.232250000000001
 30
0.0
 11
-142.0
 21
0.0
 31
0.0
  0
LINE
  5
1AF
  8
DETAIL
  6
CONTINUOUS
 62
     5
 10
-140.80000000000001
 20
0.65225
 30
0.0
 11
-140.80000000000001
 21
42.402250000000002
 31
0.0
  0
LINE
  5
1B0
  8
DETAIL
  6
CONTINUOUS
 62
     5
 10
-143.0
 20
9.2322500000000005
 30
0.0
 11
-143.0
 21
55.232250000000001
 31
0.0
  0
LINE
  5
1B1
  8
DETAIL
  6
CONTINUOUS
 62
     5
 10
-140.80000000000001
 20
54.232250000000001
 30
0.0
 11
-140.80000000000001
 21
51.632249999999999
 31
0.0
  0
LINE
  5
1B2
  8
DETAIL
  6
CONTINUOUS
 62
     5
 10
-140.80000000000001
 20
55.732250000000001
 30
0.0
 11
-139.0
 21
55.732250000000001
 31
0.0
  0
ARC
  5
1B3
  8
DETAIL
  6
CONTINUOUS
 62
     5
 10
-141.5
 20
55.232250000000001
 30
0.0
 40
1.5
 50
109.471221
 51
180.0
  0
LINE
  5
1B4
  8
DETAIL
  6
CONTINUOUS
 62
     5
 10
-140.80000000000001
 20
56.732250000000001
 30
0.0
 11
-139.0
 21
56.732250000000001
 31
0.0
  0
LINE
  5
1B5
  8
DETAIL
  6
CONTINUOUS
 62
     5
 10
-139.0
 20
55.732250000000001
 30
0.0
 11
-139.0
 21
56.732250000000001
 31
0.0
  0
LINE
  5
1B6
  8
DETAIL
  6
CONTINUOUS
 62
     5
 10
-126.502944
 20
50.432250000000003
 30
0.0
 11
-137.102791
 21
50.432250000000003
 31
0.0
  0
ARC
  5
1B7
  8
DETAIL
  6
CONTINUOUS
 62
     5
 10
-138.65313599999999
 20
42.552384999999987
 30
0.0
 40
1.8531329999999999
 50
359.99998199999999
 51
38.357669000000001
  0
ARC
  5
1B8
  8
DETAIL
  6
CONTINUOUS
 62
     5
 10
-143.61250000000001
 20
46.002383000000002
 30
0.0
 40
6.8124979999999988
 50
340.26832999999999
 51
19.731579
  0
ARC
  5
1B9
  8
DETAIL
  6
CONTINUOUS
 62
     5
 10
-138.65313800000001
 20
49.452382
 30
0.0
 40
1.8531349999999991
 50
321.64226500000001
 51
359.99998199999999
  0
LINE
  5
1BA
  8
DETAIL
  6
CONTINUOUS
 62
     5
 10
-137.20000099999999
 20
43.702382999999998
 30
0.0
 11
-140.80000000000001
 21
43.702382999999998
 31
0.0
  0
LINE
  5
1BB
  8
DETAIL
  6
CONTINUOUS
 62
     5
 10
-137.20000099999999
 20
48.302384000000004
 30
0.0
 11
-140.80000000000001
 21
48.302384000000004
 31
0.0
  0
LINE
  5
1BC
  8
DETAIL
  6
CONTINUOUS
 62
     5
 10
-137.20000099999999
 20
50.602383000000003
 30
0.0
 11
-140.79999900000001
 21
50.602383000000003
 31
0.0
  0
LINE
  5
1BD
  8
DETAIL
  6
CONTINUOUS
 62
     5
 10
-136.80000699999999
 20
49.902377999999999
 30
0.0
 11
-137.200007
 21
50.602378000000002
 31
0.0
  0
LINE
  5
1BE
  8
DETAIL
  6
CONTINUOUS
 62
     5
 10
-136.80000000000001
 20
42.102384999999991
 30
0.0
 11
-136.80000000000001
 21
49.902382000000003
 31
0.0
  0
LINE
  5
1BF
  8
DETAIL
  6
CONTINUOUS
 62
     5
 10
-137.200007
 20
41.402388000000002
 30
0.0
 11
-136.80000699999999
 21
42.102389000000002
 31
0.0
  0
LINE
  5
1C0
  8
DETAIL
  6
CONTINUOUS
 62
     5
 10
-140.80000100000001
 20
41.402383999999998
 30
0.0
 11
-137.20000099999999
 21
41.402383999999998
 31
0.0
  0
LINE
  5
1C1
  8
DETAIL
  6
CONTINUOUS
 62
     5
 10
-140.80000000000001
 20
50.602384000000001
 30
0.0
 11
-140.80000000000001
 21
41.402383
 31
0.0
  0
LINE
  5
1C2
  8
DETAIL
  6
CONTINUOUS
 62
     5
 10
-134.400002
 20
48.502383000000002
 30
0.0
 11
-134.400002
 21
43.502383000000002
 31
0.0
  0
LINE
  5
1C3
  8
DETAIL
  6
CONTINUOUS
 62
     5
 10
-134.400002
 20
48.502383000000002
 30
0.0
 11
-136.80000200000001
 21
48.502383000000002
 31
0.0
  0
LINE
  5
1C4
  8
DETAIL
  6
CONTINUOUS
 62
     5
 10
-134.400002
 20
43.502383000000002
 30
0.0
 11
-136.80000200000001
 21
43.502383000000002
 31
0.0
  0
ARC
  5
1C5
  8
DETAIL
  6
CONTINUOUS
 62
     5
 10
-139.59999999999999
 20
51.632249999999999
 30
0.0
 40
1.1999999999999991
 50
180.0
 51
239.117615
  0
LINE
  5
1C6
  8
DETAIL
  6
CONTINUOUS
 62
     5
 10
-107.647487
 20
22.041846
 30
0.0
 11
-100.4028
 21
6.5156510000000001
 31
0.0
  0
LINE
  5
1C7
  8
DETAIL
  6
CONTINUOUS
 62
     5
 10
-114.09980400000001
 20
25.799295000000001
 30
0.0
 11
-118.995626
 21
50.814700000000002
 31
0.0
  0
LINE
  5
1C8
  8
DETAIL
  6
CONTINUOUS
 62
     5
 10
-114.411083
 20
40.623018999999999
 30
0.0
 11
-107.647513
 21
22.041846
 31
0.0
  0
LINE
  5
1C9
  8
DETAIL
  6
CONTINUOUS
 62
     5
 10
-107.505983
 20
0.000009
 30
0.0
 11
-114.09976899999999
 21
25.799275999999999
 31
0.0
  0
LINE
  5
1CA
  8
DETAIL
  6
CONTINUOUS
 62
     5
 10
-95.290515999999997
 20
4.075213999999999
 30
0.0
 11
-98.851291000000003
 21
4.060327
 31
0.0
  0
LINE
  5
1CB
  8
DETAIL
  6
CONTINUOUS
 62
     5
 10
-70.0
 20
55.586054000000011
 30
0.0
 11
-75.810626999999997
 21
62.228785000000002
 31
0.0
  0
LINE
  5
1CC
  8
NOTE
  6
CONTINUOUS
 62
     4
 39
50.0
 10
93.606623999999996
 20
262.74375800000001
 30
0.0
 11
368.31592000000001
 21
262.74375800000001
 31
0.0
  0
TEXT
  5
1CD
  8
NOTE
  6
CONTINUOUS
 62
     4
 10
97.190514000000007
 20
281.48059799999999
 30
0.0
 40
64.0
  1
4-φ12
 41
0.9
  0
ARC
  5
1CE
  8
OUTLINE
  6
CONTINUOUS
 62
     3
 10
-1.6000000000000001
 20
-233.40000000000001
 30
0.0
 40
1.6000000000000001
 50
270.0
 51
0.0
  0
LINE
  5
1CF
  8
SIZE
  6
CONTINUOUS
 62
    30
 10
0.0
 20
237.0
 30
0.0
 11
0.0
 21
547.551019
 31
0.0
  0
LINE
  5
1D0
  8
SIZE
  6
CONTINUOUS
 62
    30
 10
-70.0
 20
184.82997900000001
 30
0.0
 11
-70.0
 21
547.551019
 31
0.0
  0
LINE
  5
1D1
  8
SIZE
  6
CONTINUOUS
 62
    30
 10
-68.0
 20
517.55101899999988
 30
0.0
 11
-2.0
 21
517.55101899999988
 31
0.0
  0
LINE
  5
1D2
  8
SIZE
  6
CONTINUOUS
 62
    30
 10
0.0
 20
517.55101899999988
 30
0.0
 11
145.25714300000001
 21
517.55101899999988
 31
0.0
  0
CIRCLE
  5
1D3
  8
SIZE
  6
CONTINUOUS
 62
    30
 10
-70.0
 20
517.55101899999988
 30
0.0
 40
6.0
  0
CIRCLE
  5
1D4
  8
SIZE
  6
CONTINUOUS
 62
    30
 10
0.0
 20
517.55101899999988
 30
0.0
 40
6.0
  0
TEXT
  5
1D5
  8
SIZE
  6
CONTINUOUS
 62
    30
 10
26.999999571428571
 20
542.55101899999988
 30
0.0
 40
64.0
  1
70
 41
0.9
 72
     1
 11
73.628570999999994
 21
542.55101899999988
 31
0.0
  0
POINT
  5
1D6
  8
DEFPOINTS
  6
CONTINUOUS
 62
    30
 10
0.0
 20
217.0
 30
0.0
  0
POINT
  5
1D7
  8
DEFPOINTS
  6
CONTINUOUS
 62
    30
 10
-70.0
 20
164.82997900000001
 30
0.0
  0
POINT
  5
1D8
  8
DEFPOINTS
  6
CONTINUOUS
 62
    30
 10
-70.0
 20
517.55101899999988
 30
0.0
  0
LINE
  5
1D9
  8
NOTE
  6
CONTINUOUS
 62
     4
 10
-20.0
 20
-217.0
 30
0.0
 11
20.0
 21
-217.0
 31
0.0
  0
LINE
  5
1DA
  8
NOTE
  6
CONTINUOUS
 62
     4
 10
0.0
 20
-197.0
 30
0.0
 11
0.0
 21
-237.0
 31
0.0
  0
LINE
  5
1DB
  8
SIZE
  6
CONTINUOUS
 62
    30
 10
0.0
 20
253.40000000000001
 30
0.0
 11
0.0
 21
633.95097999999996
 31
0.0
  0
LINE
  5
1DC
  8
SIZE
  6
CONTINUOUS
 62
    30
 10
-182.0
 20
53.437131999999991
 30
0.0
 11
-182.0
 21
633.95097999999996
 31
0.0
  0
LINE
  5
1DD
  8
SIZE
  6
CONTINUOUS
 62
    30
 10
-2.0
 20
603.95097999999984
 30
0.0
 11
-180.0
 21
603.95097999999984
 31
0.0
  0
CIRCLE
  5
1DE
  8
SIZE
  6
CONTINUOUS
 62
    30
 10
0.0
 20
603.95097999999984
 30
0.0
 40
6.0
  0
CIRCLE
  5
1DF
  8
SIZE
  6
CONTINUOUS
 62
    30
 10
-182.0
 20
603.95097999999984
 30
0.0
 40
6.0
  0
TEXT
  5
1E0
  8
SIZE
  6
CONTINUOUS
 62
    30
 10
-159.5714285714285
 20
628.95097999999984
 30
0.0
 40
64.0
  1
182
 41
0.9
 72
     1
 11
-91.0
 21
628.95097999999984
 31
0.0
  0
POINT
  5
1E1
  8
DEFPOINTS
  6
CONTINUOUS
 62
    30
 10
0.0
 20
233.40000000000001
 30
0.0
  0
POINT
  5
1E2
  8
DEFPOINTS
  6
CONTINUOUS
 62
    30
 10
-182.0
 20
33.437131999999998
 30
0.0
  0
POINT
  5
1E3
  8
DEFPOINTS
  6
CONTINUOUS
 62
    30
 10
-182.0
 20
603.95097999999984
 30
0.0
  0
LINE
  5
1E4
  8
SIZE
  6
CONTINUOUS
 62
    30
 10
0.0
 20
215.92211699999999
 30
0.0
 11
0.0
 21
407.275509
 31
0.0
  0
LINE
  5
1E5
  8
SIZE
  6
CONTINUOUS
 62
    30
 10
-10.0
 20
216.72602599999999
 30
0.0
 11
-10.0
 21
407.275509
 31
0.0
  0
LINE
  5
1E6
  8
SIZE
  6
CONTINUOUS
 62
    30
 10
-12.0
 20
377.275509
 30
0.0
 11
-14.0
 21
377.275509
 31
0.0
  0
LINE
  5
1E7
  8
SIZE
  6
CONTINUOUS
 62
    30
 10
2.0
 20
377.275509
 30
0.0
 11
146.28571400000001
 21
377.275509
 31
0.0
  0
LINE
  5
1E8
  8
SIZE
  6
CONTINUOUS
 62
    30
 10
-10.0
 20
377.275509
 30
0.0
 11
0.0
 21
377.275509
 31
0.0
  0
CIRCLE
  5
1E9
  8
SIZE
  6
CONTINUOUS
 62
    30
 10
-10.0
 20
377.275509
 30
0.0
 40
6.0
  0
CIRCLE
  5
1EA
  8
SIZE
  6
CONTINUOUS
 62
    30
 10
0.0
 20
377.275509
 30
0.0
 40
6.0
  0
TEXT
  5
1EB
  8
SIZE
  6
CONTINUOUS
 62
    30
 10
38.999999857142861
 20
402.275509
 30
0.0
 40
64.0
  1
10
 41
0.9
 72
     1
 11
80.142857000000006
 21
402.275509
 31
0.0
  0
POINT
  5
1EC
  8
DEFPOINTS
  6
CONTINUOUS
 62
    30
 10
0.0
 20
195.92211699999999
 30
0.0
  0
POINT
  5
1ED
  8
DEFPOINTS
  6
CONTINUOUS
 62
    30
 10
-10.0
 20
196.72602599999999
 30
0.0
  0
POINT
  5
1EE
  8
DEFPOINTS
  6
CONTINUOUS
 62
    30
 10
-10.0
 20
377.275509
 30
0.0
  0
ARC
  5
1EF
  8
DETAIL
  6
CONTINUOUS
 62
     5
 10
-1.6000000000000001
 20
-233.40000000000001
 30
0.0
 40
1.6000000000000001
 50
270.0
 51
0.0
  0
ARC
  5
1F0
  8
OUTLINE
  6
CONTINUOUS
 62
     3
 10
-7.5
 20
-230.30000000000001
 30
0.0
 40
2.5
 50
180.0
 51
270.0
  0
LINE
  5
1F1
  8
SIZE
  6
CONTINUOUS
 62
    30
 10
-10.0
 20
205.30878000000001
 30
0.0
 11
-10.0
 21
407.275509
 31
0.0
  0
LINE
  5
1F2
  8
SIZE
  6
CONTINUOUS
 62
    30
 10
-20.0
 20
195.67602600000001
 30
0.0
 11
-20.0
 21
407.275509
 31
0.0
  0
LINE
  5
1F3
  8
SIZE
  6
CONTINUOUS
 62
    30
 10
-8.0
 20
377.275509
 30
0.0
 11
-6.0
 21
377.275509
 31
0.0
  0
LINE
  5
1F4
  8
SIZE
  6
CONTINUOUS
 62
    30
 10
-22.0
 20
377.275509
 30
0.0
 11
-156.28571400000001
 21
377.275509
 31
0.0
  0
LINE
  5
1F5
  8
SIZE
  6
CONTINUOUS
 62
    30
 10
-10.0
 20
377.275509
 30
0.0
 11
-20.0
 21
377.275509
 31
0.0
  0
CIRCLE
  5
1F6
  8
SIZE
  6
CONTINUOUS
 62
    30
 10
-10.0
 20
377.275509
 30
0.0
 40
6.0
  0
CIRCLE
  5
1F7
  8
SIZE
  6
CONTINUOUS
 62
    30
 10
-20.0
 20
377.275509
 30
0.0
 40
6.0
  0
TEXT
  5
1F8
  8
SIZE
  6
CONTINUOUS
 62
    30
 10
-131.2857141428571
 20
402.275509
 30
0.0
 40
64.0
  1
10
 41
0.9
 72
     1
 11
-90.142857000000006
 21
402.275509
 31
0.0
  0
POINT
  5
1F9
  8
DEFPOINTS
  6
CONTINUOUS
 62
    30
 10
-10.0
 20
185.30878000000001
 30
0.0
  0
POINT
  5
1FA
  8
DEFPOINTS
  6
CONTINUOUS
 62
    30
 10
-20.0
 20
175.67602600000001
 30
0.0
  0
POINT
  5
1FB
  8
DEFPOINTS
  6
CONTINUOUS
 62
    30
 10
-20.0
 20
377.275509
 30
0.0
  0
ARC
  5
1FC
  8
DETAIL
  6
CONTINUOUS
 62
     5
 10
-7.5
 20
-230.30000000000001
 30
0.0
 40
2.5
 50
180.0
 51
270.0
  0
LINE
  5
1FD
  8
OUTLINE
  6
CONTINUOUS
 62
     3
 10
-171.0
 20
-67.849999999999994
 30
0.0
 11
-146.0
 21
-67.849999999999994
 31
0.0
  0
ARC
  5
1FE
  8
OUTLINE
  6
CONTINUOUS
 62
     3
 10
-106.0
 20
-122.029509
 30
0.0
 40
65.0
 50
180.0
 51
270.0
  0
ARC
  5
1FF
  8
OUTLINE
  6
CONTINUOUS
 62
     3
 10
-106.0
 20
-120.30878
 30
0.0
 40
65.0
 50
180.0
 51
270.0
  0
LINE
  5
200
  8
DETAIL
  6
CONTINUOUS
 62
     5
 10
-171.0
 20
-67.849999999999994
 30
0.0
 11
-146.0
 21
-67.849999999999994
 31
0.0
  0
ARC
  5
201
  8
DETAIL
  6
CONTINUOUS
 62
     5
 10
-106.0
 20
-122.029509
 30
0.0
 40
65.0
 50
180.0
 51
270.0
  0
ARC
  5
202
  8
DETAIL
  6
CONTINUOUS
 62
     5
 10
-106.0
 20
-120.30878
 30
0.0
 40
65.0
 50
180.0
 51
270.0
  0
LINE
  5
203
  8
OUTLINE
  6
CONTINUOUS
 62
     3
 10
-171.0
 20
-120.30878
 30
0.0
 11
-171.0
 21
-69.400000000000006
 31
0.0
  0
LINE
  5
204
  8
DETAIL
  6
CONTINUOUS
 62
     5
 10
-171.0
 20
-120.30878
 30
0.0
 11
-171.0
 21
-69.400000000000006
 31
0.0
  0
LINE
  5
205
  8
OUTLINE
  6
CONTINUOUS
 62
     3
 10
-171.5
 20
-69.400000000000006
 30
0.0
 11
-171.5
 21
-54.232250000000001
 31
0.0
  0
LINE
  5
206
  8
OUTLINE
  6
CONTINUOUS
 62
     3
 10
-171.0
 20
-53.527124000000001
 30
0.0
 11
-171.0
 21
-69.400000000000006
 31
0.0
  0
LINE
  5
207
  8
OUTLINE
  6
CONTINUOUS
 62
     3
 10
-176.09999999999999
 20
-91.922582999999975
 30
0.0
 11
-176.09999999999999
 21
-102.0
 31
0.0
  0
LINE
  5
208
  8
DETAIL
  6
CONTINUOUS
 62
     5
 10
-171.5
 20
-69.400000000000006
 30
0.0
 11
-171.5
 21
-54.232250000000001
 31
0.0
  0
LINE
  5
209
  8
DETAIL
  6
CONTINUOUS
 62
     5
 10
-171.0
 20
-53.527124000000001
 30
0.0
 11
-171.0
 21
-69.400000000000006
 31
0.0
  0
LINE
  5
20A
  8
DETAIL
  6
CONTINUOUS
 62
     5
 10
-176.09999999999999
 20
-91.922582999999975
 30
0.0
 11
-176.09999999999999
 21
-102.0
 31
0.0
  0
ARC
  5
20B
  8
OUTLINE
  6
CONTINUOUS
 62
     3
 10
-179.50794200000001
 20
-57.5
 30
0.0
 40
3.399999999999999
 50
0.0
 51
39.155434
  0
LINE
  5
20C
  8
OUTLINE
  6
CONTINUOUS
 62
     3
 10
-176.87146000000001
 20
-55.353149999999999
 30
0.0
 11
-180.774947
 21
-50.559395000000002
 31
0.0
  0
ARC
  5
20D
  8
OUTLINE
  6
CONTINUOUS
 62
     3
 10
-174.86619300000001
 20
-46.337125
 30
0.0
 40
7.2622949999999991
 50
190.453948
 51
215.54879199999999
  0
ARC
  5
20E
  8
OUTLINE
  6
CONTINUOUS
 62
     3
 10
-169.5
 20
-54.232250000000001
 30
0.0
 40
2.0
 50
90.0
 51
180.0
  0
ARC
  5
20F
  8
OUTLINE
  6
CONTINUOUS
 62
     3
 10
-168.5
 20
-49.232250000000001
 30
0.0
 40
3.0
 50
270.0
 51
0.0
  0
LINE
  5
210
  8
OUTLINE
  6
CONTINUOUS
 62
     3
 10
-169.5
 20
-52.232250000000001
 30
0.0
 11
-168.5
 21
-52.232250000000001
 31
0.0
  0
ARC
  5
211
  8
DETAIL
  6
CONTINUOUS
 62
     5
 10
-179.50794200000001
 20
-57.5
 30
0.0
 40
3.399999999999999
 50
0.0
 51
39.155434
  0
LINE
  5
212
  8
DETAIL
  6
CONTINUOUS
 62
     5
 10
-176.87146000000001
 20
-55.353149999999999
 30
0.0
 11
-180.774947
 21
-50.559395000000002
 31
0.0
  0
ARC
  5
213
  8
DETAIL
  6
CONTINUOUS
 62
     5
 10
-174.86619300000001
 20
-46.337125
 30
0.0
 40
7.2622949999999991
 50
190.453948
 51
215.54879199999999
  0
ARC
  5
214
  8
DETAIL
  6
CONTINUOUS
 62
     5
 10
-169.5
 20
-54.232250000000001
 30
0.0
 40
2.0
 50
90.0
 51
180.0
  0
ARC
  5
215
  8
DETAIL
  6
CONTINUOUS
 62
     5
 10
-168.5
 20
-49.232250000000001
 30
0.0
 40
3.0
 50
270.0
 51
0.0
  0
LINE
  5
216
  8
DETAIL
  6
CONTINUOUS
 62
     5
 10
-169.5
 20
-52.232250000000001
 30
0.0
 11
-168.5
 21
-52.232250000000001
 31
0.0
  0
LINE
  5
217
  8
OUTLINE
  6
CONTINUOUS
 62
     3
 10
-171.5
 20
-69.400000000000006
 30
0.0
 11
-171.07712699999999
 21
-69.372915000000006
 31
0.0
  0
LINE
  5
218
  8
OUTLINE
  6
CONTINUOUS
 62
     3
 10
-171.5
 20
-103.59999999999999
 30
0.0
 11
-174.5
 21
-103.59999999999999
 31
0.0
  0
ARC
  5
219
  8
OUTLINE
  6
CONTINUOUS
 62
     3
 10
-174.5
 20
-102.0
 30
0.0
 40
1.6000000000000001
 50
180.0
 51
270.0
  0
LINE
  5
21A
  8
OUTLINE
  6
CONTINUOUS
 62
     3
 10
-171.0
 20
-61.100000000000001
 30
0.0
 11
-171.0
 21
-65.303482999999986
 31
0.0
  0
LINE
  5
21B
  8
DETAIL
  6
CONTINUOUS
 62
     5
 10
-171.5
 20
-69.400000000000006
 30
0.0
 11
-171.07712699999999
 21
-69.372915000000006
 31
0.0
  0
LINE
  5
21C
  8
DETAIL
  6
CONTINUOUS
 62
     5
 10
-171.5
 20
-103.59999999999999
 30
0.0
 11
-174.5
 21
-103.59999999999999
 31
0.0
  0
LINE
  5
21D
  8
DETAIL
  6
CONTINUOUS
 62
     5
 10
-171.0
 20
-61.100000000000001
 30
0.0
 11
-171.0
 21
-65.303482999999986
 31
0.0
  0
ARC
  5
21E
  8
DETAIL
  6
CONTINUOUS
 62
     5
 10
-174.5
 20
-102.0
 30
0.0
 40
1.6000000000000001
 50
180.0
 51
270.0
  0
LINE
  5
21F
  8
OUTLINE
  6
CONTINUOUS
 62
     3
 10
-146.0
 20
-127.82997899999999
 30
0.0
 11
-146.0
 21
-70.171701999999996
 31
0.0
  0
LINE
  5
220
  8
DETAIL
  6
CONTINUOUS
 62
     5
 10
-146.0
 20
-127.82997899999999
 30
0.0
 11
-146.0
 21
-70.171701999999996
 31
0.0
  0
LINE
  5
221
  8
DETAIL
  6
CONTINUOUS
 62
     5
 10
-107.64751699999999
 20
-113.416166
 30
0.0
 11
-114.411096
 21
-131.28180499999999
 31
0.0
  0
LINE
  5
222
  8
DETAIL
  6
CONTINUOUS
 62
     5
 10
-99.115174999999994
 20
-113.813014
 30
0.0
 11
-107.505966
 21
-128.66742199999999
 31
0.0
  0
LINE
  5
223
  8
DETAIL
  6
CONTINUOUS
 62
     5
 10
-76.418944999999994
 20
-74.286169999999998
 30
0.0
 11
-88.785875000000004
 21
-95.500468999999995
 31
0.0
  0
LINE
  5
224
  8
DETAIL
  6
CONTINUOUS
 62
     5
 10
-84.470206999999988
 20
-14.382509000000001
 30
0.0
 11
-75.810578000000007
 21
-19.433046000000001
 31
0.0
  0
LINE
  5
225
  8
DETAIL
  6
CONTINUOUS
 62
     5
 10
-88.785893999999999
 20
-50.814728000000002
 30
0.0
 11
-76.418988999999996
 21
-74.286167000000006
 31
0.0
  0
LINE
  5
226
  8
DETAIL
  6
CONTINUOUS
 62
     5
 10
-93.712524000000016
 20
-4.0721800000000004
 30
0.0
 11
-70.0
 21
-4.0265859999999991
 31
0.0
  0
LINE
  5
227
  8
OUTLINE
  6
CONTINUOUS
 62
     3
 10
-140.80000000000001
 20
-59.482250000000001
 30
0.0
 11
-140.80000000000001
 21
-51.632249999999999
 31
0.0
  0
LINE
  5
228
  8
OUTLINE
  6
CONTINUOUS
 62
     3
 10
-142.0
 20
-59.482250000000001
 30
0.0
 11
-142.0
 21
-11.18225
 31
0.0
  0
LINE
  5
229
  8
DETAIL
  6
CONTINUOUS
 62
     5
 10
-140.80000000000001
 20
-59.482250000000001
 30
0.0
 11
-140.80000000000001
 21
-51.632249999999999
 31
0.0
  0
LINE
  5
22A
  8
DETAIL
  6
CONTINUOUS
 62
     5
 10
-142.0
 20
-59.482250000000001
 30
0.0
 11
-142.0
 21
-11.18225
 31
0.0
  0
ARC
  5
22B
  8
OUTLINE
  6
CONTINUOUS
 62
     3
 10
-139.59999999999999
 20
-51.632249999999999
 30
0.0
 40
1.1999999999999991
 50
120.882385
 51
180.0
  0
LINE
  5
22C
  8
OUTLINE
  6
CONTINUOUS
 62
     3
 10
-134.400002
 20
-43.502383000000002
 30
0.0
 11
-136.80000200000001
 21
-43.502383000000002
 31
0.0
  0
LINE
  5
22D
  8
OUTLINE
  6
CONTINUOUS
 62
     3
 10
-134.400002
 20
-48.502383000000002
 30
0.0
 11
-136.80000200000001
 21
-48.502383000000002
 31
0.0
  0
LINE
  5
22E
  8
OUTLINE
  6
CONTINUOUS
 62
     3
 10
-134.400002
 20
-48.502383000000002
 30
0.0
 11
-134.400002
 21
-43.502383000000002
 31
0.0
  0
LINE
  5
22F
  8
OUTLINE
  6
CONTINUOUS
 62
     3
 10
-140.80000000000001
 20
-50.602384000000001
 30
0.0
 11
-140.80000000000001
 21
-41.402383
 31
0.0
  0
LINE
  5
230
  8
OUTLINE
  6
CONTINUOUS
 62
     3
 10
-140.80000100000001
 20
-41.402383999999998
 30
0.0
 11
-137.20000099999999
 21
-41.402383999999998
 31
0.0
  0
LINE
  5
231
  8
OUTLINE
  6
CONTINUOUS
 62
     3
 10
-137.200007
 20
-41.402388000000002
 30
0.0
 11
-136.80000699999999
 21
-42.102389000000002
 31
0.0
  0
LINE
  5
232
  8
OUTLINE
  6
CONTINUOUS
 62
     3
 10
-136.80000000000001
 20
-42.102384999999991
 30
0.0
 11
-136.80000000000001
 21
-49.902382000000003
 31
0.0
  0
LINE
  5
233
  8
OUTLINE
  6
CONTINUOUS
 62
     3
 10
-136.80000699999999
 20
-49.902377999999999
 30
0.0
 11
-137.200007
 21
-50.602378000000002
 31
0.0
  0
LINE
  5
234
  8
OUTLINE
  6
CONTINUOUS
 62
     3
 10
-137.20000099999999
 20
-50.602383000000003
 30
0.0
 11
-140.79999900000001
 21
-50.602383000000003
 31
0.0
  0
LINE
  5
235
  8
OUTLINE
  6
CONTINUOUS
 62
     3
 10
-137.20000099999999
 20
-48.302384000000004
 30
0.0
 11
-140.80000000000001
 21
-48.302384000000004
 31
0.0
  0
LINE
  5
236
  8
OUTLINE
  6
CONTINUOUS
 62
     3
 10
-137.20000099999999
 20
-43.702382999999998
 30
0.0
 11
-140.80000000000001
 21
-43.702382999999998
 31
0.0
  0
ARC
  5
237
  8
OUTLINE
  6
CONTINUOUS
 62
     3
 10
-138.65313800000001
 20
-49.452382
 30
0.0
 40
1.8531349999999991
 50
0.000018
 51
38.357734999999998
  0
ARC
  5
238
  8
OUTLINE
  6
CONTINUOUS
 62
     3
 10
-143.61250000000001
 20
-46.002383000000002
 30
0.0
 40
6.8124979999999988
 50
340.26842099999999
 51
19.731670000000001
  0
ARC
  5
239
  8
OUTLINE
  6
CONTINUOUS
 62
     3
 10
-138.65313599999999
 20
-42.552384999999987
 30
0.0
 40
1.8531329999999999
 50
321.64233100000001
 51
0.000018
  0
LINE
  5
23A
  8
OUTLINE
  6
CONTINUOUS
 62
     3
 10
-139.0
 20
-55.732250000000001
 30
0.0
 11
-139.0
 21
-56.732250000000001
 31
0.0
  0
LINE
  5
23B
  8
OUTLINE
  6
CONTINUOUS
 62
     3
 10
-140.80000000000001
 20
-56.732250000000001
 30
0.0
 11
-139.0
 21
-56.732250000000001
 31
0.0
  0
ARC
  5
23C
  8
OUTLINE
  6
CONTINUOUS
 62
     3
 10
-141.5
 20
-55.232250000000001
 30
0.0
 40
1.5
 50
180.0
 51
250.52877899999999
  0
LINE
  5
23D
  8
OUTLINE
  6
CONTINUOUS
 62
     3
 10
-140.80000000000001
 20
-55.732250000000001
 30
0.0
 11
-139.0
 21
-55.732250000000001
 31
0.0
  0
LINE
  5
23E
  8
OUTLINE
  6
CONTINUOUS
 62
     3
 10
-140.80000000000001
 20
-54.232250000000001
 30
0.0
 11
-140.80000000000001
 21
-51.632249999999999
 31
0.0
  0
LINE
  5
23F
  8
OUTLINE
  6
CONTINUOUS
 62
     3
 10
-143.0
 20
-9.2322500000000005
 30
0.0
 11
-143.0
 21
-55.232250000000001
 31
0.0
  0
LINE
  5
240
  8
OUTLINE
  6
CONTINUOUS
 62
     3
 10
-140.80000000000001
 20
-0.65225
 30
0.0
 11
-140.80000000000001
 21
-42.402250000000002
 31
0.0
  0
LINE
  5
241
  8
DETAIL
  6
CONTINUOUS
 62
     5
 10
-103.65000000000001
 20
-44.232250000000001
 30
0.0
 11
-103.65000000000001
 21
-11.346622999999999
 31
0.0
  0
ARC
  5
242
  8
DETAIL
  6
CONTINUOUS
 62
     5
 10
-109.34999999999999
 20
-44.232250000000001
 30
0.0
 40
5.7000000000000002
 50
271.765556
 51
0.0
  0
LINE
  5
243
  8
DETAIL
  6
CONTINUOUS
 62
     5
 10
-126.502944
 20
-50.432250000000003
 30
0.0
 11
-125.63691799999999
 21
-49.932250000000003
 31
0.0
  0
LINE
  5
244
  8
DETAIL
  6
CONTINUOUS
 62
     5
 10
-109.174384
 20
-49.929544
 30
0.0
 11
-125.63691799999999
 21
-49.932250000000003
 31
0.0
  0
ARC
  5
245
  8
DETAIL
  6
CONTINUOUS
 62
     5
 10
-139.59999999999999
 20
-51.632249999999999
 30
0.0
 40
1.1999999999999991
 50
120.882385
 51
180.0
  0
LINE
  5
246
  8
DETAIL
  6
CONTINUOUS
 62
     5
 10
-134.400002
 20
-43.502383000000002
 30
0.0
 11
-136.80000200000001
 21
-43.502383000000002
 31
0.0
  0
LINE
  5
247
  8
DETAIL
  6
CONTINUOUS
 62
     5
 10
-134.400002
 20
-48.502383000000002
 30
0.0
 11
-136.80000200000001
 21
-48.502383000000002
 31
0.0
  0
LINE
  5
248
  8
DETAIL
  6
CONTINUOUS
 62
     5
 10
-134.400002
 20
-48.502383000000002
 30
0.0
 11
-134.400002
 21
-43.502383000000002
 31
0.0
  0
LINE
  5
249
  8
DETAIL
  6
CONTINUOUS
 62
     5
 10
-140.80000000000001
 20
-50.602384000000001
 30
0.0
 11
-140.80000000000001
 21
-41.402383
 31
0.0
  0
LINE
  5
24A
  8
DETAIL
  6
CONTINUOUS
 62
     5
 10
-140.80000100000001
 20
-41.402383999999998
 30
0.0
 11
-137.20000099999999
 21
-41.402383999999998
 31
0.0
  0
LINE
  5
24B
  8
DETAIL
  6
CONTINUOUS
 62
     5
 10
-137.200007
 20
-41.402388000000002
 30
0.0
 11
-136.80000699999999
 21
-42.102389000000002
 31
0.0
  0
LINE
  5
24C
  8
DETAIL
  6
CONTINUOUS
 62
     5
 10
-136.80000000000001
 20
-42.102384999999991
 30
0.0
 11
-136.80000000000001
 21
-49.902382000000003
 31
0.0
  0
LINE
  5
24D
  8
DETAIL
  6
CONTINUOUS
 62
     5
 10
-136.80000699999999
 20
-49.902377999999999
 30
0.0
 11
-137.200007
 21
-50.602378000000002
 31
0.0
  0
LINE
  5
24E
  8
DETAIL
  6
CONTINUOUS
 62
     5
 10
-137.20000099999999
 20
-50.602383000000003
 30
0.0
 11
-140.79999900000001
 21
-50.602383000000003
 31
0.0
  0
LINE
  5
24F
  8
DETAIL
  6
CONTINUOUS
 62
     5
 10
-137.20000099999999
 20
-48.302384000000004
 30
0.0
 11
-140.80000000000001
 21
-48.302384000000004
 31
0.0
  0
LINE
  5
250
  8
DETAIL
  6
CONTINUOUS
 62
     5
 10
-137.20000099999999
 20
-43.702382999999998
 30
0.0
 11
-140.80000000000001
 21
-43.702382999999998
 31
0.0
  0
ARC
  5
251
  8
DETAIL
  6
CONTINUOUS
 62
     5
 10
-138.65313800000001
 20
-49.452382
 30
0.0
 40
1.8531349999999991
 50
0.000018
 51
38.357734999999998
  0
ARC
  5
252
  8
DETAIL
  6
CONTINUOUS
 62
     5
 10
-143.61250000000001
 20
-46.002383000000002
 30
0.0
 40
6.8124979999999988
 50
340.26842099999999
 51
19.731670000000001
  0
ARC
  5
253
  8
DETAIL
  6
CONTINUOUS
 62
     5
 10
-138.65313599999999
 20
-42.552384999999987
 30
0.0
 40
1.8531329999999999
 50
321.64233100000001
 51
0.000018
  0
LINE
  5
254
  8
DETAIL
  6
CONTINUOUS
 62
     5
 10
-126.502944
 20
-50.432250000000003
 30
0.0
 11
-137.102791
 21
-50.432250000000003
 31
0.0
  0
LINE
  5
255
  8
DETAIL
  6
CONTINUOUS
 62
     5
 10
-139.0
 20
-55.732250000000001
 30
0.0
 11
-139.0
 21
-56.732250000000001
 31
0.0
  0
LINE
  5
256
  8
DETAIL
  6
CONTINUOUS
 62
     5
 10
-140.80000000000001
 20
-56.732250000000001
 30
0.0
 11
-139.0
 21
-56.732250000000001
 31
0.0
  0
ARC
  5
257
  8
DETAIL
  6
CONTINUOUS
 62
     5
 10
-141.5
 20
-55.232250000000001
 30
0.0
 40
1.5
 50
180.0
 51
250.52877899999999
  0
LINE
  5
258
  8
DETAIL
  6
CONTINUOUS
 62
     5
 10
-140.80000000000001
 20
-55.732250000000001
 30
0.0
 11
-139.0
 21
-55.732250000000001
 31
0.0
  0
LINE
  5
259
  8
DETAIL
  6
CONTINUOUS
 62
     5
 10
-140.80000000000001
 20
-54.232250000000001
 30
0.0
 11
-140.80000000000001
 21
-51.632249999999999
 31
0.0
  0
LINE
  5
25A
  8
DETAIL
  6
CONTINUOUS
 62
     5
 10
-143.0
 20
-0.9322499999999999
 30
0.0
 11
-143.0
 21
-55.232250000000001
 31
0.0
  0
LINE
  5
25B
  8
DETAIL
  6
CONTINUOUS
 62
     5
 10
-140.80000000000001
 20
-0.65225
 30
0.0
 11
-140.80000000000001
 21
-42.402250000000002
 31
0.0
  0
LINE
  5
25C
  8
DETAIL
  6
CONTINUOUS
 62
     5
 10
-99.115206000000015
 20
-25.799313000000001
 30
0.0
 11
-88.785880999999989
 21
-50.814731000000002
 31
0.0
  0
LINE
  5
25D
  8
DETAIL
  6
CONTINUOUS
 62
     5
 10
-92.677051000000006
 20
-5.7109800000000002
 30
0.0
 11
-84.470185000000001
 21
-14.382503
 31
0.0
  0
LINE
  5
25E
  8
DETAIL
  6
CONTINUOUS
 62
     5
 10
-104.65000000000001
 20
-11.346622999999999
 30
0.0
 11
-104.65000000000001
 21
-8.7813069999999982
 31
0.0
  0
LINE
  5
25F
  8
OUTLINE
  6
CONTINUOUS
 62
     3
 10
-146.0
 20
-103.59999999999999
 30
0.0
 11
-143.0
 21
-103.59999999999999
 31
0.0
  0
ARC
  5
260
  8
OUTLINE
  6
CONTINUOUS
 62
     3
 10
-142.0
 20
-67.805622999999997
 30
0.0
 40
0.5
 50
270.0
 51
0.0
  0
LINE
  5
261
  8
OUTLINE
  6
CONTINUOUS
 62
     3
 10
-143.0
 20
-68.305622999999997
 30
0.0
 11
-142.0
 21
-68.305622999999997
 31
0.0
  0
LINE
  5
262
  8
OUTLINE
  6
CONTINUOUS
 62
     3
 10
-141.5
 20
-67.805622999999997
 30
0.0
 11
-141.5
 21
-63.805622999999997
 31
0.0
  0
LINE
  5
263
  8
OUTLINE
  6
CONTINUOUS
 62
     3
 10
-143.0
 20
-65.099999999999994
 30
0.0
 11
-143.0
 21
-63.79999999999999
 31
0.0
  0
ARC
  5
264
  8
OUTLINE
  6
CONTINUOUS
 62
     3
 10
-142.0
 20
-59.80562299999999
 30
0.0
 40
0.5
 50
0.0
 51
90.0
  0
LINE
  5
265
  8
OUTLINE
  6
CONTINUOUS
 62
     3
 10
-143.0
 20
-59.305622999999997
 30
0.0
 11
-142.0
 21
-59.305622999999997
 31
0.0
  0
LINE
  5
266
  8
OUTLINE
  6
CONTINUOUS
 62
     3
 10
-142.0
 20
-59.482250000000001
 30
0.0
 11
-140.80000000000001
 21
-59.482250000000001
 31
0.0
  0
LINE
  5
267
  8
OUTLINE
  6
CONTINUOUS
 62
     3
 10
-141.5
 20
-63.805622999999997
 30
0.0
 11
-141.5
 21
-59.80562299999999
 31
0.0
  0
LINE
  5
268
  8
OUTLINE
  6
CONTINUOUS
 62
     3
 10
-146.0
 20
-58.650326
 30
0.0
 11
-146.0
 21
-70.171701999999996
 31
0.0
  0
LINE
  5
269
  8
DETAIL
  6
CONTINUOUS
 62
     5
 10
-146.0
 20
-103.59999999999999
 30
0.0
 11
-143.0
 21
-103.59999999999999
 31
0.0
  0
ARC
  5
26A
  8
DETAIL
  6
CONTINUOUS
 62
     5
 10
-142.0
 20
-67.805622999999997
 30
0.0
 40
0.5
 50
270.0
 51
0.0
  0
LINE
  5
26B
  8
DETAIL
  6
CONTINUOUS
 62
     5
 10
-143.0
 20
-68.305622999999997
 30
0.0
 11
-142.0
 21
-68.305622999999997
 31
0.0
  0
LINE
  5
26C
  8
DETAIL
  6
CONTINUOUS
 62
     5
 10
-141.5
 20
-67.805622999999997
 30
0.0
 11
-141.5
 21
-63.805622999999997
 31
0.0
  0
LINE
  5
26D
  8
DETAIL
  6
CONTINUOUS
 62
     5
 10
-143.0
 20
-65.099999999999994
 30
0.0
 11
-143.0
 21
-63.79999999999999
 31
0.0
  0
ARC
  5
26E
  8
DETAIL
  6
CONTINUOUS
 62
     5
 10
-142.0
 20
-59.80562299999999
 30
0.0
 40
0.5
 50
0.0
 51
90.0
  0
LINE
  5
26F
  8
DETAIL
  6
CONTINUOUS
 62
     5
 10
-143.0
 20
-59.305622999999997
 30
0.0
 11
-142.0
 21
-59.305622999999997
 31
0.0
  0
LINE
  5
270
  8
DETAIL
  6
CONTINUOUS
 62
     5
 10
-141.5
 20
-63.805622999999997
 30
0.0
 11
-141.5
 21
-59.80562299999999
 31
0.0
  0
LINE
  5
271
  8
DETAIL
  6
CONTINUOUS
 62
     5
 10
-142.0
 20
-59.482250000000001
 30
0.0
 11
-140.80000000000001
 21
-59.482250000000001
 31
0.0
  0
LINE
  5
272
  8
DETAIL
  6
CONTINUOUS
 62
     5
 10
-146.0
 20
-58.650326
 30
0.0
 11
-146.0
 21
-70.171701999999996
 31
0.0
  0
LINE
  5
273
  8
DETAIL
  6
CONTINUOUS
 62
     5
 10
-88.785890000000009
 20
-95.500468999999995
 30
0.0
 11
-99.115211000000016
 21
-113.81301000000001
 31
0.0
  0
LINE
  5
274
  8
DETAIL
  6
CONTINUOUS
 62
     5
 10
-92.677080000000004
 20
-76.642061999999996
 30
0.0
 11
-100.402835
 21
-94.989742000000007
 31
0.0
  0
LINE
  5
275
  8
DETAIL
  6
CONTINUOUS
 62
     5
 10
-100.402782
 20
-94.989735999999994
 30
0.0
 11
-107.647471
 21
-113.416177
 31
0.0
  0
LINE
  5
276
  8
DETAIL
  6
CONTINUOUS
 62
     5
 10
-84.470206999999988
 20
-59.045008000000003
 30
0.0
 11
-84.460513000000006
 21
-59.024065
 31
0.0
  0
LINE
  5
277
  8
DETAIL
  6
CONTINUOUS
 62
     5
 10
-92.677047000000016
 20
-76.642071000000001
 30
0.0
 11
-84.46051700000001
 21
-59.024065
 31
0.0
  0
LINE
  5
278
  8
DETAIL
  6
CONTINUOUS
 62
     5
 10
-75.810579000000004
 20
-19.433032999999998
 30
0.0
 11
-70.0
 21
-21.902225999999999
 31
0.0
  0
LINE
  5
279
  8
DETAIL
  6
CONTINUOUS
 62
     5
 10
-70.0
 20
-83.575558999999984
 30
0.0
 11
-76.41900600000001
 21
-74.286160999999993
 31
0.0
  0
LINE
  5
27A
  8
OUTLINE
  6
CONTINUOUS
 62
     3
 10
-94.0
 20
-164.82997900000001
 30
0.0
 11
-50.0
 21
-164.82997900000001
 31
0.0
  0
LINE
  5
27B
  8
OUTLINE
  6
CONTINUOUS
 62
     3
 10
-106.0
 20
-164.82997900000001
 30
0.0
 11
-27.989758999999999
 21
-164.82997900000001
 31
0.0
  0
LINE
  5
27C
  8
OUTLINE
  6
CONTINUOUS
 62
     3
 10
-106.0
 20
-187.02950899999999
 30
0.0
 11
-19.989761000000001
 21
-187.02950899999999
 31
0.0
  0
LINE
  5
27D
  8
OUTLINE
  6
CONTINUOUS
 62
     3
 10
-106.0
 20
-185.30878000000001
 30
0.0
 11
-19.989761000000001
 21
-185.30878000000001
 31
0.0
  0
LINE
  5
27E
  8
DETAIL
  6
CONTINUOUS
 62
     5
 10
-106.0
 20
-164.82997900000001
 30
0.0
 11
-27.989758999999999
 21
-164.82997900000001
 31
0.0
  0
LINE
  5
27F
  8
DETAIL
  6
CONTINUOUS
 62
     5
 10
-106.0
 20
-187.02950899999999
 30
0.0
 11
-19.989761000000001
 21
-187.02950899999999
 31
0.0
  0
LINE
  5
280
  8
DETAIL
  6
CONTINUOUS
 62
     5
 10
-106.0
 20
-185.30878000000001
 30
0.0
 11
-19.989761000000001
 21
-185.30878000000001
 31
0.0
  0
LINE
  5
281
  8
DETAIL
  6
CONTINUOUS
 62
     5
 10
-94.0
 20
-164.82997900000001
 30
0.0
 11
-50.0
 21
-164.82997900000001
 31
0.0
  0
ARC
  5
282
  8
OUTLINE
  6
CONTINUOUS
 62
     3
 10
-105.90877
 20
-124.60973
 30
0.0
 40
40.220351999999998
 50
184.592311
 51
269.87003900000002
  0
ARC
  5
283
  8
DETAIL
  6
CONTINUOUS
 62
     5
 10
-105.90877
 20
-124.60973
 30
0.0
 40
40.220351999999998
 50
184.592311
 51
269.87003900000002
  0
LINE
  5
284
  8
DETAIL
  6
CONTINUOUS
 62
     5
 10
-118.995583
 20
-146.31519599999999
 30
0.0
 11
-120.679406
 21
-147.91054
 31
0.0
  0
LINE
  5
285
  8
DETAIL
  6
CONTINUOUS
 62
     5
 10
-107.505965
 20
-128.66741200000001
 30
0.0
 11
-114.099772
 21
-139.61230399999999
 31
0.0
  0
LINE
  5
286
  8
DETAIL
  6
CONTINUOUS
 62
     5
 10
-114.41106000000001
 20
-131.28179299999999
 30
0.0
 11
-120.67938700000001
 21
-147.91050799999999
 31
0.0
  0
LINE
  5
287
  8
DETAIL
  6
CONTINUOUS
 62
     5
 10
-114.099755
 20
-139.61230900000001
 30
0.0
 11
-118.995555
 21
-146.31519499999999
 31
0.0
  0
LINE
  5
288
  8
OUTLINE
  6
CONTINUOUS
 62
     3
 10
-27.989758999999999
 20
-174.82602499999999
 30
0.0
 11
-27.989758999999999
 21
-165.026028
 31
0.0
  0
LINE
  5
289
  8
OUTLINE
  6
CONTINUOUS
 62
     3
 10
-22.989761000000001
 20
-164.176027
 30
0.0
 11
-22.989761000000001
 21
-175.67602600000001
 31
0.0
  0
ARC
  5
28A
  8
OUTLINE
  6
CONTINUOUS
 62
     3
 10
-25.673355000000001
 20
-174.23852600000001
 30
0.0
 40
2.3164060000000002
 50
141.64200299999999
 51
180.0
  0
LINE
  5
28B
  8
OUTLINE
  6
CONTINUOUS
 62
     3
 10
-19.989761000000001
 20
-153.950861
 30
0.0
 11
-19.989761000000001
 21
-181.02950899999999
 31
0.0
  0
LINE
  5
28C
  8
OUTLINE
  6
CONTINUOUS
 62
     3
 10
-22.989761000000001
 20
-185.30878000000001
 30
0.0
 11
-22.989761000000001
 21
-164.17602600000001
 31
0.0
  0
LINE
  5
28D
  8
DETAIL
  6
CONTINUOUS
 62
     5
 10
-27.989758999999999
 20
-174.82602499999999
 30
0.0
 11
-27.989758999999999
 21
-165.026028
 31
0.0
  0
LINE
  5
28E
  8
DETAIL
  6
CONTINUOUS
 62
     5
 10
-22.989761000000001
 20
-164.176027
 30
0.0
 11
-22.989761000000001
 21
-175.67602600000001
 31
0.0
  0
LINE
  5
28F
  8
DETAIL
  6
CONTINUOUS
 62
     5
 10
-19.989761000000001
 20
-153.950861
 30
0.0
 11
-19.989761000000001
 21
-181.02950899999999
 31
0.0
  0
ARC
  5
290
  8
DETAIL
  6
CONTINUOUS
 62
     5
 10
-25.673355000000001
 20
-174.23852600000001
 30
0.0
 40
2.3164060000000002
 50
141.64200299999999
 51
180.0
  0
LINE
  5
291
  8
DETAIL
  6
CONTINUOUS
 62
     5
 10
-22.989761000000001
 20
-185.30878000000001
 30
0.0
 11
-22.989761000000001
 21
-164.17602600000001
 31
0.0
  0
ARC
  5
292
  8
OUTLINE
  6
CONTINUOUS
 62
     3
 10
-25.673355000000001
 20
-165.61352600000001
 30
0.0
 40
2.3164060000000002
 50
180.0
 51
218.35805300000001
  0
LINE
  5
293
  8
OUTLINE
  6
CONTINUOUS
 62
     3
 10
-22.989761000000001
 20
-172.80102500000001
 30
0.0
 11
-27.489761000000001
 21
-172.80102500000001
 31
0.0
  0
ARC
  5
294
  8
OUTLINE
  6
CONTINUOUS
 62
     3
 10
-19.474136000000001
 20
-169.92602600000001
 30
0.0
 40
8.515625
 50
160.26842099999999
 51
199.73167000000001
  0
LINE
  5
295
  8
OUTLINE
  6
CONTINUOUS
 62
     3
 10
-22.989761000000001
 20
-167.05102600000001
 30
0.0
 11
-27.489761000000001
 21
-167.05102600000001
 31
0.0
  0
LINE
  5
296
  8
OUTLINE
  6
CONTINUOUS
 62
     3
 10
-27.489761000000001
 20
-164.17602600000001
 30
0.0
 11
-22.989761000000001
 21
-164.17602600000001
 31
0.0
  0
LINE
  5
297
  8
OUTLINE
  6
CONTINUOUS
 62
     3
 10
-27.989771000000001
 20
-165.02602200000001
 30
0.0
 11
-27.489771000000001
 21
-164.17602199999999
 31
0.0
  0
ARC
  5
298
  8
OUTLINE
  6
DASHED
 62
     3
 10
-12.5
 20
-167.5
 30
0.0
 40
2.5
 50
0.0
 51
5.1872239999999987
  0
ARC
  5
299
  8
OUTLINE
  6
DASHED
 62
     3
 10
-12.5
 20
-166.696091
 30
0.0
 40
2.5
 50
0.0
 51
1.435597
  0
LINE
  5
29A
  8
OUTLINE
  6
CONTINUOUS
 62
     3
 10
-19.989761000000001
 20
-168.20784699999999
 30
0.0
 11
-22.989761000000001
 21
-168.20784699999999
 31
0.0
  0
LINE
  5
29B
  8
OUTLINE
  6
CONTINUOUS
 62
     3
 10
-19.989761000000001
 20
-164.82997900000001
 30
0.0
 11
-22.989761000000001
 21
-164.82997900000001
 31
0.0
  0
ARC
  5
29C
  8
DETAIL
  6
CONTINUOUS
 62
     5
 10
-25.673355000000001
 20
-165.61352600000001
 30
0.0
 40
2.3164060000000002
 50
180.0
 51
218.35805300000001
  0
LINE
  5
29D
  8
DETAIL
  6
CONTINUOUS
 62
     5
 10
-22.989761000000001
 20
-172.80102500000001
 30
0.0
 11
-27.489761000000001
 21
-172.80102500000001
 31
0.0
  0
ARC
  5
29E
  8
DETAIL
  6
CONTINUOUS
 62
     5
 10
-19.474136000000001
 20
-169.92602600000001
 30
0.0
 40
8.515625
 50
160.26842099999999
 51
199.73167000000001
  0
LINE
  5
29F
  8
DETAIL
  6
CONTINUOUS
 62
     5
 10
-22.989761000000001
 20
-167.05102600000001
 30
0.0
 11
-27.489761000000001
 21
-167.05102600000001
 31
0.0
  0
LINE
  5
2A0
  8
DETAIL
  6
CONTINUOUS
 62
     5
 10
-27.489761000000001
 20
-164.17602600000001
 30
0.0
 11
-22.989761000000001
 21
-164.17602600000001
 31
0.0
  0
LINE
  5
2A1
  8
DETAIL
  6
CONTINUOUS
 62
     5
 10
-27.989771000000001
 20
-165.02602200000001
 30
0.0
 11
-27.489771000000001
 21
-164.17602199999999
 31
0.0
  0
ARC
  5
2A2
  8
DETAIL
  6
DASHED
 62
     5
 10
-12.5
 20
-167.5
 30
0.0
 40
2.5
 50
0.0
 51
5.1872239999999987
  0
ARC
  5
2A3
  8
DETAIL
  6
DASHED
 62
     5
 10
-12.5
 20
-166.696091
 30
0.0
 40
2.5
 50
0.0
 51
1.435597
  0
LINE
  5
2A4
  8
DETAIL
  6
CONTINUOUS
 62
     5
 10
-19.989761000000001
 20
-168.20784699999999
 30
0.0
 11
-22.989761000000001
 21
-168.20784699999999
 31
0.0
  0
LINE
  5
2A5
  8
DETAIL
  6
CONTINUOUS
 62
     5
 10
-19.989761000000001
 20
-164.82997900000001
 30
0.0
 11
-22.989761000000001
 21
-164.82997900000001
 31
0.0
  0
LINE
  5
2A6
  8
OUTLINE
  6
CONTINUOUS
 62
     3
 10
-12.489761
 20
-195.92211699999999
 30
0.0
 11
-17.489761000000001
 21
-195.92211699999999
 31
0.0
  0
LINE
  5
2A7
  8
OUTLINE
  6
CONTINUOUS
 62
     3
 10
-12.489761
 20
-196.72602599999999
 30
0.0
 11
-17.489761000000001
 21
-196.72602599999999
 31
0.0
  0
ARC
  5
2A8
  8
OUTLINE
  6
CONTINUOUS
 62
     3
 10
-12.489761
 20
-199.22602599999999
 30
0.0
 40
2.5
 50
5.1872239999999987
 51
90.0
  0
ARC
  5
2A9
  8
OUTLINE
  6
CONTINUOUS
 62
     3
 10
-12.489761
 20
-198.42211699999999
 30
0.0
 40
2.5
 50
1.435597
 51
90.0
  0
ARC
  5
2AA
  8
OUTLINE
  6
CONTINUOUS
 62
     3
 10
-17.489761000000001
 20
-193.42211699999999
 30
0.0
 40
2.5
 50
180.00000299999991
 51
270.0
  0
ARC
  5
2AB
  8
OUTLINE
  6
CONTINUOUS
 62
     3
 10
-17.489761000000001
 20
-194.22602599999999
 30
0.0
 40
2.5
 50
180.0
 51
270.0
  0
LINE
  5
2AC
  8
OUTLINE
  6
CONTINUOUS
 62
     3
 10
-19.989761000000001
 20
-185.41004000000001
 30
0.0
 11
-22.989761000000001
 21
-185.41004000000001
 31
0.0
  0
LINE
  5
2AD
  8
OUTLINE
  6
CONTINUOUS
 62
     3
 10
-27.489771000000001
 20
-175.67603099999999
 30
0.0
 11
-27.989771000000001
 21
-174.826031
 31
0.0
  0
LINE
  5
2AE
  8
OUTLINE
  6
CONTINUOUS
 62
     3
 10
-22.989761000000001
 20
-175.67602600000001
 30
0.0
 11
-27.489761000000001
 21
-175.67602600000001
 31
0.0
  0
ARC
  5
2AF
  8
OUTLINE
  6
DASHED
 62
     3
 10
-29.989761000000001
 20
-174.82602600000001
 30
0.0
 40
10.0
 50
0.0
 51
0.116247
  0
ARC
  5
2B0
  8
OUTLINE
  6
CONTINUOUS
 62
     3
 10
-25.989761000000001
 20
-178.022074
 30
0.0
 40
3.0
 50
0.0
 51
51.445520999999999
  0
LINE
  5
2B1
  8
DETAIL
  6
CONTINUOUS
 62
     5
 10
-27.489771000000001
 20
-175.67603099999999
 30
0.0
 11
-27.989771000000001
 21
-174.826031
 31
0.0
  0
LINE
  5
2B2
  8
DETAIL
  6
CONTINUOUS
 62
     5
 10
-22.989761000000001
 20
-175.67602600000001
 30
0.0
 11
-27.489761000000001
 21
-175.67602600000001
 31
0.0
  0
ARC
  5
2B3
  8
DETAIL
  6
DASHED
 62
     5
 10
-29.989761000000001
 20
-174.82602600000001
 30
0.0
 40
10.0
 50
0.0
 51
0.116247
  0
LINE
  5
2B4
  8
DETAIL
  6
CONTINUOUS
 62
     5
 10
-12.489761
 20
-195.92211699999999
 30
0.0
 11
-17.489761000000001
 21
-195.92211699999999
 31
0.0
  0
LINE
  5
2B5
  8
DETAIL
  6
CONTINUOUS
 62
     5
 10
-12.489761
 20
-196.72602599999999
 30
0.0
 11
-17.489761000000001
 21
-196.72602599999999
 31
0.0
  0
ARC
  5
2B6
  8
DETAIL
  6
CONTINUOUS
 62
     5
 10
-12.489761
 20
-199.22602599999999
 30
0.0
 40
2.5
 50
5.1872239999999987
 51
90.0
  0
ARC
  5
2B7
  8
DETAIL
  6
CONTINUOUS
 62
     5
 10
-12.489761
 20
-198.42211699999999
 30
0.0
 40
2.5
 50
1.435597
 51
90.0
  0
ARC
  5
2B8
  8
DETAIL
  6
CONTINUOUS
 62
     5
 10
-17.489761000000001
 20
-193.42211699999999
 30
0.0
 40
2.5
 50
180.00000299999991
 51
270.0
  0
ARC
  5
2B9
  8
DETAIL
  6
CONTINUOUS
 62
     5
 10
-17.489761000000001
 20
-194.22602599999999
 30
0.0
 40
2.5
 50
180.0
 51
270.0
  0
ARC
  5
2BA
  8
DETAIL
  6
CONTINUOUS
 62
     5
 10
-25.989761000000001
 20
-178.022074
 30
0.0
 40
3.0
 50
0.0
 51
51.445520999999999
  0
LINE
  5
2BB
  8
DETAIL
  6
CONTINUOUS
 62
     5
 10
-19.989761000000001
 20
-185.41004000000001
 30
0.0
 11
-22.989761000000001
 21
-185.41004000000001
 31
0.0
  0
LINE
  5
2BC
  8
OUTLINE
  6
CONTINUOUS
 62
     3
 10
-5.2000000000000002
 20
-232.80000000000001
 30
0.0
 11
-7.5
 21
-232.80000000000001
 31
0.0
  0
ARC
  5
2BD
  8
OUTLINE
  6
CONTINUOUS
 62
     3
 10
-4.4000000000000004
 20
-233.59999999999999
 30
0.0
 40
0.8
 50
180.0
 51
258.24116400000003
  0
LINE
  5
2BE
  8
OUTLINE
  6
CONTINUOUS
 62
     3
 10
-1.6000000000000001
 20
-235.0
 30
0.0
 11
-4.563034
 21
-234.38321099999999
 31
0.0
  0
LINE
  5
2BF
  8
DETAIL
  6
CONTINUOUS
 62
     5
 10
-5.2000000000000002
 20
-232.80000000000001
 30
0.0
 11
-7.5
 21
-232.80000000000001
 31
0.0
  0
ARC
  5
2C0
  8
DETAIL
  6
CONTINUOUS
 62
     5
 10
-4.4000000000000004
 20
-233.59999999999999
 30
0.0
 40
0.8
 50
180.0
 51
258.24116400000003
  0
LINE
  5
2C1
  8
DETAIL
  6
CONTINUOUS
 62
     5
 10
-1.6000000000000001
 20
-235.0
 30
0.0
 11
-4.563034
 21
-234.38321099999999
 31
0.0
  0
LINE
  5
2C6
  8
NOTE
  6
CONTINUOUS
 62
     4
 10
-60.0
 20
-185.086521
 30
0.0
 11
-20.0
 21
-185.086521
 31
0.0
  0
LINE
  5
2C7
  8
NOTE
  6
CONTINUOUS
 62
     4
 10
-40.0
 20
-205.086521
 30
0.0
 11
-40.0
 21
-165.086521
 31
0.0
  0
LINE
  5
2C8
  8
NOTE
  6
CONTINUOUS
 62
     4
 39
50.0
 10
-39.632902000000001
 20
-185.086521
 30
0.0
 11
-80.042368999999994
 21
-264.11682200000001
 31
0.0
  0
TEXT
  5
2C9
  8
NOTE
  6
CONTINUOUS
 62
     4
 10
-202.77727999999999
 20
-243.37247400000001
 30
0.0
 40
64.0
  1
EL
 41
0.9
  0
LINE
  5
2CA
  8
NOTE
  6
CONTINUOUS
 62
     4
 10
-216.40178800000001
 20
-264.11682200000001
 30
0.0
 11
-80.042368999999994
 21
-264.11682200000001
 31
0.0
  0
LINE
  5
2CB
  8
NOTE
  6
CONTINUOUS
 62
     4
 10
-65.103509999999986
 20
-215.928832
 30
0.0
 11
-39.632902000000001
 21
-185.086521
 31
0.0
  0
LINE
  5
2CC
  8
NOTE
  6
CONTINUOUS
 62
     4
 10
-39.632902000000001
 20
-185.086521
 30
0.0
 11
-46.269939999999998
 21
-224.53205
 31
0.0
  0
CIRCLE
  5
2CD
  8
ARRANGE
  6
CONTINUOUS
 62
     1
 10
0.0
 20
0.0
 30
0.0
 40
40.0
  0
POINT
  5
2CE
  8
ARRANGE
  6
CONTINUOUS
 62
     1
 10
0.0
 20
0.0
 30
0.0
  0
TEXT
  5
2DA
  8
ETC
  6
CONTINUOUS
 62
    61
 10
296.11634265877382
 20
798.12448474730081
 30
0.0
 40
40.0
  1
EF-35CSB3_4
 41
0.9
  0
TEXT
  5
2DB
  8
ETC
  6
CONTINUOUS
 62
    61
 10
352.62179150500839
 20
674.19525474730074
 30
0.0
 40
40.0
  1
EF-35CSB1
 41
0.9
  0
TEXT
  5
2DC
  8
ETC
  6
CONTINUOUS
 62
    61
 10
352.19239650500839
 20
610.98629174730081
 30
0.0
 40
40.0
  1
EF-35CTB1
 41
0.9
  0
TEXT
  5
2DD
  8
ETC
  6
CONTINUOUS
 62
    61
 10
296.11634265877382
 20
736.93857174730078
 30
0.0
 40
40.0
  1
産業扇
 41
0.9
  0
TEXT
  5
2DE
  8
ETC
  6
CONTINUOUS
 62
    61
 10
352.19239650500839
 20
550.55909504801662
 30
0.0
 40
40.0
  1
EF-35CSB3
 41
0.9
  0
TEXT
  5
2DF
  8
ETC
  6
CONTINUOUS
 62
    61
 10
352.19239650500839
 20
488.8182623873123
 30
0.0
 40
40.0
  1
EF-35CTB3
 41
0.9
  0
TEXT
  5
2E0
  8
ETC
  6
CONTINUOUS
 62
    61
 10
352.19239650500839
 20
427.0774297266081
 30
0.0
 40
40.0
  1
EF-35CTB40A5
 41
0.9
  0
ENDSEC
  0
EOF
