  0
SECTION
  2
HEADER
  9
$ACADVER
  1
AC1009
  9
$INSBASE
 10
0.0
 20
0.0
 30
0.0
  9
$EXTMIN
 10
-497.95327400000002
 20
-497.60047400000002
 30
0.0
  9
$EXTMAX
 10
1107.3242808295081
 20
564.10354602452583
 30
50.0
  9
$LIMMIN
 10
-2970.0
 20
-2100.0
  9
$LIMMAX
 10
2970.0
 20
2100.0
  9
$ORTHOMODE
 70
     1
  9
$REGENMODE
 70
     0
  9
$FILLMODE
 70
     1
  9
$QTEXTMODE
 70
     0
  9
$MIRRTEXT
 70
     0
  9
$DRAGMODE
 70
     2
  9
$LTSCALE
 40
20.0
  9
$OSMODE
 70
   161
  9
$ATTMODE
 70
     1
  9
$TEXTSIZE
 40
64.0
  9
$TRACEWID
 40
0.05
  9
$TEXTSTYLE
  7
STANDARD
  9
$CLAYER
  8
SIZE
  9
$CELTYPE
  6
CONTINUOUS
  9
$CECOLOR
 62
    30
  9
$DIMSCALE
 40
1.0
  9
$DIMASZ
 40
12.0
  9
$DIMEXO
 40
20.0
  9
$DIMDLI
 40
200.0
  9
$DIMRND
 40
0.0
  9
$DIMDLE
 40
0.0
  9
$DIMEXE
 40
20.0
  9
$DIMTP
 40
0.0
  9
$DIMTM
 40
0.0
  9
$DIMTXT
 40
64.0
  9
$DIMCEN
 40
0.09
  9
$DIMTSZ
 40
0.0
  9
$DIMTOL
 70
     0
  9
$DIMLIM
 70
     0
  9
$DIMTIH
 70
     0
  9
$DIMTOH
 70
     0
  9
$DIMSE1
 70
     0
  9
$DIMSE2
 70
     0
  9
$DIMTAD
 70
     1
  9
$DIMZIN
 70
     8
  9
$DIMBLK
  1

  9
$DIMASO
 70
     1
  9
$DIMSHO
 70
     0
  9
$DIMPOST
  1

  9
$DIMAPOST
  1

  9
$DIMALT
 70
     0
  9
$DIMALTD
 70
     2
  9
$DIMALTF
 40
25.399999999999999
  9
$DIMLFAC
 40
1.0
  9
$DIMTOFL
 70
     1
  9
$DIMTVP
 40
0.0
  9
$DIMTIX
 70
     1
  9
$DIMSOXD
 70
     0
  9
$DIMSAH
 70
     1
  9
$DIMBLK1
  1
ORIGIN
  9
$DIMBLK2
  1
ORIGIN
  9
$DIMSTYLE
  2
STANDARD
  9
$DIMCLRD
 70
     0
  9
$DIMCLRE
 70
     0
  9
$DIMCLRT
 70
     0
  9
$DIMTFAC
 40
1.0
  9
$DIMGAP
 40
25.0
  9
$LUNITS
 70
     2
  9
$LUPREC
 70
     4
  9
$SKETCHINC
 40
0.1
  9
$FILLETRAD
 40
50.0
  9
$AUNITS
 70
     1
  9
$AUPREC
 70
     3
  9
$MENU
  1
ACAD
  9
$ELEVATION
 40
0.0
  9
$PELEVATION
 40
0.0
  9
$THICKNESS
 40
50.0
  9
$LIMCHECK
 70
     0
  9
$BLIPMODE
 70
     0
  9
$CHAMFERA
 40
0.0
  9
$CHAMFERB
 40
0.0
  9
$SKPOLY
 70
     0
  9
$TDCREATE
 40
2452310.4493174758
  9
$TDUPDATE
 40
2453476.9684109138
  9
$TDINDWG
 40
0.0803521181
  9
$TDUSRTIMER
 40
0.0803517593
  9
$USRTIMER
 70
     1
  9
$ANGBASE
 50
0.0
  9
$ANGDIR
 70
     0
  9
$PDMODE
 70
     3
  9
$PDSIZE
 40
-2.0
  9
$PLINEWID
 40
0.0
  9
$COORDS
 70
     2
  9
$SPLFRAME
 70
     0
  9
$SPLINETYPE
 70
     6
  9
$SPLINESEGS
 70
     8
  9
$ATTDIA
 70
     0
  9
$ATTREQ
 70
     1
  9
$HANDLING
 70
 22529
  9
$HANDSEED
  5
2AC
  9
$SURFTAB1
 70
     6
  9
$SURFTAB2
 70
     6
  9
$SURFTYPE
 70
     6
  9
$SURFU
 70
     6
  9
$SURFV
 70
     6
  9
$UCSNAME
  2

  9
$UCSORG
 10
0.0
 20
0.0
 30
0.0
  9
$UCSXDIR
 10
1.0
 20
0.0
 30
0.0
  9
$UCSYDIR
 10
0.0
 20
1.0
 30
0.0
  9
$PUCSNAME
  2

  9
$PUCSORG
 10
0.0
 20
0.0
 30
0.0
  9
$PUCSXDIR
 10
1.0
 20
0.0
 30
0.0
  9
$PUCSYDIR
 10
0.0
 20
1.0
 30
0.0
  9
$USERI1
 70
     0
  9
$USERI2
 70
     0
  9
$USERI3
 70
     0
  9
$USERI4
 70
     0
  9
$USERI5
 70
     0
  9
$USERR1
 40
20.0
  9
$USERR2
 40
0.0
  9
$USERR3
 40
0.0
  9
$USERR4
 40
0.0
  9
$USERR5
 40
0.0
  9
$WORLDVIEW
 70
     1
  9
$SHADEDGE
 70
     3
  9
$SHADEDIF
 70
    70
  9
$TILEMODE
 70
     1
  9
$MAXACTVP
 70
    64
  9
$PLIMCHECK
 70
     0
  9
$PEXTMIN
 10
1.0000000000000000E+020
 20
1.0000000000000000E+020
 30
1.0000000000000000E+020
  9
$PEXTMAX
 10
-1.0000000000000000E+020
 20
-1.0000000000000000E+020
 30
-1.0000000000000000E+020
  9
$PLIMMIN
 10
0.0
 20
0.0
  9
$PLIMMAX
 10
12.0
 20
9.0
  9
$UNITMODE
 70
     0
  9
$VISRETAIN
 70
     1
  9
$PLINEGEN
 70
     0
  9
$PSLTSCALE
 70
     1
  0
ENDSEC
  0
SECTION
  2
TABLES
  0
TABLE
  2
VPORT
 70
     3
  0
VPORT
  2
*ACTIVE
 70
     0
 10
0.0
 20
0.0
 11
1.0
 21
1.0
 12
101.6547393868686
 22
-21.32579478062587
 13
0.0
 23
0.0
 14
1.0
 24
1.0
 15
0.0
 25
0.0
 16
0.0
 26
0.0
 36
1.0
 17
0.0
 27
0.0
 37
0.0
 40
1445.7782140040781
 41
1.4423558897243101
 42
50.0
 43
0.0
 44
0.0
 50
0.0
 51
0.0
 71
     0
 72
   100
 73
     1
 74
     0
 75
     0
 76
     0
 77
     0
 78
     1
  0
ENDTAB
  0
TABLE
  2
LTYPE
 70
     2
  0
LTYPE
  2
CONTINUOUS
 70
     0
  3
実線
 72
    65
 73
     0
 40
0.0
  0
LTYPE
  2
DASHDOT
 70
     0
  3
____ _ ____ _ ____ _ ____ _ ____ _ ____ _ ____
 72
    65
 73
     4
 40
5.5
 49
4.0
 49
-0.6
 49
0.3
 49
-0.6
  0
ENDTAB
  0
TABLE
  2
LAYER
 70
    12
  0
LAYER
  2
0
 70
     0
 62
     7
  6
CONTINUOUS
  0
LAYER
  2
SIZE
 70
     0
 62
    30
  6
CONTINUOUS
  0
LAYER
  2
BASIS
 70
     0
 62
     6
  6
DASHDOT
  0
LAYER
  2
OUTLINE
 70
     0
 62
     3
  6
CONTINUOUS
  0
LAYER
  2
DETAIL
 70
     0
 62
     5
  6
CONTINUOUS
  0
LAYER
  2
ARRANGE
 70
     0
 62
     1
  6
CONTINUOUS
  0
LAYER
  2
DEFPOINTS
 70
     0
 62
     7
  6
CONTINUOUS
  0
LAYER
  2
ETC
 70
     0
 62
    61
  6
CONTINUOUS
  0
LAYER
  2
FIX
 70
     0
 62
    11
  6
CONTINUOUS
  0
LAYER
  2
NOTE
 70
     0
 62
     4
  6
CONTINUOUS
  0
LAYER
  2
SERVICESPACE
 70
     0
 62
     2
  6
DASHDOT
  0
LAYER
  2
SYMBOLLINE
 70
     0
 62
    15
  6
CONTINUOUS
  0
ENDTAB
  0
TABLE
  2
STYLE
 70
     1
  0
STYLE
  2
STANDARD
 70
     0
 40
64.0
 41
0.9
 50
0.0
 71
     0
 42
64.0
  3
SIMPLEX.shx
  4
BIGFONT.shx
  0
ENDTAB
  0
TABLE
  2
VIEW
 70
     1
  0
VIEW
  2
ALL
 70
     0
 40
4282.6198079999976
 10
0.0
 20
41.309903999999989
 41
5940.0
 11
0.0
 21
0.0
 31
1.0
 12
0.0
 22
0.0
 32
0.0
 42
50.0
 43
0.0
 44
0.0
 50
0.0
 71
     0
  0
ENDTAB
  0
TABLE
  2
UCS
 70
     0
  0
ENDTAB
  0
TABLE
  2
APPID
 70
     1
  0
APPID
  2
ACAD
 70
     0
  0
ENDTAB
  0
TABLE
  2
DIMSTYLE
 70
     1
  0
DIMSTYLE
  2
STANDARD
 70
     0
  3

  4

  5

  6

  7

 40
1.0
 41
0.18
 42
0.0625
 43
0.38
 44
0.18
 45
0.0
 46
0.0
 47
0.0
 48
0.0
140
0.18
141
0.09
142
0.0
143
25.399999999999999
144
1.0
145
0.0
146
1.0
147
0.09
 71
     0
 72
     0
 73
     1
 74
     1
 75
     0
 76
     0
 77
     0
 78
     0
170
     0
171
     2
172
     0
173
     0
174
     0
175
     0
176
     0
177
     0
178
     0
  0
ENDTAB
  0
ENDSEC
  0
SECTION
  2
BLOCKS
  0
BLOCK
  8
0
  2
$MODEL_SPACE
 70
     0
 10
0.0
 20
0.0
 30
0.0
  3
$MODEL_SPACE
  1

  0
ENDBLK
  5
173
  8
0
  0
BLOCK
 67
     1
  8
0
  2
$PAPER_SPACE
 70
     0
 10
0.0
 20
0.0
 30
0.0
  3
$PAPER_SPACE
  1

  0
ENDBLK
  5
16F
 67
     1
  8
0
  0
BLOCK
  8
0
  2
DOT1
 70
     0
 10
0.0
 20
0.0
 30
0.0
  3
DOT1
  1

  0
CIRCLE
  5
18E
  8
SIZE
  6
CONTINUOUS
 62
     7
 10
0.0
 20
0.0
 30
0.0
 40
3.0
  0
ENDBLK
  5
18F
  8
0
  0
BLOCK
  8
0
  2
_ORIGIN
 70
     0
 10
0.0
 20
0.0
 30
0.0
  3
_ORIGIN
  1

  0
CIRCLE
  5
192
  8
0
  6
CONTINUOUS
 62
     7
 10
0.0
 20
0.0
 30
0.0
 40
0.5
  0
LINE
  5
193
  8
0
  6
CONTINUOUS
 62
     7
 10
0.0
 20
0.0
 30
0.0
 11
-1.0
 21
0.0
 31
0.0
  0
ENDBLK
  5
194
  8
0
  0
BLOCK
  8
0
 62
    30
  2
*D4
 70
     1
 10
0.0
 20
0.0
 30
0.0
  3
*D4
  1

  0
LINE
  5
197
  8
SIZE
  6
CONTINUOUS
 62
     0
 10
-235.0
 20
20.0
 30
0.0
 11
-234.9999999999998
 21
302.1710913972633
 31
0.0
  0
LINE
  5
198
  8
SIZE
  6
CONTINUOUS
 62
     0
 10
235.0
 20
19.999999999999961
 30
0.0
 11
235.0
 21
302.1710913972633
 31
0.0
  0
LINE
  5
199
  8
SIZE
  6
CONTINUOUS
 62
     0
 10
-222.99999999999989
 20
282.1710913972633
 30
0.0
 11
223.0
 21
282.1710913972633
 31
0.0
  0
INSERT
  5
19A
  8
SIZE
  6
CONTINUOUS
 62
     0
  2
_ORIGIN
 10
-234.9999999999998
 20
282.1710913972633
 30
0.0
 41
12.0
 42
12.0
 43
12.0
 50
180.0
  0
INSERT
  5
19B
  8
SIZE
  6
CONTINUOUS
 62
     0
  2
_ORIGIN
 10
235.0
 20
282.1710913972633
 30
0.0
 41
12.0
 42
12.0
 43
12.0
  0
TEXT
  5
19C
  8
SIZE
  6
CONTINUOUS
 62
     0
 10
-74.057142857142807
 20
307.1710913972633
 30
0.0
 40
64.0
  1
470
 41
0.9
  0
POINT
  5
19D
  8
DEFPOINTS
  6
CONTINUOUS
 62
     0
 10
-235.0
 20
0.0
 30
0.0
  0
POINT
  5
19E
  8
DEFPOINTS
  6
CONTINUOUS
 62
     0
 10
235.0
 20
-0.0000000000000283
 30
0.0
  0
POINT
  5
19F
  8
DEFPOINTS
  6
CONTINUOUS
 62
     0
 10
235.0
 20
282.1710913972633
 30
0.0
  0
ENDBLK
  5
1A0
  8
0
 62
    30
  0
ENDSEC
  0
SECTION
  2
ENTITIES
  0
LINE
  5
1A1
  8
DETAIL
  6
CONTINUOUS
 62
     5
 10
235.0
 20
0.0
 30
0.0
 11
-235.0
 21
-0.0000000000000283
 31
0.0
  0
LINE
  5
1A2
  8
BASIS
  6
DASHDOT
 62
     6
 10
0.0
 20
75.692600999999982
 30
0.0
 11
0.0
 21
-252.37314599999999
 31
0.0
  0
LINE
  5
1A3
  8
DETAIL
  6
CONTINUOUS
 62
     5
 10
-207.5
 20
-67.0
 30
0.0
 11
-207.5
 21
-70.0
 31
0.0
  0
LINE
  5
1A4
  8
DETAIL
  6
CONTINUOUS
 62
     5
 10
149.5
 20
-161.0
 30
0.0
 11
54.420499999999997
 21
-161.0
 31
0.0
  0
TEXT
  5
1A5
  8
NOTE
  6
CONTINUOUS
 62
     4
 10
340.08116200000001
 20
170.615106
 30
0.0
 40
64.0
  1
4-φ12
 41
0.9
  0
LINE
  5
1A6
  8
NOTE
  6
CONTINUOUS
 62
     4
 10
324.11674900000003
 20
143.188154
 30
0.0
 11
635.82496800000001
 21
143.188154
 31
0.0
  0
LINE
  5
1A7
  8
NOTE
  6
CONTINUOUS
 62
     4
 10
217.0
 20
-10.0
 30
0.0
 11
324.11674900000003
 21
143.188154
 31
0.0
  0
LINE
  5
1A8
  8
NOTE
  6
CONTINUOUS
 62
     4
 10
230.35871
 20
27.703379999999999
 30
0.0
 11
217.0
 21
-10.0
 31
0.0
  0
LINE
  5
1A9
  8
NOTE
  6
CONTINUOUS
 62
     4
 10
217.0
 20
-10.0
 30
0.0
 11
247.42067299999999
 21
15.97272999999999
 31
0.0
  0
LINE
  5
1AA
  8
DETAIL
  6
CONTINUOUS
 62
     5
 10
210.49999999999989
 20
-20.0
 30
0.0
 11
210.49999999999989
 21
-10.0
 31
0.0
  0
LINE
  5
1AB
  8
DETAIL
  6
CONTINUOUS
 62
     5
 10
-210.49999999999989
 20
-20.0
 30
0.0
 11
-210.49999999999989
 21
-10.0
 31
0.0
  0
LINE
  5
1AC
  8
SIZE
  6
CONTINUOUS
 62
    30
 10
-253.5
 20
0.0
 30
0.0
 11
-373.564278
 21
0.0
 31
0.0
  0
LINE
  5
1AD
  8
SIZE
  6
CONTINUOUS
 62
    30
 10
-253.5
 20
-10.0
 30
0.0
 11
-373.564278
 21
-10.0
 31
0.0
  0
LINE
  5
1AE
  8
SIZE
  6
CONTINUOUS
 62
    30
 10
-353.56427799999977
 20
12.0
 30
0.0
 11
-353.56427799999977
 21
24.0
 31
0.0
  0
LINE
  5
1AF
  8
SIZE
  6
CONTINUOUS
 62
    30
 10
-353.56427799999977
 20
-22.0
 30
0.0
 11
-353.56427799999977
 21
-34.0
 31
0.0
  0
LINE
  5
1B0
  8
SIZE
  6
CONTINUOUS
 62
    30
 10
-353.56427799999977
 20
157.02845899999991
 30
0.0
 11
-353.56427799999977
 21
0.0
 31
0.0
  0
TEXT
  5
1B1
  8
SIZE
  6
CONTINUOUS
 62
    30
 10
-378.56427799999989
 20
49.74274485714286
 30
0.0
 40
64.0
  1
10
 50
90.0
 41
0.9
 72
     1
 11
-378.56427799999989
 21
90.885602000000006
 31
0.0
  0
LINE
  5
1B2
  8
SIZE
  6
CONTINUOUS
 62
    30
 10
-353.56427799999977
 20
0.0
 30
0.0
 11
-353.56427799999977
 21
-10.0
 31
0.0
  0
LINE
  5
1B3
  8
SIZE
  6
CONTINUOUS
 62
    30
 10
-353.56427799999977
 20
0.0
 30
0.0
 11
-353.56427799999977
 21
-10.0
 31
0.0
  0
CIRCLE
  5
1B4
  8
SIZE
  6
CONTINUOUS
 62
    30
 10
-353.56427799999977
 20
0.0
 30
0.0
 40
6.0
  0
LINE
  5
1B5
  8
SIZE
  6
CONTINUOUS
 62
    30
 10
-353.56427799999977
 20
0.0
 30
0.0
 11
-353.56427799999977
 21
12.0
 31
0.0
  0
CIRCLE
  5
1B6
  8
SIZE
  6
CONTINUOUS
 62
    30
 10
-353.56427799999977
 20
-10.0
 30
0.0
 40
6.0
  0
LINE
  5
1B7
  8
SIZE
  6
CONTINUOUS
 62
    30
 10
-353.56427799999977
 20
-10.0
 30
0.0
 11
-353.56427799999977
 21
-22.0
 31
0.0
  0
POINT
  5
1B8
  8
DEFPOINTS
  6
CONTINUOUS
 62
    30
 10
-353.56427799999977
 20
-10.0
 30
0.0
  0
LINE
  5
1B9
  8
SIZE
  6
CONTINUOUS
 62
    30
 10
-255.0
 20
-10.0
 30
0.0
 11
-373.564278
 21
-10.0
 31
0.0
  0
LINE
  5
1BA
  8
SIZE
  6
CONTINUOUS
 62
    30
 10
-230.5
 20
-20.0
 30
0.0
 11
-373.564278
 21
-20.0
 31
0.0
  0
LINE
  5
1BB
  8
SIZE
  6
CONTINUOUS
 62
    30
 10
-353.56427799999977
 20
2.0
 30
0.0
 11
-353.56427799999977
 21
14.0
 31
0.0
  0
LINE
  5
1BC
  8
SIZE
  6
CONTINUOUS
 62
    30
 10
-353.56427799999977
 20
-32.0
 30
0.0
 11
-353.56427799999977
 21
-44.0
 31
0.0
  0
LINE
  5
1BD
  8
SIZE
  6
CONTINUOUS
 62
    30
 10
-353.56427799999977
 20
-182.74230800000001
 30
0.0
 11
-353.56427799999977
 21
-20.0
 31
0.0
  0
TEXT
  5
1BE
  8
SIZE
  6
CONTINUOUS
 62
    30
 10
-378.56427799999989
 20
-157.74230814285701
 30
0.0
 40
64.0
  1
10
 50
90.0
 41
0.9
 72
     1
 11
-378.56427799999989
 21
-116.5994509999999
 31
0.0
  0
LINE
  5
1BF
  8
SIZE
  6
CONTINUOUS
 62
    30
 10
-353.56427799999977
 20
-10.0
 30
0.0
 11
-353.56427799999977
 21
-20.0
 31
0.0
  0
LINE
  5
1C0
  8
SIZE
  6
CONTINUOUS
 62
    30
 10
-353.56427799999977
 20
-10.0
 30
0.0
 11
-353.56427799999977
 21
-20.0
 31
0.0
  0
CIRCLE
  5
1C1
  8
SIZE
  6
CONTINUOUS
 62
    30
 10
-353.56427799999977
 20
-10.0
 30
0.0
 40
6.0
  0
LINE
  5
1C2
  8
SIZE
  6
CONTINUOUS
 62
    30
 10
-353.56427799999977
 20
-10.0
 30
0.0
 11
-353.56427799999977
 21
2.0
 31
0.0
  0
CIRCLE
  5
1C3
  8
SIZE
  6
CONTINUOUS
 62
    30
 10
-353.56427799999977
 20
-20.0
 30
0.0
 40
6.0
  0
LINE
  5
1C4
  8
SIZE
  6
CONTINUOUS
 62
    30
 10
-353.56427799999977
 20
-20.0
 30
0.0
 11
-353.56427799999977
 21
-32.0
 31
0.0
  0
POINT
  5
1C5
  8
DEFPOINTS
  6
CONTINUOUS
 62
    30
 10
-353.56427799999977
 20
-20.0
 30
0.0
  0
LINE
  5
1C6
  8
DETAIL
  6
CONTINUOUS
 62
     5
 10
235.0
 20
-10.0
 30
0.0
 11
-234.9999999999998
 21
-10.0
 31
0.0
  0
LINE
  5
1C7
  8
DETAIL
  6
CONTINUOUS
 62
     5
 10
210.49999999999989
 20
-20.0
 30
0.0
 11
-210.49999999999989
 21
-20.0
 31
0.0
  0
LINE
  5
1C8
  8
DETAIL
  6
CONTINUOUS
 62
     5
 10
-54.420499999999997
 20
-161.0
 30
0.0
 11
-149.5
 21
-161.0
 31
0.0
  0
LINE
  5
1C9
  8
DETAIL
  6
CONTINUOUS
 62
     5
 10
-54.420499999999997
 20
-161.0
 30
0.0
 11
-54.420499999999997
 21
-136.0
 31
0.0
  0
LINE
  5
1CA
  8
DETAIL
  6
CONTINUOUS
 62
     5
 10
134.4999999999998
 20
-136.0
 30
0.0
 11
67.5
 21
-136.0
 31
0.0
  0
LINE
  5
1CB
  8
DETAIL
  6
CONTINUOUS
 62
     5
 10
184.4999999999998
 20
-70.0
 30
0.0
 11
-184.4999999999998
 21
-70.0
 31
0.0
  0
LINE
  5
1CC
  8
SIZE
  6
CONTINUOUS
 62
    30
 10
253.5
 20
0.0
 30
0.0
 11
603.413411
 21
0.0
 31
0.0
  0
LINE
  5
1CD
  8
SIZE
  6
CONTINUOUS
 62
    30
 10
60.25
 20
-179.0
 30
0.0
 11
603.413411
 21
-179.0
 31
0.0
  0
LINE
  5
1CE
  8
SIZE
  6
CONTINUOUS
 62
    30
 10
583.41341099999988
 20
-12.0
 30
0.0
 11
583.41341099999988
 21
-167.0
 31
0.0
  0
LINE
  5
1CF
  8
SIZE
  6
CONTINUOUS
 62
    30
 10
583.41341099999988
 20
-393.21292899999992
 30
0.0
 11
583.41341099999988
 21
-179.0
 31
0.0
  0
TEXT
  5
1D0
  8
SIZE
  6
CONTINUOUS
 62
    30
 10
558.41341099999988
 20
-368.21292899999992
 30
0.0
 40
64.0
  1
179
 50
90.0
 41
0.9
 72
     1
 11
558.41341099999988
 21
-301.01292899999999
 31
0.0
  0
CIRCLE
  5
1D1
  8
SIZE
  6
CONTINUOUS
 62
    30
 10
583.41341099999988
 20
0.0
 30
0.0
 40
6.0
  0
LINE
  5
1D2
  8
SIZE
  6
CONTINUOUS
 62
    30
 10
583.41341099999988
 20
0.0
 30
0.0
 11
583.41341099999988
 21
-12.0
 31
0.0
  0
CIRCLE
  5
1D3
  8
SIZE
  6
CONTINUOUS
 62
    30
 10
583.41341099999988
 20
-179.0
 30
0.0
 40
6.0
  0
LINE
  5
1D4
  8
SIZE
  6
CONTINUOUS
 62
    30
 10
583.41341099999988
 20
-179.0
 30
0.0
 11
583.41341099999988
 21
-167.0
 31
0.0
  0
POINT
  5
1D5
  8
DEFPOINTS
  6
CONTINUOUS
 62
    30
 10
583.41341099999988
 20
-179.0
 30
0.0
  0
LINE
  5
1D6
  8
DETAIL
  6
CONTINUOUS
 62
     5
 10
-67.5
 20
-136.0
 30
0.0
 11
67.5
 21
-136.0
 31
0.0
  0
LINE
  5
1D7
  8
DETAIL
  6
CONTINUOUS
 62
     5
 10
-204.49999999999989
 20
-20.0
 30
0.0
 11
-204.49999999999989
 21
-106.0
 31
0.0
  0
LINE
  5
1D8
  8
DETAIL
  6
CONTINUOUS
 62
     5
 10
-184.4999999999998
 20
-20.0
 30
0.0
 11
-184.49999999999989
 21
-86.0
 31
0.0
  0
ARC
  5
1D9
  8
DETAIL
  6
CONTINUOUS
 62
     5
 10
-149.5
 20
-106.0
 30
0.0
 40
55.0
 50
180.0
 51
270.0
  0
LINE
  5
1DA
  8
DETAIL
  6
CONTINUOUS
 62
     5
 10
184.4999999999998
 20
-67.0
 30
0.0
 11
-184.4999999999998
 21
-67.0
 31
0.0
  0
LINE
  5
1DB
  8
DETAIL
  6
CONTINUOUS
 62
     5
 10
-204.49999999999989
 20
-70.0
 30
0.0
 11
-207.5
 21
-70.0
 31
0.0
  0
LINE
  5
1DC
  8
DETAIL
  6
CONTINUOUS
 62
     5
 10
-204.49999999999989
 20
-67.0
 30
0.0
 11
-207.5
 21
-67.0
 31
0.0
  0
LINE
  5
1DD
  8
DETAIL
  6
CONTINUOUS
 62
     5
 10
184.4999999999998
 20
-20.0
 30
0.0
 11
184.4999999999998
 21
-86.0
 31
0.0
  0
LINE
  5
1DE
  8
DETAIL
  6
CONTINUOUS
 62
     5
 10
204.49999999999989
 20
-106.0
 30
0.0
 11
204.49999999999989
 21
-20.0
 31
0.0
  0
ARC
  5
1DF
  8
DETAIL
  6
CONTINUOUS
 62
     5
 10
149.5
 20
-106.0
 30
0.0
 40
55.0
 50
270.0
 51
0.0
  0
LINE
  5
1E0
  8
DETAIL
  6
CONTINUOUS
 62
     5
 10
204.49999999999989
 20
-70.0
 30
0.0
 11
207.5
 21
-70.0
 31
0.0
  0
LINE
  5
1E1
  8
DETAIL
  6
CONTINUOUS
 62
     5
 10
204.49999999999989
 20
-67.0
 30
0.0
 11
207.5
 21
-67.0
 31
0.0
  0
LINE
  5
1E2
  8
DETAIL
  6
CONTINUOUS
 62
     5
 10
207.5
 20
-67.0
 30
0.0
 11
207.5
 21
-70.0
 31
0.0
  0
LINE
  5
1E3
  8
SIZE
  6
CONTINUOUS
 62
    30
 10
253.5
 20
0.0
 30
0.0
 11
486.24706799999979
 21
0.0
 31
0.0
  0
LINE
  5
1E4
  8
SIZE
  6
CONTINUOUS
 62
    30
 10
227.49999999999989
 20
-70.0
 30
0.0
 11
486.24706799999979
 21
-70.0
 31
0.0
  0
LINE
  5
1E5
  8
SIZE
  6
CONTINUOUS
 62
    30
 10
466.24706799999979
 20
12.0
 30
0.0
 11
466.24706799999979
 21
24.0
 31
0.0
  0
LINE
  5
1E6
  8
SIZE
  6
CONTINUOUS
 62
    30
 10
466.24706799999979
 20
-82.0
 30
0.0
 11
466.24706799999979
 21
-94.0
 31
0.0
  0
LINE
  5
1E7
  8
SIZE
  6
CONTINUOUS
 62
    30
 10
466.24706799999979
 20
-354.10185899999999
 30
0.0
 11
466.24706799999979
 21
-70.0
 31
0.0
  0
TEXT
  5
1E8
  8
SIZE
  6
CONTINUOUS
 62
    30
 10
441.24706799999979
 20
-329.10185942857129
 30
0.0
 40
64.0
  1
70
 50
90.0
 41
0.9
 72
     1
 11
441.24706799999979
 21
-282.47328799999991
 31
0.0
  0
LINE
  5
1E9
  8
SIZE
  6
CONTINUOUS
 62
    30
 10
466.24706799999979
 20
0.0
 30
0.0
 11
466.24706799999979
 21
-70.0
 31
0.0
  0
LINE
  5
1EA
  8
SIZE
  6
CONTINUOUS
 62
    30
 10
466.24706799999979
 20
0.0
 30
0.0
 11
466.24706799999979
 21
-70.0
 31
0.0
  0
CIRCLE
  5
1EB
  8
SIZE
  6
CONTINUOUS
 62
    30
 10
466.24706799999979
 20
0.0
 30
0.0
 40
6.0
  0
LINE
  5
1EC
  8
SIZE
  6
CONTINUOUS
 62
    30
 10
466.24706799999979
 20
0.0
 30
0.0
 11
466.24706799999979
 21
12.0
 31
0.0
  0
CIRCLE
  5
1ED
  8
SIZE
  6
CONTINUOUS
 62
    30
 10
466.24706799999979
 20
-70.0
 30
0.0
 40
6.0
  0
LINE
  5
1EE
  8
SIZE
  6
CONTINUOUS
 62
    30
 10
466.24706799999979
 20
-70.0
 30
0.0
 11
466.24706799999979
 21
-82.0
 31
0.0
  0
POINT
  5
1EF
  8
DEFPOINTS
  6
CONTINUOUS
 62
    30
 10
466.24706799999979
 20
-70.0
 30
0.0
  0
LINE
  5
1F0
  8
SIZE
  6
CONTINUOUS
 62
    30
 10
217.0
 20
30.0
 30
0.0
 11
217.0
 21
186.1009169999999
 31
0.0
  0
LINE
  5
1F1
  8
SIZE
  6
CONTINUOUS
 62
    30
 10
-217.0
 20
30.0
 30
0.0
 11
-217.0
 21
186.1009169999999
 31
0.0
  0
LINE
  5
1F2
  8
SIZE
  6
CONTINUOUS
 62
    30
 10
205.0
 20
166.10091699999981
 30
0.0
 11
-205.0
 21
166.10091699999981
 31
0.0
  0
CIRCLE
  5
1F3
  8
SIZE
  6
CONTINUOUS
 62
    30
 10
217.0
 20
166.10091699999981
 30
0.0
 40
6.0
  0
LINE
  5
1F4
  8
SIZE
  6
CONTINUOUS
 62
    30
 10
217.0
 20
166.10091699999981
 30
0.0
 11
205.0
 21
166.10091699999981
 31
0.0
  0
CIRCLE
  5
1F5
  8
SIZE
  6
CONTINUOUS
 62
    30
 10
-217.0
 20
166.10091699999981
 30
0.0
 40
6.0
  0
LINE
  5
1F6
  8
SIZE
  6
CONTINUOUS
 62
    30
 10
-217.0
 20
166.10091699999981
 30
0.0
 11
-205.0
 21
166.10091699999981
 31
0.0
  0
TEXT
  5
1F7
  8
SIZE
  6
CONTINUOUS
 62
    30
 10
-75.428571428571416
 20
191.1009169999999
 30
0.0
 40
64.0
  1
434
 41
0.9
 72
     1
 11
0.0
 21
191.1009169999999
 31
0.0
  0
POINT
  5
1F8
  8
DEFPOINTS
  6
CONTINUOUS
 62
    30
 10
-217.0
 20
166.10091699999981
 30
0.0
  0
LINE
  5
1F9
  8
NOTE
  6
CONTINUOUS
 62
     4
 10
-217.0
 20
-30.0
 30
0.0
 11
-217.0
 21
10.0
 31
0.0
  0
LINE
  5
1FA
  8
NOTE
  6
CONTINUOUS
 62
     4
 10
-237.0
 20
-10.0
 30
0.0
 11
-197.0
 21
-10.0
 31
0.0
  0
LINE
  5
1FB
  8
NOTE
  6
CONTINUOUS
 62
     4
 10
217.0
 20
-30.0
 30
0.0
 11
217.0
 21
10.0
 31
0.0
  0
LINE
  5
1FC
  8
NOTE
  6
CONTINUOUS
 62
     4
 10
197.0
 20
-10.0
 30
0.0
 11
237.0
 21
-10.0
 31
0.0
  0
POINT
  5
1FD
  8
ARRANGE
  6
CONTINUOUS
 62
     1
 10
0.0
 20
0.0
 30
0.0
  0
CIRCLE
  5
1FE
  8
ARRANGE
  6
CONTINUOUS
 62
     1
 10
0.0
 20
0.0
 30
0.0
 40
40.0
  0
ARC
  5
1FF
  8
DETAIL
  6
CONTINUOUS
 62
     5
 10
134.4999999999998
 20
-86.0
 30
0.0
 40
50.0
 50
270.0
 51
0.0
  0
LINE
  5
200
  8
DETAIL
  6
CONTINUOUS
 62
     5
 10
65.0
 20
-171.0
 30
0.0
 11
-65.0
 21
-171.0
 31
0.0
  0
LINE
  5
201
  8
DETAIL
  6
CONTINUOUS
 62
     5
 10
65.0
 20
-161.0
 30
0.0
 11
65.0
 21
-171.0
 31
0.0
  0
LINE
  5
202
  8
DETAIL
  6
CONTINUOUS
 62
     5
 10
-65.0
 20
-161.0
 30
0.0
 11
-65.0
 21
-171.0
 31
0.0
  0
LINE
  5
203
  8
NOTE
  6
CONTINUOUS
 62
     4
 10
134.5913239999999
 20
13.133839
 30
0.0
 11
157.0
 21
-20.0
 31
0.0
  0
LINE
  5
204
  8
NOTE
  6
CONTINUOUS
 62
     4
 10
157.0
 20
-20.0
 30
0.0
 11
154.1604369999998
 21
19.899083999999998
 31
0.0
  0
LINE
  5
205
  8
NOTE
  6
CONTINUOUS
 62
     4
 10
157.0
 20
-20.0
 30
0.0
 11
128.57389599999991
 21
65.250226999999995
 31
0.0
  0
LINE
  5
206
  8
NOTE
  6
CONTINUOUS
 62
     4
 10
177.0
 20
-20.0
 30
0.0
 11
137.0
 21
-20.0
 31
0.0
  0
LINE
  5
207
  8
NOTE
  6
CONTINUOUS
 62
     4
 10
157.0
 20
-40.0
 30
0.0
 11
157.0
 21
0.0
 31
0.0
  0
LINE
  5
208
  8
NOTE
  6
CONTINUOUS
 62
     4
 10
30.249745999999998
 20
65.250226999999995
 30
0.0
 11
128.57389599999991
 21
65.250226999999995
 31
0.0
  0
TEXT
  5
209
  8
NOTE
  6
CONTINUOUS
 62
     4
 10
50.217498999999989
 20
81.351922999999985
 30
0.0
 40
50.706637000000001
  1
EL
 41
0.9
  0
LINE
  5
20A
  8
SIZE
  6
CONTINUOUS
 62
    30
 10
-207.5
 20
-90.0
 30
0.0
 11
-207.5
 21
-497.60047400000002
 31
0.0
  0
LINE
  5
20B
  8
SIZE
  6
CONTINUOUS
 62
    30
 10
207.5
 20
-90.0
 30
0.0
 11
207.5
 21
-497.60047400000002
 31
0.0
  0
LINE
  5
20C
  8
SIZE
  6
CONTINUOUS
 62
    30
 10
-195.5
 20
-477.60047400000002
 30
0.0
 11
195.5
 21
-477.60047400000002
 31
0.0
  0
CIRCLE
  5
20D
  8
SIZE
  6
CONTINUOUS
 62
    30
 10
-207.5
 20
-477.60047400000002
 30
0.0
 40
6.0
  0
LINE
  5
20E
  8
SIZE
  6
CONTINUOUS
 62
    30
 10
-207.5
 20
-477.60047400000002
 30
0.0
 11
-195.5
 21
-477.60047400000002
 31
0.0
  0
CIRCLE
  5
20F
  8
SIZE
  6
CONTINUOUS
 62
    30
 10
207.5
 20
-477.60047400000002
 30
0.0
 40
6.0
  0
LINE
  5
210
  8
SIZE
  6
CONTINUOUS
 62
    30
 10
207.5
 20
-477.60047400000002
 30
0.0
 11
195.5
 21
-477.60047400000002
 31
0.0
  0
TEXT
  5
211
  8
SIZE
  6
CONTINUOUS
 62
    30
 10
-108.89142857142851
 20
-452.60047400000002
 30
0.0
 40
64.0
  1
φ415
 41
0.9
 72
     1
 11
0.0
 21
-452.60047400000002
 31
0.0
  0
POINT
  5
212
  8
DEFPOINTS
  6
CONTINUOUS
 62
    30
 10
207.5
 20
-477.60047400000002
 30
0.0
  0
LINE
  5
213
  8
DETAIL
  6
CONTINUOUS
 62
     5
 10
40.25
 20
-179.0
 30
0.0
 11
-40.25
 21
-179.0
 31
0.0
  0
ARC
  5
214
  8
DETAIL
  6
CONTINUOUS
 62
     5
 10
-40.25
 20
-171.0
 30
0.0
 40
8.0
 50
180.0
 51
270.0
  0
ARC
  5
215
  8
DETAIL
  6
CONTINUOUS
 62
     5
 10
40.25
 20
-171.0
 30
0.0
 40
8.0
 50
270.0
 51
0.0
  0
LINE
  5
216
  8
SIZE
  6
CONTINUOUS
 62
    30
 10
-48.25
 20
-191.0
 30
0.0
 11
-48.25
 21
-346.70211699999982
 31
0.0
  0
LINE
  5
217
  8
SIZE
  6
CONTINUOUS
 62
    30
 10
48.25
 20
-191.0
 30
0.0
 11
48.25
 21
-346.70211699999982
 31
0.0
  0
LINE
  5
218
  8
SIZE
  6
CONTINUOUS
 62
    30
 10
-36.25
 20
-326.70211699999999
 30
0.0
 11
36.25
 21
-326.70211699999999
 31
0.0
  0
LINE
  5
219
  8
SIZE
  6
CONTINUOUS
 62
    30
 10
-497.95327400000002
 20
-326.70211699999999
 30
0.0
 11
-48.25
 21
-326.70211699999999
 31
0.0
  0
TEXT
  5
21A
  8
SIZE
  6
CONTINUOUS
 62
    30
 10
-487.21613157142838
 20
-301.70211699999999
 30
0.0
 40
64.0
  1
φ96.5
 41
0.9
 72
     1
 11
-359.12470299999978
 21
-301.70211699999999
 31
0.0
  0
CIRCLE
  5
21B
  8
SIZE
  6
CONTINUOUS
 62
    30
 10
-48.25
 20
-326.70211699999999
 30
0.0
 40
6.0
  0
LINE
  5
21C
  8
SIZE
  6
CONTINUOUS
 62
    30
 10
-48.25
 20
-326.70211699999999
 30
0.0
 11
-36.25
 21
-326.70211699999999
 31
0.0
  0
CIRCLE
  5
21D
  8
SIZE
  6
CONTINUOUS
 62
    30
 10
48.25
 20
-326.70211699999999
 30
0.0
 40
6.0
  0
LINE
  5
21E
  8
SIZE
  6
CONTINUOUS
 62
    30
 10
48.25
 20
-326.70211699999999
 30
0.0
 11
36.25
 21
-326.70211699999999
 31
0.0
  0
POINT
  5
21F
  8
DEFPOINTS
  6
CONTINUOUS
 62
    30
 10
48.25
 20
-326.70211699999999
 30
0.0
  0
LINE
  5
220
  8
DETAIL
  6
CONTINUOUS
 62
     5
 10
54.420499999999997
 20
-161.0
 30
0.0
 11
54.420499999999997
 21
-136.0
 31
0.0
  0
LINE
  5
221
  8
DETAIL
  6
CONTINUOUS
 62
     5
 10
-48.686512999999991
 20
-155.52926599999981
 30
0.0
 11
48.686512999999991
 21
-155.52926599999981
 31
0.0
  0
LINE
  5
222
  8
DETAIL
  6
CONTINUOUS
 62
     5
 10
54.420499999999997
 20
-161.0
 30
0.0
 11
51.403911000000001
 21
-157.2581439999999
 31
0.0
  0
ARC
  5
223
  8
DETAIL
  6
CONTINUOUS
 62
     5
 10
48.686512999999991
 20
-158.52926599999981
 30
0.0
 40
3.0
 50
25.068850000000001
 51
90.0
  0
LINE
  5
224
  8
DETAIL
  6
CONTINUOUS
 62
     5
 10
-54.420499999999997
 20
-161.0
 30
0.0
 11
-51.403911000000001
 21
-157.2581439999999
 31
0.0
  0
ARC
  5
225
  8
DETAIL
  6
CONTINUOUS
 62
     5
 10
-48.686512999999991
 20
-158.52926599999981
 30
0.0
 40
3.0
 50
90.0
 51
154.9311499999998
  0
CIRCLE
  5
226
  8
FIX
  6
CONTINUOUS
 62
    11
 10
-217.0
 20
-10.0
 30
0.0
 40
6.0
  0
CIRCLE
  5
227
  8
FIX
  6
CONTINUOUS
 62
    11
 10
217.0
 20
-10.0
 30
0.0
 40
6.0
  0
LINE
  5
228
  8
OUTLINE
  6
CONTINUOUS
 62
     3
 10
65.0
 20
-171.0
 30
0.0
 11
-65.0
 21
-171.0
 31
0.0
  0
LINE
  5
229
  8
OUTLINE
  6
CONTINUOUS
 62
     3
 10
40.25
 20
-179.0
 30
0.0
 11
-40.25
 21
-179.0
 31
0.0
  0
LINE
  5
22A
  8
OUTLINE
  6
CONTINUOUS
 62
     3
 10
-48.686512999999991
 20
-155.52926599999981
 30
0.0
 11
48.686512999999991
 21
-155.52926599999981
 31
0.0
  0
LINE
  5
22B
  8
OUTLINE
  6
CONTINUOUS
 62
     3
 10
184.4999999999998
 20
-67.0
 30
0.0
 11
-184.4999999999998
 21
-67.0
 31
0.0
  0
LINE
  5
22C
  8
OUTLINE
  6
CONTINUOUS
 62
     3
 10
184.4999999999998
 20
-70.0
 30
0.0
 11
-184.4999999999998
 21
-70.0
 31
0.0
  0
LINE
  5
22D
  8
OUTLINE
  6
CONTINUOUS
 62
     3
 10
210.49999999999989
 20
-20.0
 30
0.0
 11
-210.49999999999989
 21
-20.0
 31
0.0
  0
ARC
  5
22E
  8
OUTLINE
  6
CONTINUOUS
 62
     3
 10
149.5
 20
-106.0
 30
0.0
 40
55.0
 50
270.0
 51
0.0
  0
ARC
  5
22F
  8
OUTLINE
  6
CONTINUOUS
 62
     3
 10
134.4999999999998
 20
-86.0
 30
0.0
 40
50.0
 50
270.0
 51
0.0
  0
LINE
  5
230
  8
OUTLINE
  6
CONTINUOUS
 62
     3
 10
204.49999999999989
 20
-106.0
 30
0.0
 11
204.49999999999989
 21
-20.0
 31
0.0
  0
LINE
  5
231
  8
OUTLINE
  6
CONTINUOUS
 62
     3
 10
184.4999999999998
 20
-20.0
 30
0.0
 11
184.4999999999998
 21
-86.0
 31
0.0
  0
LINE
  5
232
  8
OUTLINE
  6
CONTINUOUS
 62
     3
 10
207.5
 20
-67.0
 30
0.0
 11
207.5
 21
-70.0
 31
0.0
  0
LINE
  5
233
  8
OUTLINE
  6
CONTINUOUS
 62
     3
 10
204.49999999999989
 20
-67.0
 30
0.0
 11
207.5
 21
-67.0
 31
0.0
  0
LINE
  5
234
  8
OUTLINE
  6
CONTINUOUS
 62
     3
 10
204.49999999999989
 20
-70.0
 30
0.0
 11
207.5
 21
-70.0
 31
0.0
  0
LINE
  5
235
  8
OUTLINE
  6
CONTINUOUS
 62
     3
 10
210.49999999999989
 20
-20.0
 30
0.0
 11
210.49999999999989
 21
-10.0
 31
0.0
  0
LINE
  5
236
  8
OUTLINE
  6
CONTINUOUS
 62
     3
 10
149.5
 20
-161.0
 30
0.0
 11
54.420499999999997
 21
-161.0
 31
0.0
  0
LINE
  5
237
  8
OUTLINE
  6
CONTINUOUS
 62
     3
 10
65.0
 20
-161.0
 30
0.0
 11
65.0
 21
-171.0
 31
0.0
  0
ARC
  5
238
  8
OUTLINE
  6
CONTINUOUS
 62
     3
 10
40.25
 20
-171.0
 30
0.0
 40
8.0
 50
270.0
 51
0.0
  0
LINE
  5
239
  8
OUTLINE
  6
CONTINUOUS
 62
     3
 10
54.420499999999997
 20
-161.0
 30
0.0
 11
54.420499999999997
 21
-136.0
 31
0.0
  0
LINE
  5
23A
  8
OUTLINE
  6
CONTINUOUS
 62
     3
 10
54.420499999999997
 20
-161.0
 30
0.0
 11
51.403911000000001
 21
-157.2581439999999
 31
0.0
  0
ARC
  5
23B
  8
OUTLINE
  6
CONTINUOUS
 62
     3
 10
48.686512999999991
 20
-158.52926599999981
 30
0.0
 40
3.0
 50
25.068850000000001
 51
90.0
  0
ARC
  5
23C
  8
OUTLINE
  6
CONTINUOUS
 62
     3
 10
-149.5
 20
-106.0
 30
0.0
 40
55.0
 50
180.0
 51
270.0
  0
LINE
  5
23D
  8
OUTLINE
  6
CONTINUOUS
 62
     3
 10
-54.420499999999997
 20
-161.0
 30
0.0
 11
-149.5
 21
-161.0
 31
0.0
  0
ARC
  5
23E
  8
OUTLINE
  6
CONTINUOUS
 62
     3
 10
-40.25
 20
-171.0
 30
0.0
 40
8.0
 50
180.0
 51
270.0
  0
LINE
  5
23F
  8
OUTLINE
  6
CONTINUOUS
 62
     3
 10
-54.420499999999997
 20
-161.0
 30
0.0
 11
-54.420499999999997
 21
-136.0
 31
0.0
  0
LINE
  5
240
  8
OUTLINE
  6
CONTINUOUS
 62
     3
 10
-54.420499999999997
 20
-161.0
 30
0.0
 11
-51.403911000000001
 21
-157.2581439999999
 31
0.0
  0
ARC
  5
241
  8
OUTLINE
  6
CONTINUOUS
 62
     3
 10
-48.686512999999991
 20
-158.52926599999981
 30
0.0
 40
3.0
 50
90.0
 51
154.9311499999998
  0
LINE
  5
242
  8
OUTLINE
  6
CONTINUOUS
 62
     3
 10
-65.0
 20
-161.0
 30
0.0
 11
-65.0
 21
-171.0
 31
0.0
  0
LINE
  5
243
  8
OUTLINE
  6
CONTINUOUS
 62
     3
 10
-204.49999999999989
 20
-20.0
 30
0.0
 11
-204.49999999999989
 21
-106.0
 31
0.0
  0
LINE
  5
244
  8
OUTLINE
  6
CONTINUOUS
 62
     3
 10
-204.49999999999989
 20
-67.0
 30
0.0
 11
-207.5
 21
-67.0
 31
0.0
  0
LINE
  5
245
  8
OUTLINE
  6
CONTINUOUS
 62
     3
 10
-204.49999999999989
 20
-70.0
 30
0.0
 11
-207.5
 21
-70.0
 31
0.0
  0
LINE
  5
246
  8
OUTLINE
  6
CONTINUOUS
 62
     3
 10
-207.5
 20
-67.0
 30
0.0
 11
-207.5
 21
-70.0
 31
0.0
  0
LINE
  5
247
  8
OUTLINE
  6
CONTINUOUS
 62
     3
 10
-210.49999999999989
 20
-20.0
 30
0.0
 11
-210.49999999999989
 21
-10.0
 31
0.0
  0
ARC
  5
248
  8
DETAIL
  6
CONTINUOUS
 62
     5
 10
-27.016783
 20
-156.25299799999979
 30
0.0
 40
108.63193200000001
 50
127.439751
 51
160.069053
  0
ARC
  5
249
  8
DETAIL
  6
CONTINUOUS
 62
     5
 10
-110.358704
 20
-35.53629500000001
 30
0.0
 40
85.765478999999985
 50
210.17827500000001
 51
257.34964600000001
  0
ARC
  5
24A
  8
DETAIL
  6
CONTINUOUS
 62
     5
 10
-81.576520000000002
 20
6.6865729999999992
 30
0.0
 40
112.38136399999991
 50
284.46725199999992
 51
316.97024900000002
  0
LINE
  5
24B
  8
DETAIL
  6
CONTINUOUS
 62
     5
 10
-48.25
 20
-116.0
 30
0.0
 11
48.25
 21
-116.0
 31
0.0
  0
LINE
  5
24C
  8
DETAIL
  6
CONTINUOUS
 62
     5
 10
-134.49999999999989
 20
-136.0
 30
0.0
 11
67.5
 21
-136.0
 31
0.0
  0
ARC
  5
24D
  8
DETAIL
  6
CONTINUOUS
 62
     5
 10
-43.25
 20
-101.0
 30
0.0
 40
5.0
 50
90.0
 51
180.0
  0
LINE
  5
24E
  8
DETAIL
  6
CONTINUOUS
 62
     5
 10
-43.25
 20
-96.0
 30
0.0
 11
-35.91429500000001
 21
-96.0
 31
0.0
  0
LINE
  5
24F
  8
DETAIL
  6
CONTINUOUS
 62
     5
 10
-48.25
 20
-136.0
 30
0.0
 11
-48.25
 21
-101.0
 31
0.0
  0
LINE
  5
250
  8
DETAIL
  6
CONTINUOUS
 62
     5
 10
30.678521
 20
-96.0
 30
0.0
 11
43.25
 21
-96.0
 31
0.0
  0
ARC
  5
251
  8
DETAIL
  6
CONTINUOUS
 62
     5
 10
43.25
 20
-101.0
 30
0.0
 40
5.0
 50
0.0
 51
90.0
  0
LINE
  5
252
  8
DETAIL
  6
CONTINUOUS
 62
     5
 10
48.25
 20
-136.0
 30
0.0
 11
48.25
 21
-101.0
 31
0.0
  0
LINE
  5
253
  8
DETAIL
  6
CONTINUOUS
 62
     5
 10
-5.0
 20
-70.0
 30
0.0
 11
-5.0
 21
-75.566740999999993
 31
0.0
  0
ARC
  5
254
  8
DETAIL
  6
CONTINUOUS
 62
     5
 10
146.82702299999991
 20
85.486517000000006
 30
0.0
 40
190.8542929999999
 50
243.92936800000001
 51
280.56684300000001
  0
ARC
  5
255
  8
DETAIL
  6
CONTINUOUS
 62
     5
 10
-29.95345
 20
155.5127599999999
 30
0.0
 40
258.71780899999999
 50
264.77799499999992
 51
299.34842500000002
  0
ARC
  5
256
  8
DETAIL
  6
CONTINUOUS
 62
     5
 10
197.47370399999991
 20
153.26120700000001
 30
0.0
 40
255.83856800000001
 50
243.8531569999999
 51
266.52478200000002
  0
TEXT
  5
257
  8
ETC
  6
CONTINUOUS
 62
    61
 10
443.46396977305022
 20
324.46032803474361
 30
0.0
 40
50.0
  1
EF-35CTB40A2
 41
0.9
  0
TEXT
  5
258
  8
ETC
  6
CONTINUOUS
 62
    61
 10
333.83856654379389
 20
500.1035460245252
 30
0.0
 40
64.0
  1
EF-35CTB40A2_6
 41
0.9
  0
TEXT
  5
259
  8
ETC
  6
CONTINUOUS
 62
    61
 10
330.55528854379372
 20
401.60328202452519
 30
0.0
 40
64.0
  1
産業扇
 41
0.9
  0
LINE
  5
25A
  8
DETAIL
  6
CONTINUOUS
 62
     5
 39
50.0
 10
-235.0
 20
0.0
 30
0.0
 11
-235.0
 21
-10.0
 31
0.0
  0
ARC
  5
25B
  8
DETAIL
  6
CONTINUOUS
 62
     5
 10
-134.49999999999989
 20
-86.0
 30
0.0
 40
50.0
 50
180.0
 51
270.0
  0
LINE
  5
25C
  8
DETAIL
  6
CONTINUOUS
 62
     5
 39
50.0
 10
235.0
 20
0.0
 30
0.0
 11
235.0
 21
-10.0
 31
0.0
  0
LINE
  5
25D
  8
OUTLINE
  6
CONTINUOUS
 62
     3
 39
50.0
 10
134.4999999999998
 20
-136.0
 30
0.0
 11
-134.49999999999989
 21
-136.0
 31
0.0
  0
LINE
  5
25E
  8
OUTLINE
  6
CONTINUOUS
 62
     3
 39
50.0
 10
-184.49999999999989
 20
-85.999999999999957
 30
0.0
 11
-184.4999999999998
 21
-20.0
 31
0.0
  0
LINE
  5
25F
  8
OUTLINE
  6
CONTINUOUS
 62
     3
 39
50.0
 10
-234.9999999999998
 20
-10.0
 30
0.0
 11
-234.9999999999998
 21
-0.0000000000000283
 31
0.0
  0
LINE
  5
260
  8
OUTLINE
  6
CONTINUOUS
 62
     3
 39
50.0
 10
-235.0
 20
-0.0000000000000283
 30
0.0
 11
235.0
 21
-0.0000000000000283
 31
0.0
  0
LINE
  5
261
  8
OUTLINE
  6
CONTINUOUS
 62
     3
 39
50.0
 10
235.0
 20
-0.0000000000000283
 30
0.0
 11
235.0
 21
-10.0
 31
0.0
  0
LINE
  5
262
  8
OUTLINE
  6
CONTINUOUS
 62
     3
 39
50.0
 10
235.0
 20
-10.0
 30
0.0
 11
-234.9999999999998
 21
-10.0
 31
0.0
  0
ARC
  5
263
  8
OUTLINE
  6
CONTINUOUS
 62
     3
 39
50.0
 10
-134.49999999999989
 20
-86.0
 30
0.0
 40
50.0
 50
179.9999999999998
 51
270.0
  0
LINE
  5
264
  8
SIZE
  6
CONTINUOUS
 62
    30
 10
-235.0
 20
20.0
 30
0.0
 11
-234.9999999999998
 21
302.1710913972633
 31
0.0
  0
LINE
  5
265
  8
SIZE
  6
CONTINUOUS
 62
    30
 10
235.0
 20
19.999999999999961
 30
0.0
 11
235.0
 21
302.1710913972633
 31
0.0
  0
LINE
  5
266
  8
SIZE
  6
CONTINUOUS
 62
    30
 10
-234.9999999999998
 20
282.1710913972633
 30
0.0
 11
235.0
 21
282.1710913972633
 31
0.0
  0
CIRCLE
  5
267
  8
SIZE
  6
CONTINUOUS
 62
    30
 39
50.0
 10
-234.9999999999998
 20
282.1710913972633
 30
0.0
 40
6.0
  0
CIRCLE
  5
268
  8
SIZE
  6
CONTINUOUS
 62
    30
 39
50.0
 10
235.0
 20
282.1710913972633
 30
0.0
 40
6.0
  0
TEXT
  5
269
  8
SIZE
  6
CONTINUOUS
 62
    30
 10
-74.057142857142807
 20
307.1710913972633
 30
0.0
 40
64.0
  1
470
 41
0.9
  0
ENDSEC
  0
EOF
