  0
SECTION
  2
HEADER
  9
$ACADVER
  1
AC1009
  9
$INSBASE
 10
0.0
 20
0.0
 30
0.0
  9
$EXTMIN
 10
-537.47862103334592
 20
-478.40880180989541
 30
-100.119172924072
  9
$EXTMAX
 10
908.63801191867969
 20
626.77002759507195
 30
50.009162623118868
  9
$LIMMIN
 10
-2970.0
 20
-2100.0
  9
$LIMMAX
 10
2970.0
 20
2100.0
  9
$ORTHOMODE
 70
     1
  9
$REGENMODE
 70
     1
  9
$FILLMODE
 70
     1
  9
$QTEXTMODE
 70
     0
  9
$MIRRTEXT
 70
     0
  9
$DRAGMODE
 70
     2
  9
$LTSCALE
 40
20.0
  9
$OSMODE
 70
    37
  9
$ATTMODE
 70
     1
  9
$TEXTSIZE
 40
64.0
  9
$TRACEWID
 40
0.05
  9
$TEXTSTYLE
  7
STANDARD
  9
$CLAYER
  8
DETAIL
  9
$CELTYPE
  6
CONTINUOUS
  9
$CECOLOR
 62
     7
  9
$DIMSCALE
 40
1.0
  9
$DIMASZ
 40
2.0
  9
$DIMEXO
 40
20.0
  9
$DIMDLI
 40
200.0
  9
$DIMRND
 40
0.0
  9
$DIMDLE
 40
0.0
  9
$DIMEXE
 40
30.0
  9
$DIMTP
 40
0.1
  9
$DIMTM
 40
0.1
  9
$DIMTXT
 40
64.0
  9
$DIMCEN
 40
0.09
  9
$DIMTSZ
 40
0.0
  9
$DIMTOL
 70
     0
  9
$DIMLIM
 70
     0
  9
$DIMTIH
 70
     0
  9
$DIMTOH
 70
     0
  9
$DIMSE1
 70
     0
  9
$DIMSE2
 70
     0
  9
$DIMTAD
 70
     1
  9
$DIMZIN
 70
     8
  9
$DIMBLK
  1
DOT1
  9
$DIMASO
 70
     1
  9
$DIMSHO
 70
     0
  9
$DIMPOST
  1
<>
  9
$DIMAPOST
  1
"
  9
$DIMALT
 70
     0
  9
$DIMALTD
 70
     2
  9
$DIMALTF
 40
0.03937
  9
$DIMLFAC
 40
1.0
  9
$DIMTOFL
 70
     1
  9
$DIMTVP
 40
0.0
  9
$DIMTIX
 70
     0
  9
$DIMSOXD
 70
     0
  9
$DIMSAH
 70
     1
  9
$DIMBLK1
  1

  9
$DIMBLK2
  1

  9
$DIMSTYLE
  2
GEN-ISO
  9
$DIMCLRD
 70
     7
  9
$DIMCLRE
 70
     7
  9
$DIMCLRT
 70
     7
  9
$DIMTFAC
 40
1.0
  9
$DIMGAP
 40
25.0
  9
$LUNITS
 70
     2
  9
$LUPREC
 70
     4
  9
$SKETCHINC
 40
0.1
  9
$FILLETRAD
 40
5.0
  9
$AUNITS
 70
     1
  9
$AUPREC
 70
     3
  9
$MENU
  1
ACAD
  9
$ELEVATION
 40
0.0
  9
$PELEVATION
 40
0.0
  9
$THICKNESS
 40
0.0
  9
$LIMCHECK
 70
     0
  9
$BLIPMODE
 70
     0
  9
$CHAMFERA
 40
0.0
  9
$CHAMFERB
 40
0.0
  9
$SKPOLY
 70
     0
  9
$TDCREATE
 40
2451372.5474537038
  9
$TDUPDATE
 40
2454944.5672736228
  9
$TDINDWG
 40
0.9348102894
  9
$TDUSRTIMER
 40
0.9348102894
  9
$USRTIMER
 70
     1
  9
$ANGBASE
 50
0.0
  9
$ANGDIR
 70
     0
  9
$PDMODE
 70
     3
  9
$PDSIZE
 40
-2.0
  9
$PLINEWID
 40
0.0
  9
$COORDS
 70
     0
  9
$SPLFRAME
 70
     0
  9
$SPLINETYPE
 70
     6
  9
$SPLINESEGS
 70
     8
  9
$ATTDIA
 70
     0
  9
$ATTREQ
 70
     1
  9
$HANDLING
 70
     1
  9
$HANDSEED
  5
325
  9
$SURFTAB1
 70
     6
  9
$SURFTAB2
 70
     6
  9
$SURFTYPE
 70
     6
  9
$SURFU
 70
     6
  9
$SURFV
 70
     6
  9
$UCSNAME
  2

  9
$UCSORG
 10
0.0
 20
0.0
 30
0.0
  9
$UCSXDIR
 10
1.0
 20
0.0
 30
0.0
  9
$UCSYDIR
 10
0.0
 20
1.0
 30
0.0
  9
$PUCSNAME
  2

  9
$PUCSORG
 10
0.0
 20
0.0
 30
0.0
  9
$PUCSXDIR
 10
1.0
 20
0.0
 30
0.0
  9
$PUCSYDIR
 10
0.0
 20
1.0
 30
0.0
  9
$USERI1
 70
     0
  9
$USERI2
 70
     0
  9
$USERI3
 70
     0
  9
$USERI4
 70
     0
  9
$USERI5
 70
     0
  9
$USERR1
 40
20.0
  9
$USERR2
 40
0.0
  9
$USERR3
 40
0.0
  9
$USERR4
 40
0.0
  9
$USERR5
 40
0.0
  9
$WORLDVIEW
 70
     1
  9
$SHADEDGE
 70
     3
  9
$SHADEDIF
 70
    70
  9
$TILEMODE
 70
     1
  9
$MAXACTVP
 70
    48
  9
$PLIMCHECK
 70
     0
  9
$PEXTMIN
 10
-1.0000000000000000E+020
 20
-1.0000000000000000E+020
 30
-1.0000000000000000E+020
  9
$PEXTMAX
 10
1.0000000000000000E+020
 20
1.0000000000000000E+020
 30
1.0000000000000000E+020
  9
$PLIMMIN
 10
0.0
 20
0.0
  9
$PLIMMAX
 10
12.0
 20
9.0
  9
$UNITMODE
 70
     0
  9
$VISRETAIN
 70
     0
  9
$PLINEGEN
 70
     0
  9
$PSLTSCALE
 70
     0
  0
ENDSEC
  0
SECTION
  2
TABLES
  0
TABLE
  2
VPORT
 70
     1
  0
VPORT
  2
*ACTIVE
 70
     0
 10
0.0
 20
0.0
 11
1.0
 21
1.0
 12
211.4545450855467
 22
23.73739201953504
 13
0.0
 23
0.0
 14
50.0
 24
50.0
 15
400.0
 25
400.0
 16
0.0
 26
0.0
 36
1.0
 17
0.0
 27
0.0
 37
0.0
 40
1251.927368282619
 41
1.3098995695839311
 42
50.0
 43
0.0
 44
0.0
 50
0.0
 51
0.0
 71
     0
 72
   500
 73
     1
 74
     0
 75
     0
 76
     0
 77
     0
 78
     0
  0
ENDTAB
  0
TABLE
  2
LTYPE
 70
     4
  0
LTYPE
  2
CONTINUOUS
 70
     0
  3
実線
 72
    65
 73
     0
 40
0.0
  0
LTYPE
  2
DASHDOT
 70
     0
  3
____ _ ____ _ ____ _ ____ _ ____ _ ____ _ ____
 72
    65
 73
     4
 40
5.5
 49
4.0
 49
-0.6
 49
0.3
 49
-0.6
  0
LTYPE
  2
DASHED
 70
     0
  3
-- -- -- -- -- -- -- -- -- -- -- -- -- -- --
 72
    65
 73
     2
 40
0.75
 49
0.5
 49
-0.25
  0
ENDTAB
  0
TABLE
  2
LAYER
 70
    12
  0
LAYER
  2
0
 70
     0
 62
     7
  6
CONTINUOUS
  0
LAYER
  2
DETAIL
 70
     0
 62
     5
  6
CONTINUOUS
  0
LAYER
  2
OUTLINE
 70
     0
 62
     3
  6
CONTINUOUS
  0
LAYER
  2
BASIS
 70
     0
 62
     6
  6
DASHDOT
  0
LAYER
  2
NOTE
 70
     0
 62
     4
  6
CONTINUOUS
  0
LAYER
  2
DEFPOINTS
 70
     0
 62
     7
  6
CONTINUOUS
  0
LAYER
  2
SIZE
 70
     0
 62
    30
  6
CONTINUOUS
  0
LAYER
  2
ARRANGE
 70
     0
 62
     1
  6
CONTINUOUS
  0
LAYER
  2
ETC
 70
     0
 62
    61
  6
CONTINUOUS
  0
LAYER
  2
FIX
 70
     0
 62
    11
  6
CONTINUOUS
  0
LAYER
  2
SERVICESPACE
 70
     0
 62
     2
  6
DASHDOT
  0
LAYER
  2
SYMBOLLINE
 70
     0
 62
    15
  6
CONTINUOUS
  0
ENDTAB
  0
TABLE
  2
STYLE
 70
     3
  0
STYLE
  2
STANDARD
 70
     0
 40
0.0
 41
0.9
 50
0.0
 71
     0
 42
64.0
  3
SIMPLEX
  4
BIGFONT
  0
STYLE
  2
ANNOTATIVE
 70
     0
 40
0.0
 41
1.0
 50
0.0
 71
     0
 42
0.2
  3
txt
  4

  0
STYLE
  2

 70
     1
 40
0.0
 41
1.0
 50
0.0
 71
     0
 42
64.0
  3
ltypeshp.shx
  4

  0
ENDTAB
  0
TABLE
  2
VIEW
 70
     1
  0
VIEW
  2
ALL
 70
     0
 40
4282.6198079999986
 10
0.0
 20
41.309903999999989
 41
5940.0
 11
0.0
 21
0.0
 31
1.0
 12
0.0
 22
0.0
 32
0.0
 42
50.0
 43
0.0
 44
0.0
 50
0.0
 71
     0
  0
ENDTAB
  0
TABLE
  2
UCS
 70
     0
  0
ENDTAB
  0
TABLE
  2
APPID
 70
    14
  0
APPID
  2
ACAD
 70
     0
  0
APPID
  2
ACADANNOTATIVE
 70
     0
  0
APPID
  2
ACAD_MLEADERVER
 70
     0
  0
APPID
  2
CONTENTBLOCKDESCRIPTION
 70
     0
  0
APPID
  2
CONTENTBLOCKICON
 70
     0
  0
APPID
  2
GENIUS_GENCFG_13
 70
     0
  0
APPID
  2
GENIUS_GENCFG0_13
 70
     0
  0
APPID
  2
GENIUS_GENCFG1_13
 70
     0
  0
APPID
  2
GENIUS_GENCFG2_13
 70
     0
  0
APPID
  2
GENIUS_GENCFG3_13
 70
     0
  0
APPID
  2
GENIUS_GENCFG4_13
 70
     0
  0
APPID
  2
GENIUS_GEVCFG0_13
 70
     0
  0
APPID
  2
GENIUS_GENOENT_13
 70
     0
  0
APPID
  2
ACAD_EXEMPT_FROM_CAD_STANDARDS
 70
     0
  0
ENDTAB
  0
TABLE
  2
DIMSTYLE
 70
     3
  0
DIMSTYLE
  2
STANDARD
 70
     0
  3

  4

  5

  6

  7

 40
1.0
 41
0.18
 42
0.0625
 43
0.38
 44
0.18
 45
0.0
 46
0.0
 47
0.0
 48
0.0
140
0.18
141
0.09
142
0.0
143
25.399999999999999
144
1.0
145
0.0
146
1.0
147
0.09
 71
     0
 72
     0
 73
     1
 74
     1
 75
     0
 76
     0
 77
     0
 78
     0
170
     0
171
     2
172
     0
173
     0
174
     0
175
     0
176
     0
177
     0
178
     0
  0
DIMSTYLE
  2
ANNOTATIVE
 70
     0
  3

  4

  5

  6

  7

 40
1.0
 41
0.18
 42
0.0625
 43
0.38
 44
0.18
 45
0.0
 46
0.0
 47
0.0
 48
0.0
140
0.18
141
0.09
142
0.0
143
25.399999999999999
144
1.0
145
0.0
146
1.0
147
0.09
 71
     0
 72
     0
 73
     1
 74
     1
 75
     0
 76
     0
 77
     0
 78
     0
170
     0
171
     2
172
     0
173
     0
174
     0
175
     0
176
     0
177
     0
178
     0
  0
DIMSTYLE
  2
GEN-ISO
 70
     0
  3

  4
"
  5

  6

  7

 40
1.0
 41
2.0
 42
20.0
 43
200.0
 44
30.0
 45
0.0
 46
0.0
 47
0.1
 48
0.1
140
64.0
141
0.09
142
0.0
143
0.03937
144
1.0
145
0.0
146
1.0
147
25.0
 71
     0
 72
     0
 73
     0
 74
     0
 75
     0
 76
     0
 77
     1
 78
     8
170
     0
171
     2
172
     1
173
     1
174
     0
175
     0
176
     7
177
     7
178
     7
  0
ENDTAB
  0
ENDSEC
  0
SECTION
  2
BLOCKS
  0
BLOCK
  8
0
  2
$MODEL_SPACE
 70
     0
 10
0.0
 20
0.0
 30
0.0
  3
$MODEL_SPACE
  1

  0
ENDBLK
  5
76
  8
0
  0
BLOCK
 67
     1
  8
0
  2
$PAPER_SPACE
 70
     0
 10
0.0
 20
0.0
 30
0.0
  3
$PAPER_SPACE
  1

  0
ENDBLK
  5
72
 67
     1
  8
0
  0
BLOCK
  8
OUTLINE
  2
DOT1
 70
     0
 10
0.0
 20
0.0
 30
0.0
  3
DOT1
  1

  0
CIRCLE
  5
99
  8
SIZE
  6
CONTINUOUS
 62
     7
 10
0.0
 20
0.0
 30
0.0
 40
3.0
  0
ENDBLK
  5
9A
  8
OUTLINE
  0
BLOCK
  8
0
  2
_ORIGIN
 70
     0
 10
0.0
 20
0.0
 30
0.0
  3
_ORIGIN
  1

  0
CIRCLE
  5
2D6
  8
0
  6
CONTINUOUS
 62
     7
 10
0.0
 20
0.0
 30
0.0
 40
0.5
  0
LINE
  5
2D7
  8
0
  6
CONTINUOUS
 62
     7
 10
0.0
 20
0.0
 30
0.0
 11
-1.0
 21
0.0
 31
0.0
  0
ENDBLK
  5
2D8
  8
0
  0
ENDSEC
  0
SECTION
  2
ENTITIES
  0
ARC
  5
9B
  8
DETAIL
  6
CONTINUOUS
 62
     5
 10
122.029509
 20
-152.0
 30
0.0
 40
65.0
 50
270.0
 51
0.0
  0
LINE
  5
9C
  8
DETAIL
  6
CONTINUOUS
 62
     5
 10
0.65225
 20
-186.80000000000001
 30
0.0
 11
42.402250000000002
 21
-186.80000000000001
 31
0.0
  0
LINE
  5
9D
  8
DETAIL
  6
CONTINUOUS
 62
     5
 10
-0.575167
 20
-171.63549599999999
 30
0.0
 11
31.469999999999999
 21
-171.63691800000001
 31
0.0
  0
LINE
  5
9E
  8
DETAIL
  6
CONTINUOUS
 62
     5
 10
0.0
 20
-172.50294400000001
 30
0.0
 11
31.969999999999999
 21
-172.50294400000001
 31
0.0
  0
LINE
  5
9F
  8
DETAIL
  6
CONTINUOUS
 62
     5
 10
164.82997900000001
 20
-70.0
 30
0.0
 11
0.0
 21
-70.0
 31
0.0
  0
LINE
  5
A0
  8
DETAIL
  6
CONTINUOUS
 62
     5
 10
0.0
 20
-66.0
 30
0.0
 11
164.82997900000001
 21
-66.0
 31
0.0
  0
LINE
  5
A1
  8
DETAIL
  6
CONTINUOUS
 62
     5
 10
164.82997900000001
 20
-94.0
 30
0.0
 11
164.82997900000001
 21
-50.0
 31
0.0
  0
LINE
  5
A2
  8
DETAIL
  6
CONTINUOUS
 62
     5
 10
4.0721800000000004
 20
-93.712524000000016
 30
0.0
 11
4.0265859999999991
 21
-70.0
 31
0.0
  0
LINE
  5
A3
  8
DETAIL
  6
CONTINUOUS
 62
     5
 10
0.0
 20
-222.09999999999999
 30
0.0
 11
68.032250000000005
 21
-222.09999999999999
 31
0.0
  0
LINE
  5
A4
  8
DETAIL
  6
CONTINUOUS
 62
     5
 10
57.722582999999993
 20
-222.09999999999999
 30
0.0
 11
67.799999999999997
 21
-222.09999999999999
 31
0.0
  0
LINE
  5
A5
  8
DETAIL
  6
CONTINUOUS
 62
     5
 10
56.697172000000002
 20
-228.0
 30
0.0
 11
0.0
 21
-228.0
 31
0.0
  0
LINE
  5
A6
  8
DETAIL
  6
CONTINUOUS
 62
     5
 10
64.353149999999999
 20
-222.87146000000001
 30
0.0
 11
59.559394999999988
 21
-226.774947
 31
0.0
  0
ARC
  5
A7
  8
DETAIL
  6
CONTINUOUS
 62
     5
 10
55.337125
 20
-220.86619300000001
 30
0.0
 40
7.2622949999999991
 50
280.45394800000003
 51
305.54879199999999
  0
ARC
  5
A8
  8
DETAIL
  6
CONTINUOUS
 62
     5
 10
66.5
 20
-225.50794200000001
 30
0.0
 40
3.399999999999999
 50
90.0
 51
129.15543400000001
  0
ARC
  5
A9
  8
DETAIL
  6
CONTINUOUS
 62
     5
 10
67.799999999999997
 20
-220.5
 30
0.0
 40
1.6000000000000001
 50
270.0
 51
0.0
  0
LINE
  5
AA
  8
DETAIL
  6
CONTINUOUS
 62
     5
 10
58.650326
 20
-192.0
 30
0.0
 11
70.171701999999996
 21
-192.0
 31
0.0
  0
LINE
  5
AB
  8
DETAIL
  6
CONTINUOUS
 62
     5
 10
61.100000000000001
 20
-217.0
 30
0.0
 11
65.303482999999986
 21
-217.0
 31
0.0
  0
LINE
  5
AC
  8
DETAIL
  6
CONTINUOUS
 62
     5
 10
69.400000000000006
 20
-217.5
 30
0.0
 11
69.400000000000006
 21
-220.5
 31
0.0
  0
LINE
  5
AD
  8
DETAIL
  6
CONTINUOUS
 62
     5
 10
194.22602599999999
 20
-19.989761000000001
 30
0.0
 11
0.0
 21
-19.989761000000001
 31
0.0
  0
LINE
  5
AE
  8
DETAIL
  6
CONTINUOUS
 62
     5
 10
187.02950899999999
 20
-152.0
 30
0.0
 11
187.02950899999999
 21
-19.989761000000001
 31
0.0
  0
LINE
  5
AF
  8
DETAIL
  6
CONTINUOUS
 62
     5
 10
185.30878000000001
 20
-152.0
 30
0.0
 11
185.30878000000001
 21
-19.989761000000001
 31
0.0
  0
LINE
  5
B0
  8
DETAIL
  6
CONTINUOUS
 62
     5
 10
164.82997900000001
 20
-152.0
 30
0.0
 11
164.82997900000001
 21
-27.989758999999999
 31
0.0
  0
ARC
  5
B1
  8
DETAIL
  6
CONTINUOUS
 62
     5
 10
165.61352600000001
 20
-25.673355000000001
 30
0.0
 40
2.3164060000000002
 50
270.0
 51
308.35805299999998
  0
LINE
  5
B2
  8
DETAIL
  6
CONTINUOUS
 62
     5
 10
174.82602499999999
 20
-27.989758999999999
 30
0.0
 11
165.026028
 21
-27.989758999999999
 31
0.0
  0
LINE
  5
B3
  8
DETAIL
  6
CONTINUOUS
 62
     5
 10
164.176027
 20
-22.989761000000001
 30
0.0
 11
175.67602600000001
 21
-22.989761000000001
 31
0.0
  0
LINE
  5
B4
  8
DETAIL
  6
CONTINUOUS
 62
     5
 10
153.950861
 20
-19.989761000000001
 30
0.0
 11
181.02950899999999
 21
-19.989761000000001
 31
0.0
  0
LINE
  5
B5
  8
DETAIL
  6
CONTINUOUS
 62
     5
 10
172.80102500000001
 20
-22.989761000000001
 30
0.0
 11
172.80102500000001
 21
-27.489761000000001
 31
0.0
  0
ARC
  5
B6
  8
DETAIL
  6
CONTINUOUS
 62
     5
 10
174.23852600000001
 20
-25.673355000000001
 30
0.0
 40
2.3164060000000002
 50
231.64200299999999
 51
270.0
  0
ARC
  5
B7
  8
DETAIL
  6
CONTINUOUS
 62
     5
 10
169.92602600000001
 20
-19.474136000000001
 30
0.0
 40
8.515625
 50
250.26842099999999
 51
289.73167000000001
  0
LINE
  5
B8
  8
DETAIL
  6
CONTINUOUS
 62
     5
 10
167.05102600000001
 20
-22.989761000000001
 30
0.0
 11
167.05102600000001
 21
-27.489761000000001
 31
0.0
  0
LINE
  5
B9
  8
DETAIL
  6
CONTINUOUS
 62
     5
 10
175.67603099999999
 20
-27.489771000000001
 30
0.0
 11
174.826031
 21
-27.989771000000001
 31
0.0
  0
LINE
  5
BA
  8
DETAIL
  6
CONTINUOUS
 62
     5
 10
175.67602600000001
 20
-22.989761000000001
 30
0.0
 11
175.67602600000001
 21
-27.489761000000001
 31
0.0
  0
ARC
  5
BB
  8
DETAIL
  6
DASHED
 62
     5
 10
174.82602600000001
 20
-29.989761000000001
 30
0.0
 40
10.0
 50
90.0
 51
90.116247000000001
  0
LINE
  5
BC
  8
DETAIL
  6
CONTINUOUS
 62
     5
 10
164.17602600000001
 20
-27.489761000000001
 30
0.0
 11
164.17602600000001
 21
-22.989761000000001
 31
0.0
  0
LINE
  5
BD
  8
DETAIL
  6
CONTINUOUS
 62
     5
 10
165.02602200000001
 20
-27.989771000000001
 30
0.0
 11
164.17602199999999
 21
-27.489771000000001
 31
0.0
  0
LINE
  5
BE
  8
DETAIL
  6
CONTINUOUS
 62
     5
 10
195.92211699999999
 20
-12.489761
 30
0.0
 11
195.92211699999999
 21
-17.489761000000001
 31
0.0
  0
LINE
  5
BF
  8
DETAIL
  6
CONTINUOUS
 62
     5
 10
196.72602599999999
 20
-12.489761
 30
0.0
 11
196.72602599999999
 21
-17.489761000000001
 31
0.0
  0
ARC
  5
C0
  8
DETAIL
  6
DASHED
 62
     5
 10
167.5
 20
-12.5
 30
0.0
 40
2.5
 50
90.0
 51
95.187223999999986
  0
ARC
  5
C1
  8
DETAIL
  6
DASHED
 62
     5
 10
166.696091
 20
-12.5
 30
0.0
 40
2.5
 50
90.0
 51
91.435597000000001
  0
ARC
  5
C2
  8
DETAIL
  6
CONTINUOUS
 62
     5
 10
199.22602599999999
 20
-12.489761
 30
0.0
 40
2.5
 50
95.187223999999986
 51
180.0
  0
ARC
  5
C3
  8
DETAIL
  6
CONTINUOUS
 62
     5
 10
198.42211699999999
 20
-12.489761
 30
0.0
 40
2.5
 50
91.435597000000001
 51
180.0
  0
ARC
  5
C4
  8
DETAIL
  6
CONTINUOUS
 62
     5
 10
193.42211699999999
 20
-17.489761000000001
 30
0.0
 40
2.5
 50
270.00000299999999
 51
0.0
  0
ARC
  5
C5
  8
DETAIL
  6
CONTINUOUS
 62
     5
 10
194.22602599999999
 20
-17.489761000000001
 30
0.0
 40
2.5
 50
270.0
 51
0.0
  0
ARC
  5
C6
  8
DETAIL
  6
CONTINUOUS
 62
     5
 10
120.30878
 20
-152.0
 30
0.0
 40
65.0
 50
270.0
 51
0.0
  0
LINE
  5
C7
  8
DETAIL
  6
CONTINUOUS
 62
     5
 10
49.232250000000001
 20
-211.5
 30
0.0
 11
0.0
 21
-211.5
 31
0.0
  0
ARC
  5
C8
  8
DETAIL
  6
CONTINUOUS
 62
     5
 10
54.232250000000001
 20
-215.5
 30
0.0
 40
2.0
 50
180.0
 51
270.0
  0
LINE
  5
C9
  8
DETAIL
  6
CONTINUOUS
 62
     5
 10
52.232250000000001
 20
-215.5
 30
0.0
 11
52.232250000000001
 21
-214.5
 31
0.0
  0
ARC
  5
CA
  8
DETAIL
  6
CONTINUOUS
 62
     5
 10
49.232250000000001
 20
-214.5
 30
0.0
 40
3.0
 50
0.0
 51
90.0
  0
LINE
  5
CB
  8
DETAIL
  6
CONTINUOUS
 62
     5
 10
53.527124000000001
 20
-217.0
 30
0.0
 11
69.400000000000006
 21
-217.0
 31
0.0
  0
LINE
  5
CC
  8
DETAIL
  6
CONTINUOUS
 62
     5
 10
69.400000000000006
 20
-217.5
 30
0.0
 11
54.232250000000001
 21
-217.5
 31
0.0
  0
LINE
  5
CD
  8
DETAIL
  6
CONTINUOUS
 62
     5
 10
0.0
 20
-192.0
 30
0.0
 11
68.103952000000007
 21
-192.0
 31
0.0
  0
LINE
  5
CE
  8
DETAIL
  6
CONTINUOUS
 62
     5
 10
43.702249999999999
 20
-186.80000000000001
 30
0.0
 11
0.0
 21
-186.80000000000001
 31
0.0
  0
LINE
  5
CF
  8
DETAIL
  6
CONTINUOUS
 62
     5
 10
48.779665999999999
 20
-171.634073
 30
0.0
 11
-0.575167
 21
-171.63549599999999
 31
0.0
  0
LINE
  5
D0
  8
DETAIL
  6
CONTINUOUS
 62
     5
 10
48.779809
 20
-172.500181
 30
0.0
 11
0.0
 21
-172.50294400000001
 31
0.0
  0
LINE
  5
D1
  8
DETAIL
  6
CONTINUOUS
 62
     5
 10
55.232250000000001
 20
-188.0
 30
0.0
 11
0.0
 21
-188.0
 31
0.0
  0
LINE
  5
D2
  8
DETAIL
  6
CONTINUOUS
 62
     5
 10
9.2322500000000005
 20
-189.0
 30
0.0
 11
55.232250000000001
 21
-189.0
 31
0.0
  0
LINE
  5
D3
  8
DETAIL
  6
CONTINUOUS
 62
     5
 10
59.482250000000001
 20
-188.0
 30
0.0
 11
11.18225
 21
-188.0
 31
0.0
  0
LINE
  5
D4
  8
DETAIL
  6
CONTINUOUS
 62
     5
 10
-0.9322499999999999
 20
-189.0
 30
0.0
 11
69.400000000000006
 21
-189.0
 31
0.0
  0
LINE
  5
D5
  8
DETAIL
  6
CONTINUOUS
 62
     5
 10
0.0
 20
-192.0
 30
0.0
 11
68.103952000000007
 21
-192.0
 31
0.0
  0
LINE
  5
D6
  8
DETAIL
  6
CONTINUOUS
 62
     5
 10
49.929544
 20
-155.174384
 30
0.0
 11
49.932250000000003
 21
-171.63691800000001
 31
0.0
  0
LINE
  5
D7
  8
DETAIL
  6
CONTINUOUS
 62
     5
 10
59.482250000000001
 20
-186.80000000000001
 30
0.0
 11
51.632249999999999
 21
-186.80000000000001
 31
0.0
  0
LINE
  5
D8
  8
DETAIL
  6
CONTINUOUS
 62
     5
 10
54.232250000000001
 20
-186.80000000000001
 30
0.0
 11
51.632249999999999
 21
-186.80000000000001
 31
0.0
  0
LINE
  5
D9
  8
DETAIL
  6
CONTINUOUS
 62
     5
 10
55.732250000000001
 20
-186.80000000000001
 30
0.0
 11
55.732250000000001
 21
-185.0
 31
0.0
  0
ARC
  5
DA
  8
DETAIL
  6
CONTINUOUS
 62
     5
 10
55.232250000000001
 20
-187.5
 30
0.0
 40
1.5
 50
270.0
 51
340.52877899999999
  0
LINE
  5
DB
  8
DETAIL
  6
CONTINUOUS
 62
     5
 10
56.732250000000001
 20
-186.80000000000001
 30
0.0
 11
56.732250000000001
 21
-185.0
 31
0.0
  0
LINE
  5
DC
  8
DETAIL
  6
CONTINUOUS
 62
     5
 10
55.732250000000001
 20
-185.0
 30
0.0
 11
56.732250000000001
 21
-185.0
 31
0.0
  0
LINE
  5
DD
  8
DETAIL
  6
CONTINUOUS
 62
     5
 10
59.482250000000001
 20
-188.0
 30
0.0
 11
59.482250000000001
 21
-186.80000000000001
 31
0.0
  0
LINE
  5
DE
  8
DETAIL
  6
CONTINUOUS
 62
     5
 10
50.432250000000003
 20
-172.50294400000001
 30
0.0
 11
50.432250000000003
 21
-183.102791
 31
0.0
  0
LINE
  5
DF
  8
DETAIL
  6
CONTINUOUS
 62
     5
 10
50.432250000000003
 20
-172.50294400000001
 30
0.0
 11
49.932250000000003
 21
-171.63691800000001
 31
0.0
  0
ARC
  5
E0
  8
DETAIL
  6
CONTINUOUS
 62
     5
 10
42.552384999999987
 20
-184.65313599999999
 30
0.0
 40
1.8531329999999999
 50
51.642330999999999
 51
90.000018000000011
  0
ARC
  5
E1
  8
DETAIL
  6
CONTINUOUS
 62
     5
 10
46.002383000000002
 20
-189.61250000000001
 30
0.0
 40
6.8124979999999988
 50
70.268420999999989
 51
109.73166999999999
  0
ARC
  5
E2
  8
DETAIL
  6
CONTINUOUS
 62
     5
 10
49.452382
 20
-184.65313800000001
 30
0.0
 40
1.8531349999999991
 50
90.000018000000011
 51
128.35773499999999
  0
LINE
  5
E3
  8
DETAIL
  6
CONTINUOUS
 62
     5
 10
43.702382999999998
 20
-183.20000099999999
 30
0.0
 11
43.702382999999998
 21
-186.80000000000001
 31
0.0
  0
LINE
  5
E4
  8
DETAIL
  6
CONTINUOUS
 62
     5
 10
48.302384000000004
 20
-183.20000099999999
 30
0.0
 11
48.302384000000004
 21
-186.80000000000001
 31
0.0
  0
LINE
  5
E5
  8
DETAIL
  6
CONTINUOUS
 62
     5
 10
50.602383000000003
 20
-183.20000099999999
 30
0.0
 11
50.602383000000003
 21
-186.79999900000001
 31
0.0
  0
LINE
  5
E6
  8
DETAIL
  6
CONTINUOUS
 62
     5
 10
49.902377999999999
 20
-182.80000699999999
 30
0.0
 11
50.602378000000002
 21
-183.200007
 31
0.0
  0
LINE
  5
E7
  8
DETAIL
  6
CONTINUOUS
 62
     5
 10
42.102384999999991
 20
-182.80000000000001
 30
0.0
 11
49.902382000000003
 21
-182.80000000000001
 31
0.0
  0
LINE
  5
E8
  8
DETAIL
  6
CONTINUOUS
 62
     5
 10
41.402388000000002
 20
-183.200007
 30
0.0
 11
42.102389000000002
 21
-182.80000699999999
 31
0.0
  0
LINE
  5
E9
  8
DETAIL
  6
CONTINUOUS
 62
     5
 10
41.402383999999998
 20
-186.80000100000001
 30
0.0
 11
41.402383999999998
 21
-183.20000099999999
 31
0.0
  0
LINE
  5
EA
  8
DETAIL
  6
CONTINUOUS
 62
     5
 10
50.602384000000001
 20
-186.80000000000001
 30
0.0
 11
41.402383
 21
-186.80000000000001
 31
0.0
  0
LINE
  5
EB
  8
DETAIL
  6
CONTINUOUS
 62
     5
 10
48.502383000000002
 20
-180.400002
 30
0.0
 11
43.502383000000002
 21
-180.400002
 31
0.0
  0
LINE
  5
EC
  8
DETAIL
  6
CONTINUOUS
 62
     5
 10
48.502383000000002
 20
-180.400002
 30
0.0
 11
48.502383000000002
 21
-182.80000200000001
 31
0.0
  0
LINE
  5
ED
  8
DETAIL
  6
CONTINUOUS
 62
     5
 10
43.502383000000002
 20
-180.400002
 30
0.0
 11
43.502383000000002
 21
-182.80000200000001
 31
0.0
  0
ARC
  5
EE
  8
DETAIL
  6
CONTINUOUS
 62
     5
 10
51.632249999999999
 20
-185.59999999999999
 30
0.0
 40
1.1999999999999991
 50
210.882385
 51
270.0
  0
LINE
  5
EF
  8
DETAIL
  6
CONTINUOUS
 62
     5
 10
63.805622999999997
 20
-187.5
 30
0.0
 11
59.80562299999999
 21
-187.5
 31
0.0
  0
LINE
  5
F0
  8
DETAIL
  6
CONTINUOUS
 62
     5
 10
59.305622999999997
 20
-189.0
 30
0.0
 11
59.305622999999997
 21
-188.0
 31
0.0
  0
ARC
  5
F1
  8
DETAIL
  6
CONTINUOUS
 62
     5
 10
59.80562299999999
 20
-188.0
 30
0.0
 40
0.5
 50
90.0
 51
180.0
  0
LINE
  5
F2
  8
DETAIL
  6
CONTINUOUS
 62
     5
 10
65.099999999999994
 20
-189.0
 30
0.0
 11
63.79999999999999
 21
-189.0
 31
0.0
  0
LINE
  5
F3
  8
DETAIL
  6
CONTINUOUS
 62
     5
 10
67.805622999999997
 20
-187.5
 30
0.0
 11
63.805622999999997
 21
-187.5
 31
0.0
  0
LINE
  5
F4
  8
DETAIL
  6
CONTINUOUS
 62
     5
 10
68.305622999999997
 20
-189.0
 30
0.0
 11
68.305622999999997
 21
-188.0
 31
0.0
  0
ARC
  5
F5
  8
DETAIL
  6
CONTINUOUS
 62
     5
 10
67.805622999999997
 20
-188.0
 30
0.0
 40
0.5
 50
0.0
 51
90.0
  0
ARC
  5
F6
  8
DETAIL
  6
CONTINUOUS
 62
     5
 10
124.60973
 20
-151.90877
 30
0.0
 40
40.220351999999998
 50
274.592311
 51
359.87003900000002
  0
ARC
  5
F7
  8
DETAIL
  6
CONTINUOUS
 62
     5
 10
44.232250000000001
 20
-155.34999999999999
 30
0.0
 40
5.7000000000000002
 50
1.765555999999999
 51
90.0
  0
LINE
  5
F8
  8
DETAIL
  6
CONTINUOUS
 62
     5
 10
44.232250000000001
 20
-149.65000000000001
 30
0.0
 11
-44.232250000000001
 21
-149.65000000000001
 31
0.0
  0
LINE
  5
F9
  8
DETAIL
  6
CONTINUOUS
 62
     5
 10
11.346622999999999
 20
-104.65000000000001
 30
0.0
 11
8.7813069999999982
 21
-104.65000000000001
 31
0.0
  0
LINE
  5
FA
  8
DETAIL
  6
CONTINUOUS
 62
     5
 10
69.400000000000006
 20
-217.5
 30
0.0
 11
69.372915000000006
 21
-217.07712699999999
 31
0.0
  0
LINE
  5
FB
  8
DETAIL
  6
CONTINUOUS
 62
     5
 10
69.400000000000006
 20
-192.0
 30
0.0
 11
69.400000000000006
 21
-189.0
 31
0.0
  0
ARC
  5
FC
  8
DETAIL
  6
CONTINUOUS
 62
     5
 10
178.022074
 20
-25.989761000000001
 30
0.0
 40
3.0
 50
90.0
 51
141.44552100000001
  0
LINE
  5
FD
  8
DETAIL
  6
CONTINUOUS
 62
     5
 10
185.30878000000001
 20
-22.989761000000001
 30
0.0
 11
164.17602600000001
 21
-22.989761000000001
 31
0.0
  0
LINE
  5
FE
  8
DETAIL
  6
CONTINUOUS
 62
     5
 10
185.41004000000001
 20
-19.989761000000001
 30
0.0
 11
185.41004000000001
 21
-22.989761000000001
 31
0.0
  0
LINE
  5
FF
  8
DETAIL
  6
CONTINUOUS
 62
     5
 10
168.20784699999999
 20
-19.989761000000001
 30
0.0
 11
168.20784699999999
 21
-22.989761000000001
 31
0.0
  0
LINE
  5
100
  8
DETAIL
  6
CONTINUOUS
 62
     5
 10
164.82997900000001
 20
-19.989761000000001
 30
0.0
 11
164.82997900000001
 21
-22.989761000000001
 31
0.0
  0
LINE
  5
101
  8
NOTE
  6
CONTINUOUS
 62
     4
 10
-217.0
 20
-20.0
 30
0.0
 11
-217.0
 21
20.0
 31
0.0
  0
LINE
  5
102
  8
NOTE
  6
CONTINUOUS
 62
     4
 10
-237.0
 20
0.0
 30
0.0
 11
-197.0
 21
0.0
 31
0.0
  0
LINE
  5
103
  8
NOTE
  6
CONTINUOUS
 62
     4
 10
217.0
 20
-20.0
 30
0.0
 11
217.0
 21
20.0
 31
0.0
  0
LINE
  5
104
  8
NOTE
  6
CONTINUOUS
 62
     4
 10
197.0
 20
0.0
 30
0.0
 11
237.0
 21
0.0
 31
0.0
  0
TEXT
  5
105
  8
NOTE
  6
CONTINUOUS
 62
     4
 10
-533.86916299999984
 20
112.343464
 30
0.0
 40
64.0
  1
4-φ12
 41
0.9
  0
LINE
  5
106
  8
NOTE
  6
CONTINUOUS
 62
     4
 39
50.0
 10
-537.45305399999995
 20
93.606623999999996
 30
0.0
 11
-262.74375800000001
 21
93.606623999999996
 31
0.0
  0
LINE
  5
107
  8
NOTE
  6
CONTINUOUS
 62
     4
 10
-246.985939
 20
26.473448000000001
 30
0.0
 11
-217.0
 21
0.0
 31
0.0
  0
LINE
  5
108
  8
NOTE
  6
CONTINUOUS
 62
     4
 10
-217.0
 20
0.0
 30
0.0
 11
-229.73186100000001
 21
37.919648000000002
 31
0.0
  0
LINE
  5
109
  8
NOTE
  6
CONTINUOUS
 62
     4
 39
50.0
 10
-262.74375800000001
 20
93.606623999999996
 30
0.0
 11
-217.0
 21
0.0
 31
0.0
  0
LINE
  5
10A
  8
BASIS
  6
DASHDOT
 62
     6
 39
100.110011
 10
0.0
 20
-271.35127199999999
 30
-100.110011
 11
0.0
 21
43.351271999999987
 31
-100.110011
  0
LINE
  5
10B
  8
DETAIL
  6
CONTINUOUS
 62
     5
 10
67.849999999999994
 20
-217.0
 30
0.0
 11
67.849999999999994
 21
-192.0
 31
0.0
  0
LINE
  5
10C
  8
DETAIL
  6
CONTINUOUS
 62
     5
 10
233.59999999999999
 20
-5.2000000000000002
 30
0.0
 11
0.0
 21
-5.2000000000000002
 31
0.0
  0
LINE
  5
10D
  8
DETAIL
  6
CONTINUOUS
 62
     5
 10
230.30000000000001
 20
-10.0
 30
0.0
 11
0.0
 21
-10.0
 31
0.0
  0
ARC
  5
10E
  8
DETAIL
  6
CONTINUOUS
 62
     5
 10
233.40000000000001
 20
-1.6000000000000001
 30
0.0
 40
1.6000000000000001
 50
0.0
 51
90.0
  0
ARC
  5
10F
  8
DETAIL
  6
CONTINUOUS
 62
     5
 10
230.30000000000001
 20
-7.5
 30
0.0
 40
2.5
 50
270.0
 51
0.0
  0
LINE
  5
110
  8
DETAIL
  6
CONTINUOUS
 62
     5
 10
232.80000000000001
 20
-5.2000000000000002
 30
0.0
 11
232.80000000000001
 21
-7.5
 31
0.0
  0
ARC
  5
111
  8
DETAIL
  6
CONTINUOUS
 62
     5
 10
233.59999999999999
 20
-4.4000000000000004
 30
0.0
 40
0.8
 50
270.0
 51
348.24116400000003
  0
LINE
  5
112
  8
DETAIL
  6
CONTINUOUS
 62
     5
 10
235.0
 20
-1.6000000000000001
 30
0.0
 11
234.38321099999999
 21
-4.563034
 31
0.0
  0
LINE
  5
117
  8
DETAIL
  6
CONTINUOUS
 62
     5
 10
0.0
 20
0.0
 30
0.0
 11
233.40000000000001
 21
0.0
 31
0.0
  0
LINE
  5
118
  8
DETAIL
  6
CONTINUOUS
 62
     5
 10
127.82997899999999
 20
-192.0
 30
0.0
 11
70.171701999999996
 21
-192.0
 31
0.0
  0
LINE
  5
119
  8
DETAIL
  6
CONTINUOUS
 62
     5
 10
120.30878
 20
-217.0
 30
0.0
 11
69.400000000000006
 21
-217.0
 31
0.0
  0
LINE
  5
11A
  8
DETAIL
  6
CONTINUOUS
 62
     5
 10
0.0
 20
0.0
 30
0.0
 11
-208.40000000000001
 21
0.0
 31
0.0
  0
LINE
  5
11B
  8
DETAIL
  6
CONTINUOUS
 62
     5
 10
0.0
 20
0.0
 30
0.0
 11
-233.40000000000001
 21
0.0
 31
0.0
  0
LINE
  5
11C
  8
DETAIL
  6
CONTINUOUS
 62
     5
 10
-233.59999999999999
 20
-5.2000000000000002
 30
0.0
 11
0.0
 21
-5.2000000000000002
 31
0.0
  0
LINE
  5
11D
  8
DETAIL
  6
CONTINUOUS
 62
     5
 10
-230.30000000000001
 20
-10.0
 30
0.0
 11
0.0
 21
-10.0
 31
0.0
  0
LINE
  5
11E
  8
DETAIL
  6
CONTINUOUS
 62
     5
 10
-194.22602599999999
 20
-19.989761000000001
 30
0.0
 11
0.0
 21
-19.989761000000001
 31
0.0
  0
LINE
  5
11F
  8
DETAIL
  6
CONTINUOUS
 62
     5
 10
-164.82997900000001
 20
-70.0
 30
0.0
 11
0.0
 21
-70.0
 31
0.0
  0
LINE
  5
120
  8
DETAIL
  6
CONTINUOUS
 62
     5
 10
0.0
 20
-66.0
 30
0.0
 11
-164.82997900000001
 21
-66.0
 31
0.0
  0
LINE
  5
121
  8
DETAIL
  6
CONTINUOUS
 62
     5
 10
0.575167
 20
-171.63549599999999
 30
0.0
 11
-31.469999999999999
 21
-171.63691800000001
 31
0.0
  0
LINE
  5
122
  8
DETAIL
  6
CONTINUOUS
 62
     5
 10
0.0
 20
-172.50294400000001
 30
0.0
 11
-31.969999999999999
 21
-172.50294400000001
 31
0.0
  0
LINE
  5
123
  8
DETAIL
  6
CONTINUOUS
 62
     5
 10
0.0
 20
-222.09999999999999
 30
0.0
 11
-68.032250000000005
 21
-222.09999999999999
 31
0.0
  0
LINE
  5
124
  8
DETAIL
  6
CONTINUOUS
 62
     5
 10
-56.697172000000002
 20
-228.0
 30
0.0
 11
0.0
 21
-228.0
 31
0.0
  0
LINE
  5
125
  8
DETAIL
  6
CONTINUOUS
 62
     5
 10
-49.232250000000001
 20
-211.5
 30
0.0
 11
0.0
 21
-211.5
 31
0.0
  0
LINE
  5
126
  8
DETAIL
  6
CONTINUOUS
 62
     5
 10
0.0
 20
-192.0
 30
0.0
 11
-68.103952000000007
 21
-192.0
 31
0.0
  0
LINE
  5
127
  8
DETAIL
  6
CONTINUOUS
 62
     5
 10
-43.702249999999999
 20
-186.80000000000001
 30
0.0
 11
0.0
 21
-186.80000000000001
 31
0.0
  0
LINE
  5
128
  8
DETAIL
  6
CONTINUOUS
 62
     5
 10
-48.779665999999999
 20
-171.634073
 30
0.0
 11
0.575167
 21
-171.63549599999999
 31
0.0
  0
LINE
  5
129
  8
DETAIL
  6
CONTINUOUS
 62
     5
 10
-48.779809
 20
-172.500181
 30
0.0
 11
0.0
 21
-172.50294400000001
 31
0.0
  0
LINE
  5
12A
  8
DETAIL
  6
CONTINUOUS
 62
     5
 10
-55.232250000000001
 20
-188.0
 30
0.0
 11
0.0
 21
-188.0
 31
0.0
  0
LINE
  5
12B
  8
DETAIL
  6
CONTINUOUS
 62
     5
 10
0.9322499999999999
 20
-189.0
 30
0.0
 11
-69.400000000000006
 21
-189.0
 31
0.0
  0
LINE
  5
12C
  8
DETAIL
  6
CONTINUOUS
 62
     5
 10
0.0
 20
-192.0
 30
0.0
 11
-68.103952000000007
 21
-192.0
 31
0.0
  0
LINE
  5
12D
  8
DETAIL
  6
CONTINUOUS
 62
     5
 10
0.0
 20
0.0
 30
0.0
 11
208.40000000000001
 21
0.0
 31
0.0
  0
ARC
  5
12E
  8
DETAIL
  6
CONTINUOUS
 62
     5
 10
-233.40000000000001
 20
-1.6000000000000001
 30
0.0
 40
1.6000000000000001
 50
90.0
 51
180.0
  0
ARC
  5
12F
  8
DETAIL
  6
CONTINUOUS
 62
     5
 10
-230.30000000000001
 20
-7.5
 30
0.0
 40
2.5
 50
180.0
 51
270.0
  0
ARC
  5
130
  8
DETAIL
  6
CONTINUOUS
 62
     5
 10
-120.30878
 20
-152.0
 30
0.0
 40
65.0
 50
180.0
 51
270.0
  0
ARC
  5
131
  8
DETAIL
  6
CONTINUOUS
 62
     5
 10
-122.029509
 20
-152.0
 30
0.0
 40
65.0
 50
180.0
 51
270.0
  0
LINE
  5
132
  8
DETAIL
  6
CONTINUOUS
 62
     5
 10
-67.849999999999994
 20
-217.0
 30
0.0
 11
-67.849999999999994
 21
-192.0
 31
0.0
  0
LINE
  5
133
  8
DETAIL
  6
CONTINUOUS
 62
     5
 10
-120.30878
 20
-217.0
 30
0.0
 11
-69.400000000000006
 21
-217.0
 31
0.0
  0
LINE
  5
134
  8
DETAIL
  6
CONTINUOUS
 62
     5
 10
-57.722582999999993
 20
-222.09999999999999
 30
0.0
 11
-67.799999999999997
 21
-222.09999999999999
 31
0.0
  0
LINE
  5
135
  8
DETAIL
  6
CONTINUOUS
 62
     5
 10
-53.527124000000001
 20
-217.0
 30
0.0
 11
-69.400000000000006
 21
-217.0
 31
0.0
  0
LINE
  5
136
  8
DETAIL
  6
CONTINUOUS
 62
     5
 10
-69.400000000000006
 20
-217.5
 30
0.0
 11
-54.232250000000001
 21
-217.5
 31
0.0
  0
LINE
  5
137
  8
DETAIL
  6
CONTINUOUS
 62
     5
 10
-52.232250000000001
 20
-215.5
 30
0.0
 11
-52.232250000000001
 21
-214.5
 31
0.0
  0
ARC
  5
138
  8
DETAIL
  6
CONTINUOUS
 62
     5
 10
-49.232250000000001
 20
-214.5
 30
0.0
 40
3.0
 50
90.0
 51
180.0
  0
LINE
  5
139
  8
DETAIL
  6
CONTINUOUS
 62
     5
 10
-64.353149999999999
 20
-222.87146000000001
 30
0.0
 11
-59.559394999999988
 21
-226.774947
 31
0.0
  0
ARC
  5
13A
  8
DETAIL
  6
CONTINUOUS
 62
     5
 10
-55.337125
 20
-220.86619300000001
 30
0.0
 40
7.2622949999999991
 50
234.45120800000001
 51
259.54605199999997
  0
ARC
  5
13B
  8
DETAIL
  6
CONTINUOUS
 62
     5
 10
-66.534843000000009
 20
-225.569862
 30
0.0
 40
3.470037
 50
51.044024
 51
89.424681000000007
  0
ARC
  5
13C
  8
DETAIL
  6
CONTINUOUS
 62
     5
 10
-54.232250000000001
 20
-215.5
 30
0.0
 40
2.0
 50
270.0
 51
0.0
  0
ARC
  5
13D
  8
DETAIL
  6
CONTINUOUS
 62
     5
 10
-67.799999999999997
 20
-220.5
 30
0.0
 40
1.6000000000000001
 50
180.0
 51
270.0
  0
LINE
  5
13E
  8
DETAIL
  6
CONTINUOUS
 62
     5
 10
-61.100000000000001
 20
-217.0
 30
0.0
 11
-65.303482999999986
 21
-217.0
 31
0.0
  0
LINE
  5
13F
  8
DETAIL
  6
CONTINUOUS
 62
     5
 10
-69.400000000000006
 20
-217.5
 30
0.0
 11
-69.400000000000006
 21
-220.5
 31
0.0
  0
LINE
  5
140
  8
DETAIL
  6
CONTINUOUS
 62
     5
 10
-69.400000000000006
 20
-217.5
 30
0.0
 11
-69.372915000000006
 21
-217.07712699999999
 31
0.0
  0
LINE
  5
141
  8
DETAIL
  6
CONTINUOUS
 62
     5
 10
-127.82997899999999
 20
-192.0
 30
0.0
 11
-70.171701999999996
 21
-192.0
 31
0.0
  0
LINE
  5
142
  8
DETAIL
  6
CONTINUOUS
 62
     5
 10
-4.075213999999999
 20
-95.290515999999997
 30
0.0
 11
-4.0265859999999991
 21
-70.0
 31
0.0
  0
LINE
  5
143
  8
DETAIL
  6
CONTINUOUS
 62
     5
 10
-59.482250000000001
 20
-188.0
 30
0.0
 11
-11.18225
 21
-188.0
 31
0.0
  0
LINE
  5
144
  8
DETAIL
  6
CONTINUOUS
 62
     5
 10
-59.482250000000001
 20
-186.80000000000001
 30
0.0
 11
-51.632249999999999
 21
-186.80000000000001
 31
0.0
  0
LINE
  5
145
  8
DETAIL
  6
CONTINUOUS
 62
     5
 10
-0.65225
 20
-186.80000000000001
 30
0.0
 11
-42.402250000000002
 21
-186.80000000000001
 31
0.0
  0
LINE
  5
146
  8
DETAIL
  6
CONTINUOUS
 62
     5
 10
-9.2322500000000005
 20
-189.0
 30
0.0
 11
-55.232250000000001
 21
-189.0
 31
0.0
  0
LINE
  5
147
  8
DETAIL
  6
CONTINUOUS
 62
     5
 10
-49.930896999999987
 20
-163.40565100000001
 30
0.0
 11
-49.932250000000003
 21
-171.63691800000001
 31
0.0
  0
LINE
  5
148
  8
DETAIL
  6
CONTINUOUS
 62
     5
 10
-54.232250000000001
 20
-186.80000000000001
 30
0.0
 11
-51.632249999999999
 21
-186.80000000000001
 31
0.0
  0
LINE
  5
149
  8
DETAIL
  6
CONTINUOUS
 62
     5
 10
-55.732250000000001
 20
-186.80000000000001
 30
0.0
 11
-55.732250000000001
 21
-185.0
 31
0.0
  0
ARC
  5
14A
  8
DETAIL
  6
CONTINUOUS
 62
     5
 10
-55.232250000000001
 20
-187.5
 30
0.0
 40
1.5
 50
199.4712209999999
 51
270.0
  0
LINE
  5
14B
  8
DETAIL
  6
CONTINUOUS
 62
     5
 10
-56.732250000000001
 20
-186.80000000000001
 30
0.0
 11
-56.732250000000001
 21
-185.0
 31
0.0
  0
LINE
  5
14C
  8
DETAIL
  6
CONTINUOUS
 62
     5
 10
-55.732250000000001
 20
-185.0
 30
0.0
 11
-56.732250000000001
 21
-185.0
 31
0.0
  0
LINE
  5
14D
  8
DETAIL
  6
CONTINUOUS
 62
     5
 10
-50.432250000000003
 20
-172.50294400000001
 30
0.0
 11
-50.432250000000003
 21
-183.102791
 31
0.0
  0
LINE
  5
14E
  8
DETAIL
  6
CONTINUOUS
 62
     5
 10
-50.432250000000003
 20
-172.50294400000001
 30
0.0
 11
-49.932250000000003
 21
-171.63691800000001
 31
0.0
  0
ARC
  5
14F
  8
DETAIL
  6
CONTINUOUS
 62
     5
 10
-42.552384999999987
 20
-184.65313599999999
 30
0.0
 40
1.8531329999999999
 50
89.999981999999974
 51
128.35766899999999
  0
ARC
  5
150
  8
DETAIL
  6
CONTINUOUS
 62
     5
 10
-46.002383000000002
 20
-189.61250000000001
 30
0.0
 40
6.8124979999999988
 50
70.268330000000006
 51
109.731579
  0
ARC
  5
151
  8
DETAIL
  6
CONTINUOUS
 62
     5
 10
-49.452382
 20
-184.65313800000001
 30
0.0
 40
1.8531349999999991
 50
51.642265000000002
 51
89.999981999999974
  0
LINE
  5
152
  8
DETAIL
  6
CONTINUOUS
 62
     5
 10
-43.702382999999998
 20
-183.20000099999999
 30
0.0
 11
-43.702382999999998
 21
-186.80000000000001
 31
0.0
  0
LINE
  5
153
  8
DETAIL
  6
CONTINUOUS
 62
     5
 10
-48.302384000000004
 20
-183.20000099999999
 30
0.0
 11
-48.302384000000004
 21
-186.80000000000001
 31
0.0
  0
LINE
  5
154
  8
DETAIL
  6
CONTINUOUS
 62
     5
 10
-50.602383000000003
 20
-183.20000099999999
 30
0.0
 11
-50.602383000000003
 21
-186.79999900000001
 31
0.0
  0
LINE
  5
155
  8
DETAIL
  6
CONTINUOUS
 62
     5
 10
-49.902377999999999
 20
-182.80000699999999
 30
0.0
 11
-50.602378000000002
 21
-183.200007
 31
0.0
  0
LINE
  5
156
  8
DETAIL
  6
CONTINUOUS
 62
     5
 10
-42.102384999999991
 20
-182.80000000000001
 30
0.0
 11
-49.902382000000003
 21
-182.80000000000001
 31
0.0
  0
LINE
  5
157
  8
DETAIL
  6
CONTINUOUS
 62
     5
 10
-41.402388000000002
 20
-183.200007
 30
0.0
 11
-42.102389000000002
 21
-182.80000699999999
 31
0.0
  0
LINE
  5
158
  8
DETAIL
  6
CONTINUOUS
 62
     5
 10
-41.402383999999998
 20
-186.80000100000001
 30
0.0
 11
-41.402383999999998
 21
-183.20000099999999
 31
0.0
  0
LINE
  5
159
  8
DETAIL
  6
CONTINUOUS
 62
     5
 10
-50.602384000000001
 20
-186.80000000000001
 30
0.0
 11
-41.402383
 21
-186.80000000000001
 31
0.0
  0
LINE
  5
15A
  8
DETAIL
  6
CONTINUOUS
 62
     5
 10
-48.502383000000002
 20
-180.400002
 30
0.0
 11
-43.502383000000002
 21
-180.400002
 31
0.0
  0
LINE
  5
15B
  8
DETAIL
  6
CONTINUOUS
 62
     5
 10
-48.502383000000002
 20
-180.400002
 30
0.0
 11
-48.502383000000002
 21
-182.80000200000001
 31
0.0
  0
LINE
  5
15C
  8
DETAIL
  6
CONTINUOUS
 62
     5
 10
-43.502383000000002
 20
-180.400002
 30
0.0
 11
-43.502383000000002
 21
-182.80000200000001
 31
0.0
  0
ARC
  5
15D
  8
DETAIL
  6
CONTINUOUS
 62
     5
 10
-51.632249999999999
 20
-185.59999999999999
 30
0.0
 40
1.1999999999999991
 50
270.0
 51
329.117615
  0
ARC
  5
15E
  8
DETAIL
  6
CONTINUOUS
 62
     5
 10
-44.232250000000001
 20
-155.34999999999999
 30
0.0
 40
5.7000000000000002
 50
90.0
 51
178.234444
  0
LINE
  5
15F
  8
DETAIL
  6
CONTINUOUS
 62
     5
 10
-44.232250000000001
 20
-149.65000000000001
 30
0.0
 11
-36.493912999999999
 21
-149.48857100000001
 31
0.0
  0
LINE
  5
160
  8
DETAIL
  6
CONTINUOUS
 62
     5
 10
-4.075213999999999
 20
-95.290515999999997
 30
0.0
 11
-4.060327
 21
-98.851291000000003
 31
0.0
  0
LINE
  5
161
  8
DETAIL
  6
CONTINUOUS
 62
     5
 10
-58.650326
 20
-192.0
 30
0.0
 11
-70.171701999999996
 21
-192.0
 31
0.0
  0
LINE
  5
162
  8
DETAIL
  6
CONTINUOUS
 62
     5
 10
-59.482250000000001
 20
-188.0
 30
0.0
 11
-59.482250000000001
 21
-186.80000000000001
 31
0.0
  0
LINE
  5
163
  8
DETAIL
  6
CONTINUOUS
 62
     5
 10
-63.805622999999997
 20
-187.5
 30
0.0
 11
-59.80562299999999
 21
-187.5
 31
0.0
  0
LINE
  5
164
  8
DETAIL
  6
CONTINUOUS
 62
     5
 10
-59.305622999999997
 20
-189.0
 30
0.0
 11
-59.305622999999997
 21
-188.0
 31
0.0
  0
ARC
  5
165
  8
DETAIL
  6
CONTINUOUS
 62
     5
 10
-59.80562299999999
 20
-188.0
 30
0.0
 40
0.5
 50
0.0
 51
90.0
  0
LINE
  5
166
  8
DETAIL
  6
CONTINUOUS
 62
     5
 10
-65.099999999999994
 20
-189.0
 30
0.0
 11
-63.79999999999999
 21
-189.0
 31
0.0
  0
LINE
  5
167
  8
DETAIL
  6
CONTINUOUS
 62
     5
 10
-67.805622999999997
 20
-187.5
 30
0.0
 11
-63.805622999999997
 21
-187.5
 31
0.0
  0
LINE
  5
168
  8
DETAIL
  6
CONTINUOUS
 62
     5
 10
-68.305622999999997
 20
-189.0
 30
0.0
 11
-68.305622999999997
 21
-188.0
 31
0.0
  0
ARC
  5
169
  8
DETAIL
  6
CONTINUOUS
 62
     5
 10
-67.805622999999997
 20
-188.0
 30
0.0
 40
0.5
 50
90.0
 51
180.0
  0
LINE
  5
16A
  8
DETAIL
  6
CONTINUOUS
 62
     5
 10
-69.400000000000006
 20
-192.0
 30
0.0
 11
-69.400000000000006
 21
-189.0
 31
0.0
  0
LINE
  5
16B
  8
DETAIL
  6
CONTINUOUS
 62
     5
 10
-164.82997900000001
 20
-94.0
 30
0.0
 11
-164.82997900000001
 21
-50.0
 31
0.0
  0
LINE
  5
16C
  8
DETAIL
  6
CONTINUOUS
 62
     5
 10
-187.02950899999999
 20
-152.0
 30
0.0
 11
-187.02950899999999
 21
-19.989761000000001
 31
0.0
  0
LINE
  5
16D
  8
DETAIL
  6
CONTINUOUS
 62
     5
 10
-185.30878000000001
 20
-152.0
 30
0.0
 11
-185.30878000000001
 21
-19.989761000000001
 31
0.0
  0
LINE
  5
16E
  8
DETAIL
  6
CONTINUOUS
 62
     5
 10
-164.82997900000001
 20
-152.0
 30
0.0
 11
-164.82997900000001
 21
-27.989758999999999
 31
0.0
  0
ARC
  5
16F
  8
DETAIL
  6
CONTINUOUS
 62
     5
 10
-124.60973
 20
-151.90877
 30
0.0
 40
40.220351999999998
 50
180.12996100000001
 51
265.407689
  0
LINE
  5
170
  8
DETAIL
  6
CONTINUOUS
 62
     5
 10
-174.82602499999999
 20
-27.989758999999999
 30
0.0
 11
-165.026028
 21
-27.989758999999999
 31
0.0
  0
LINE
  5
171
  8
DETAIL
  6
CONTINUOUS
 62
     5
 10
-164.176027
 20
-22.989761000000001
 30
0.0
 11
-175.67602600000001
 21
-22.989761000000001
 31
0.0
  0
LINE
  5
172
  8
DETAIL
  6
CONTINUOUS
 62
     5
 10
-153.950861
 20
-19.989761000000001
 30
0.0
 11
-181.02950899999999
 21
-19.989761000000001
 31
0.0
  0
ARC
  5
173
  8
DETAIL
  6
CONTINUOUS
 62
     5
 10
-174.23852600000001
 20
-25.673355000000001
 30
0.0
 40
2.3164060000000002
 50
270.0
 51
308.35799700000001
  0
LINE
  5
174
  8
DETAIL
  6
CONTINUOUS
 62
     5
 10
-185.30878000000001
 20
-22.989761000000001
 30
0.0
 11
-164.17602600000001
 21
-22.989761000000001
 31
0.0
  0
ARC
  5
175
  8
DETAIL
  6
CONTINUOUS
 62
     5
 10
-165.61352600000001
 20
-25.673355000000001
 30
0.0
 40
2.3164060000000002
 50
231.64194699999999
 51
270.0
  0
LINE
  5
176
  8
DETAIL
  6
CONTINUOUS
 62
     5
 10
-172.80102500000001
 20
-22.989761000000001
 30
0.0
 11
-172.80102500000001
 21
-27.489761000000001
 31
0.0
  0
ARC
  5
177
  8
DETAIL
  6
CONTINUOUS
 62
     5
 10
-169.92602600000001
 20
-19.474136000000001
 30
0.0
 40
8.515625
 50
250.26832999999999
 51
289.73157900000001
  0
LINE
  5
178
  8
DETAIL
  6
CONTINUOUS
 62
     5
 10
-167.05102600000001
 20
-22.989761000000001
 30
0.0
 11
-167.05102600000001
 21
-27.489761000000001
 31
0.0
  0
LINE
  5
179
  8
DETAIL
  6
CONTINUOUS
 62
     5
 10
-164.17602600000001
 20
-27.489761000000001
 30
0.0
 11
-164.17602600000001
 21
-22.989761000000001
 31
0.0
  0
LINE
  5
17A
  8
DETAIL
  6
CONTINUOUS
 62
     5
 10
-165.02602200000001
 20
-27.989771000000001
 30
0.0
 11
-164.17602199999999
 21
-27.489771000000001
 31
0.0
  0
ARC
  5
17B
  8
DETAIL
  6
DASHED
 62
     5
 10
-167.5
 20
-12.5
 30
0.0
 40
2.5
 50
84.812775999999999
 51
90.0
  0
ARC
  5
17C
  8
DETAIL
  6
DASHED
 62
     5
 10
-166.696091
 20
-12.5
 30
0.0
 40
2.5
 50
88.564402999999999
 51
90.0
  0
LINE
  5
17D
  8
DETAIL
  6
CONTINUOUS
 62
     5
 10
-168.20784699999999
 20
-19.989761000000001
 30
0.0
 11
-168.20784699999999
 21
-22.989761000000001
 31
0.0
  0
LINE
  5
17E
  8
DETAIL
  6
CONTINUOUS
 62
     5
 10
-164.82997900000001
 20
-19.989761000000001
 30
0.0
 11
-164.82997900000001
 21
-22.989761000000001
 31
0.0
  0
LINE
  5
17F
  8
DETAIL
  6
CONTINUOUS
 62
     5
 10
-175.67603099999999
 20
-27.489771000000001
 30
0.0
 11
-174.826031
 21
-27.989771000000001
 31
0.0
  0
LINE
  5
180
  8
DETAIL
  6
CONTINUOUS
 62
     5
 10
-175.67602600000001
 20
-22.989761000000001
 30
0.0
 11
-175.67602600000001
 21
-27.489761000000001
 31
0.0
  0
ARC
  5
181
  8
DETAIL
  6
DASHED
 62
     5
 10
-174.82602600000001
 20
-29.989761000000001
 30
0.0
 40
10.0
 50
89.883752999999984
 51
90.0
  0
LINE
  5
182
  8
DETAIL
  6
CONTINUOUS
 62
     5
 10
-195.92211699999999
 20
-12.489761
 30
0.0
 11
-195.92211699999999
 21
-17.489761000000001
 31
0.0
  0
LINE
  5
183
  8
DETAIL
  6
CONTINUOUS
 62
     5
 10
-196.72602599999999
 20
-12.489761
 30
0.0
 11
-196.72602599999999
 21
-17.489761000000001
 31
0.0
  0
ARC
  5
184
  8
DETAIL
  6
CONTINUOUS
 62
     5
 10
-199.22602599999999
 20
-12.489761
 30
0.0
 40
2.5
 50
0.0
 51
84.812775999999999
  0
ARC
  5
185
  8
DETAIL
  6
CONTINUOUS
 62
     5
 10
-198.42211699999999
 20
-12.489761
 30
0.0
 40
2.5
 50
0.0
 51
88.564402999999999
  0
ARC
  5
186
  8
DETAIL
  6
CONTINUOUS
 62
     5
 10
-193.42211699999999
 20
-17.489761000000001
 30
0.0
 40
2.5
 50
180.0
 51
269.99999700000001
  0
ARC
  5
187
  8
DETAIL
  6
CONTINUOUS
 62
     5
 10
-194.22602599999999
 20
-17.489761000000001
 30
0.0
 40
2.5
 50
180.0
 51
270.0
  0
ARC
  5
188
  8
DETAIL
  6
CONTINUOUS
 62
     5
 10
-178.022074
 20
-25.989761000000001
 30
0.0
 40
3.0
 50
38.554479000000001
 51
90.0
  0
LINE
  5
189
  8
DETAIL
  6
CONTINUOUS
 62
     5
 10
-185.41004000000001
 20
-19.989761000000001
 30
0.0
 11
-185.41004000000001
 21
-22.989761000000001
 31
0.0
  0
LINE
  5
18A
  8
DETAIL
  6
CONTINUOUS
 62
     5
 10
-232.80000000000001
 20
-5.2000000000000002
 30
0.0
 11
-232.80000000000001
 21
-7.5
 31
0.0
  0
ARC
  5
18B
  8
DETAIL
  6
CONTINUOUS
 62
     5
 10
-233.59999999999999
 20
-4.4000000000000004
 30
0.0
 40
0.8
 50
191.758836
 51
270.0
  0
LINE
  5
18C
  8
DETAIL
  6
CONTINUOUS
 62
     5
 10
-235.0
 20
-1.6000000000000001
 30
0.0
 11
-234.38321099999999
 21
-4.563034
 31
0.0
  0
LINE
  5
18D
  8
DETAIL
  6
CONTINUOUS
 62
     5
 10
50.814728000000002
 20
-88.785893999999999
 30
0.0
 11
74.286167000000006
 21
-76.418988999999996
 31
0.0
  0
LINE
  5
18E
  8
DETAIL
  6
CONTINUOUS
 62
     5
 10
-128.667428
 20
-107.50604800000001
 30
0.0
 11
-95.500497999999993
 21
-118.995651
 31
0.0
  0
LINE
  5
18F
  8
DETAIL
  6
CONTINUOUS
 62
     5
 10
-146.315224
 20
-88.785884999999993
 30
0.0
 11
-148.572328
 21
-76.418993
 31
0.0
  0
LINE
  5
190
  8
DETAIL
  6
CONTINUOUS
 62
     5
 10
-148.57228699999999
 20
-76.418994999999995
 30
0.0
 11
-147.443736
 21
-69.089425000000006
 31
0.0
  0
LINE
  5
191
  8
DETAIL
  6
CONTINUOUS
 62
     5
 10
-139.61226500000001
 20
-99.115208999999993
 30
0.0
 11
-128.66744
 21
-107.505995
 31
0.0
  0
LINE
  5
192
  8
DETAIL
  6
CONTINUOUS
 62
     5
 10
-146.31523799999999
 20
-88.785882999999998
 30
0.0
 11
-139.61228
 21
-99.115215000000006
 31
0.0
  0
LINE
  5
193
  8
DETAIL
  6
CONTINUOUS
 62
     5
 10
-0.000009
 20
-107.505983
 30
0.0
 11
-25.799275999999999
 21
-114.09976899999999
 31
0.0
  0
LINE
  5
194
  8
DETAIL
  6
CONTINUOUS
 62
     5
 10
-40.623018999999999
 20
-114.411083
 30
0.0
 11
-22.041846
 21
-107.647513
 31
0.0
  0
LINE
  5
195
  8
DETAIL
  6
CONTINUOUS
 62
     5
 10
-73.42751899999999
 20
-84.470223999999988
 30
0.0
 11
-82.353049999999996
 21
-92.677062000000006
 31
0.0
  0
LINE
  5
196
  8
DETAIL
  6
CONTINUOUS
 62
     5
 10
-55.586054000000011
 20
-70.0
 30
0.0
 11
-62.228785000000002
 21
-75.810626999999997
 31
0.0
  0
LINE
  5
197
  8
DETAIL
  6
CONTINUOUS
 62
     5
 10
-62.228794999999998
 20
-75.810574000000003
 30
0.0
 11
-73.427516999999995
 21
-84.470201000000003
 31
0.0
  0
LINE
  5
198
  8
DETAIL
  6
CONTINUOUS
 62
     5
 10
-25.799295000000001
 20
-114.09980400000001
 30
0.0
 11
-50.814700000000002
 21
-118.995626
 31
0.0
  0
LINE
  5
199
  8
DETAIL
  6
CONTINUOUS
 62
     5
 10
-61.824195999999993
 20
-120.679402
 30
0.0
 11
-40.623013
 21
-114.411073
 31
0.0
  0
LINE
  5
19A
  8
DETAIL
  6
CONTINUOUS
 62
     5
 10
-95.500497999999993
 20
-118.995634
 30
0.0
 11
-86.086292000000014
 21
-120.679438
 31
0.0
  0
LINE
  5
19B
  8
DETAIL
  6
CONTINUOUS
 62
     5
 10
-88.474126999999996
 20
-100.402824
 30
0.0
 11
-91.374376999999996
 21
-107.64751099999999
 31
0.0
  0
LINE
  5
19C
  8
DETAIL
  6
CONTINUOUS
 62
     5
 10
-90.658764999999988
 20
-114.411079
 30
0.0
 11
-86.086290999999989
 21
-120.679401
 31
0.0
  0
LINE
  5
19D
  8
DETAIL
  6
CONTINUOUS
 62
     5
 10
-91.374328000000006
 20
-107.647493
 30
0.0
 11
-90.658784999999995
 21
-114.41108800000001
 31
0.0
  0
LINE
  5
19E
  8
DETAIL
  6
CONTINUOUS
 62
     5
 10
-50.814703000000002
 20
-118.995614
 30
0.0
 11
-61.824197999999988
 21
-120.679416
 31
0.0
  0
LINE
  5
19F
  8
DETAIL
  6
CONTINUOUS
 62
     5
 10
-82.35300500000001
 20
-92.677065999999996
 30
0.0
 11
-88.474058999999997
 21
-100.40281299999999
 31
0.0
  0
LINE
  5
1A0
  8
DETAIL
  6
CONTINUOUS
 62
     5
 10
5.7109800000000002
 20
-92.677051000000006
 30
0.0
 11
14.382503
 21
-84.470185000000001
 31
0.0
  0
LINE
  5
1A1
  8
DETAIL
  6
CONTINUOUS
 62
     5
 10
14.382509000000001
 20
-84.470206999999988
 30
0.0
 11
19.433046000000001
 21
-75.810578000000007
 31
0.0
  0
LINE
  5
1A2
  8
DETAIL
  6
CONTINUOUS
 62
     5
 10
19.433032999999998
 20
-75.810579000000004
 30
0.0
 11
21.902225999999999
 21
-70.0
 31
0.0
  0
LINE
  5
1A3
  8
DETAIL
  6
CONTINUOUS
 62
     5
 10
25.799313000000001
 20
-99.115206000000015
 30
0.0
 11
50.814731000000002
 21
-88.785880999999989
 31
0.0
  0
LINE
  5
1A4
  8
DETAIL
  6
CONTINUOUS
 62
     5
 10
-22.041846
 20
-107.647487
 30
0.0
 11
-6.5156510000000001
 21
-100.4028
 31
0.0
  0
LINE
  5
1A5
  8
DETAIL
  6
CONTINUOUS
 62
     5
 10
-6.515642999999999
 20
-100.402756
 30
0.0
 11
5.7109540000000001
 21
-92.677015999999995
 31
0.0
  0
LINE
  5
1A6
  8
DETAIL
  6
CONTINUOUS
 62
     5
 10
25.799316000000001
 20
-99.115188000000003
 30
0.0
 11
-0.000027
 21
-107.505976
 31
0.0
  0
LINE
  5
1A7
  8
DETAIL
  6
CONTINUOUS
 62
     5
 10
139.61230900000001
 20
-114.099755
 30
0.0
 11
146.31519499999999
 21
-118.995555
 31
0.0
  0
LINE
  5
1A8
  8
DETAIL
  6
CONTINUOUS
 62
     5
 10
131.28179299999999
 20
-114.41106000000001
 30
0.0
 11
147.91050799999999
 21
-120.67938700000001
 31
0.0
  0
LINE
  5
1A9
  8
DETAIL
  6
CONTINUOUS
 62
     5
 10
76.642071000000001
 20
-92.677047000000016
 30
0.0
 11
59.024065
 21
-84.46051700000001
 31
0.0
  0
LINE
  5
1AA
  8
DETAIL
  6
CONTINUOUS
 62
     5
 10
74.286169999999998
 20
-76.418944999999994
 30
0.0
 11
95.500468999999995
 21
-88.785875000000004
 31
0.0
  0
LINE
  5
1AB
  8
DETAIL
  6
CONTINUOUS
 62
     5
 10
83.575558999999984
 20
-70.0
 30
0.0
 11
74.286160999999993
 21
-76.41900600000001
 31
0.0
  0
LINE
  5
1AC
  8
DETAIL
  6
CONTINUOUS
 62
     5
 10
59.045008000000003
 20
-84.470206999999988
 30
0.0
 11
59.024065
 21
-84.460513000000006
 31
0.0
  0
LINE
  5
1AD
  8
DETAIL
  6
CONTINUOUS
 62
     5
 10
113.813014
 20
-99.115174999999994
 30
0.0
 11
128.66742199999999
 21
-107.505966
 31
0.0
  0
LINE
  5
1AE
  8
DETAIL
  6
CONTINUOUS
 62
     5
 10
94.989735999999994
 20
-100.402782
 30
0.0
 11
113.416177
 21
-107.647471
 31
0.0
  0
LINE
  5
1AF
  8
DETAIL
  6
CONTINUOUS
 62
     5
 10
113.416166
 20
-107.64751699999999
 30
0.0
 11
131.28180499999999
 21
-114.411096
 31
0.0
  0
LINE
  5
1B0
  8
DETAIL
  6
CONTINUOUS
 62
     5
 10
76.642061999999996
 20
-92.677080000000004
 30
0.0
 11
94.989742000000007
 21
-100.402835
 31
0.0
  0
LINE
  5
1B1
  8
DETAIL
  6
CONTINUOUS
 62
     5
 10
95.500468999999995
 20
-88.785890000000009
 30
0.0
 11
113.81301000000001
 21
-99.115211000000016
 31
0.0
  0
LINE
  5
1B2
  8
DETAIL
  6
CONTINUOUS
 62
     5
 10
128.66741200000001
 20
-107.505965
 30
0.0
 11
139.61230399999999
 21
-114.099772
 31
0.0
  0
LINE
  5
1B3
  8
DETAIL
  6
CONTINUOUS
 62
     5
 10
146.31519599999999
 20
-118.995583
 30
0.0
 11
147.91054
 21
-120.679406
 31
0.0
  0
LINE
  5
1B4
  8
DETAIL
  6
CONTINUOUS
 62
     5
 10
-49.929544
 20
-155.174384
 30
0.0
 11
-49.930559000000002
 21
-161.34783400000001
 31
0.0
  0
LINE
  5
1B5
  8
SIZE
  6
CONTINUOUS
 62
    30
 10
235.0
 20
18.399999999999999
 30
0.0
 11
235.0
 21
210.72127399999999
 31
0.0
  0
LINE
  5
1B6
  8
SIZE
  6
CONTINUOUS
 62
    30
 10
-235.0
 20
18.399999999999999
 30
0.0
 11
-235.0
 21
210.72127399999999
 31
0.0
  0
LINE
  5
1B7
  8
SIZE
  6
CONTINUOUS
 62
    30
 10
233.0
 20
180.72127399999999
 30
0.0
 11
-233.0
 21
180.72127399999999
 31
0.0
  0
CIRCLE
  5
1B8
  8
SIZE
  6
CONTINUOUS
 62
    30
 10
235.0
 20
180.72127399999999
 30
0.0
 40
6.0
  0
CIRCLE
  5
1B9
  8
SIZE
  6
CONTINUOUS
 62
    30
 10
-235.0
 20
180.72127399999999
 30
0.0
 40
6.0
  0
TEXT
  5
1BA
  8
SIZE
  6
CONTINUOUS
 62
    30
 10
-74.05714285714285
 20
205.72127399999999
 30
0.0
 40
64.0
  1
470
 41
0.9
 72
     1
 11
0.0
 21
205.72127399999999
 31
0.0
  0
POINT
  5
1BB
  8
DEFPOINTS
  6
CONTINUOUS
 62
    30
 10
235.0
 20
-1.6000000000000001
 30
0.0
  0
POINT
  5
1BC
  8
DEFPOINTS
  6
CONTINUOUS
 62
    30
 10
-235.0
 20
-1.6000000000000001
 30
0.0
  0
POINT
  5
1BD
  8
DEFPOINTS
  6
CONTINUOUS
 62
    30
 10
-235.0
 20
180.72127399999999
 30
0.0
  0
LINE
  5
1BE
  8
SIZE
  6
CONTINUOUS
 62
    30
 10
210.0
 20
0.0
 30
0.0
 11
401.96381700000001
 21
0.0
 31
0.0
  0
LINE
  5
1BF
  8
SIZE
  6
CONTINUOUS
 62
    30
 10
210.0
 20
-10.0
 30
0.0
 11
401.96381700000001
 21
-10.0
 31
0.0
  0
LINE
  5
1C0
  8
SIZE
  6
CONTINUOUS
 62
    30
 10
371.96381700000001
 20
-12.0
 30
0.0
 11
371.96381700000001
 21
-14.0
 31
0.0
  0
LINE
  5
1C1
  8
SIZE
  6
CONTINUOUS
 62
    30
 10
371.96381700000001
 20
2.0
 30
0.0
 11
371.96381700000001
 21
136.28571400000001
 31
0.0
  0
LINE
  5
1C2
  8
SIZE
  6
CONTINUOUS
 62
    30
 10
371.96381700000001
 20
-10.0
 30
0.0
 11
371.96381700000001
 21
0.0
 31
0.0
  0
CIRCLE
  5
1C3
  8
SIZE
  6
CONTINUOUS
 62
    30
 10
371.96381700000001
 20
-10.0
 30
0.0
 40
6.0
  0
CIRCLE
  5
1C4
  8
SIZE
  6
CONTINUOUS
 62
    30
 10
371.96381700000001
 20
0.0
 30
0.0
 40
6.0
  0
TEXT
  5
1C5
  8
SIZE
  6
CONTINUOUS
 62
    30
 10
346.96381700000001
 20
28.999999857142861
 30
0.0
 40
64.0
  1
10
 50
90.0
 41
0.9
 72
     1
 11
346.96381700000001
 21
70.142856999999992
 31
0.0
  0
POINT
  5
1C6
  8
DEFPOINTS
  6
CONTINUOUS
 62
    30
 10
190.0
 20
0.0
 30
0.0
  0
POINT
  5
1C7
  8
DEFPOINTS
  6
CONTINUOUS
 62
    30
 10
190.0
 20
-10.0
 30
0.0
  0
POINT
  5
1C8
  8
DEFPOINTS
  6
CONTINUOUS
 62
    30
 10
371.96381700000001
 20
-10.0
 30
0.0
  0
LINE
  5
1C9
  8
SIZE
  6
CONTINUOUS
 62
    30
 10
210.0
 20
-10.0
 30
0.0
 11
401.96381700000001
 21
-10.0
 31
0.0
  0
LINE
  5
1CA
  8
SIZE
  6
CONTINUOUS
 62
    30
 10
210.0
 20
-20.0
 30
0.0
 11
401.96381700000001
 21
-20.0
 31
0.0
  0
LINE
  5
1CB
  8
SIZE
  6
CONTINUOUS
 62
    30
 10
371.96381700000001
 20
-8.0
 30
0.0
 11
371.96381700000001
 21
-6.0
 31
0.0
  0
LINE
  5
1CC
  8
SIZE
  6
CONTINUOUS
 62
    30
 10
371.96381700000001
 20
-22.0
 30
0.0
 11
371.96381700000001
 21
-156.28571400000001
 31
0.0
  0
LINE
  5
1CD
  8
SIZE
  6
CONTINUOUS
 62
    30
 10
371.96381700000001
 20
-10.0
 30
0.0
 11
371.96381700000001
 21
-20.0
 31
0.0
  0
CIRCLE
  5
1CE
  8
SIZE
  6
CONTINUOUS
 62
    30
 10
371.96381700000001
 20
-10.0
 30
0.0
 40
6.0
  0
CIRCLE
  5
1CF
  8
SIZE
  6
CONTINUOUS
 62
    30
 10
371.96381700000001
 20
-20.0
 30
0.0
 40
6.0
  0
TEXT
  5
1D0
  8
SIZE
  6
CONTINUOUS
 62
    30
 10
346.96381700000001
 20
-131.2857141428571
 30
0.0
 40
64.0
  1
10
 50
90.0
 41
0.9
 72
     1
 11
346.96381700000001
 21
-90.142857000000006
 31
0.0
  0
POINT
  5
1D1
  8
DEFPOINTS
  6
CONTINUOUS
 62
    30
 10
190.0
 20
-10.0
 30
0.0
  0
POINT
  5
1D2
  8
DEFPOINTS
  6
CONTINUOUS
 62
    30
 10
190.0
 20
-20.0
 30
0.0
  0
POINT
  5
1D3
  8
DEFPOINTS
  6
CONTINUOUS
 62
    30
 10
371.96381700000001
 20
-20.0
 30
0.0
  0
LINE
  5
1D4
  8
SIZE
  6
CONTINUOUS
 62
    30
 10
230.0
 20
0.0
 30
0.0
 11
513.88898899999992
 21
0.0
 31
0.0
  0
LINE
  5
1D5
  8
SIZE
  6
CONTINUOUS
 62
    30
 10
184.82997900000001
 20
-70.0
 30
0.0
 11
513.88898899999992
 21
-70.0
 31
0.0
  0
LINE
  5
1D6
  8
SIZE
  6
CONTINUOUS
 62
    30
 10
483.88898899999992
 20
-68.0
 30
0.0
 11
483.88898899999992
 21
-2.0
 31
0.0
  0
LINE
  5
1D7
  8
SIZE
  6
CONTINUOUS
 62
    30
 10
483.88898899999992
 20
0.0
 30
0.0
 11
483.88898899999992
 21
145.25714300000001
 31
0.0
  0
CIRCLE
  5
1D8
  8
SIZE
  6
CONTINUOUS
 62
    30
 10
483.88898899999992
 20
-70.0
 30
0.0
 40
6.0
  0
CIRCLE
  5
1D9
  8
SIZE
  6
CONTINUOUS
 62
    30
 10
483.88898899999992
 20
0.0
 30
0.0
 40
6.0
  0
TEXT
  5
1DA
  8
SIZE
  6
CONTINUOUS
 62
    30
 10
458.88898899999992
 20
26.999999571428571
 30
0.0
 40
64.0
  1
70
 50
90.0
 41
0.9
 72
     1
 11
458.88898899999992
 21
73.628570999999994
 31
0.0
  0
POINT
  5
1DB
  8
DEFPOINTS
  6
CONTINUOUS
 62
    30
 10
210.0
 20
0.0
 30
0.0
  0
POINT
  5
1DC
  8
DEFPOINTS
  6
CONTINUOUS
 62
    30
 10
164.82997900000001
 20
-70.0
 30
0.0
  0
POINT
  5
1DD
  8
DEFPOINTS
  6
CONTINUOUS
 62
    30
 10
483.88898899999992
 20
-70.0
 30
0.0
  0
LINE
  5
1DE
  8
SIZE
  6
CONTINUOUS
 62
    30
 10
217.0
 20
40.0
 30
0.0
 11
217.0
 21
105.893365
 31
0.0
  0
LINE
  5
1DF
  8
SIZE
  6
CONTINUOUS
 62
    30
 10
-217.0
 20
40.0
 30
0.0
 11
-217.0
 21
105.893365
 31
0.0
  0
LINE
  5
1E0
  8
SIZE
  6
CONTINUOUS
 62
    30
 10
215.0
 20
75.893365000000003
 30
0.0
 11
-215.0
 21
75.893365000000003
 31
0.0
  0
CIRCLE
  5
1E1
  8
SIZE
  6
CONTINUOUS
 62
    30
 10
217.0
 20
75.893365000000003
 30
0.0
 40
6.0
  0
CIRCLE
  5
1E2
  8
SIZE
  6
CONTINUOUS
 62
    30
 10
-217.0
 20
75.893365000000003
 30
0.0
 40
6.0
  0
TEXT
  5
1E3
  8
SIZE
  6
CONTINUOUS
 62
    30
 10
-75.428571428571416
 20
100.893365
 30
0.0
 40
64.0
  1
434
 41
0.9
 72
     1
 11
0.0
 21
100.893365
 31
0.0
  0
POINT
  5
1E4
  8
DEFPOINTS
  6
CONTINUOUS
 62
    30
 10
217.0
 20
20.0
 30
0.0
  0
POINT
  5
1E5
  8
DEFPOINTS
  6
CONTINUOUS
 62
    30
 10
-217.0
 20
20.0
 30
0.0
  0
POINT
  5
1E6
  8
DEFPOINTS
  6
CONTINUOUS
 62
    30
 10
-217.0
 20
75.893365000000003
 30
0.0
  0
LINE
  5
1E7
  8
SIZE
  6
CONTINUOUS
 62
    30
 10
66.5
 20
-242.09999999999999
 30
0.0
 11
66.5
 21
-478.08981899999998
 31
0.0
  0
LINE
  5
1E8
  8
SIZE
  6
CONTINUOUS
 62
    30
 10
-66.5
 20
-242.09999999999999
 30
0.0
 11
-66.5
 21
-478.08981899999998
 31
0.0
  0
LINE
  5
1E9
  8
SIZE
  6
CONTINUOUS
 62
    30
 10
64.5
 20
-448.08981899999998
 30
0.0
 11
-64.5
 21
-448.08981899999998
 31
0.0
  0
LINE
  5
1EA
  8
SIZE
  6
CONTINUOUS
 62
    30
 10
-66.5
 20
-448.08981899999998
 30
0.0
 11
-307.75714299999999
 21
-448.08981899999998
 31
0.0
  0
CIRCLE
  5
1EB
  8
SIZE
  6
CONTINUOUS
 62
    30
 10
66.5
 20
-448.08981899999998
 30
0.0
 40
6.0
  0
CIRCLE
  5
1EC
  8
SIZE
  6
CONTINUOUS
 62
    30
 10
-66.5
 20
-448.08981899999998
 30
0.0
 40
6.0
  0
TEXT
  5
1ED
  8
SIZE
  6
CONTINUOUS
 62
    30
 10
-297.01999957142863
 20
-423.08981899999998
 30
0.0
 40
64.0
  1
φ133
 41
0.9
 72
     1
 11
-188.12857099999999
 21
-423.08981899999998
 31
0.0
  0
POINT
  5
1EE
  8
DEFPOINTS
  6
CONTINUOUS
 62
    30
 10
66.5
 20
-222.09999999999999
 30
0.0
  0
POINT
  5
1EF
  8
DEFPOINTS
  6
CONTINUOUS
 62
    30
 10
-66.5
 20
-222.09999999999999
 30
0.0
  0
POINT
  5
1F0
  8
DEFPOINTS
  6
CONTINUOUS
 62
    30
 10
-66.5
 20
-448.08981899999998
 30
0.0
  0
LINE
  5
1F1
  8
SIZE
  6
CONTINUOUS
 62
    30
 10
210.0
 20
0.0
 30
0.0
 11
630.02898499999992
 21
0.0
 31
0.0
  0
LINE
  5
1F2
  8
SIZE
  6
CONTINUOUS
 62
    30
 10
20.0
 20
-228.0
 30
0.0
 11
630.02898499999992
 21
-228.0
 31
0.0
  0
LINE
  5
1F3
  8
SIZE
  6
CONTINUOUS
 62
    30
 10
600.02898499999992
 20
-2.0
 30
0.0
 11
600.02898499999992
 21
-226.0
 31
0.0
  0
CIRCLE
  5
1F4
  8
SIZE
  6
CONTINUOUS
 62
    30
 10
600.02898499999992
 20
0.0
 30
0.0
 40
6.0
  0
CIRCLE
  5
1F5
  8
SIZE
  6
CONTINUOUS
 62
    30
 10
600.02898499999992
 20
-228.0
 30
0.0
 40
6.0
  0
TEXT
  5
1F6
  8
SIZE
  6
CONTINUOUS
 62
    30
 10
575.02898499999992
 20
-188.05714285714279
 30
0.0
 40
64.0
  1
228
 50
90.0
 41
0.9
 72
     1
 11
575.02898499999992
 21
-114.0
 31
0.0
  0
POINT
  5
1F7
  8
DEFPOINTS
  6
CONTINUOUS
 62
    30
 10
190.0
 20
0.0
 30
0.0
  0
POINT
  5
1F8
  8
DEFPOINTS
  6
CONTINUOUS
 62
    30
 10
0.0
 20
-228.0
 30
0.0
  0
POINT
  5
1F9
  8
DEFPOINTS
  6
CONTINUOUS
 62
    30
 10
600.02898499999992
 20
-228.0
 30
0.0
  0
LINE
  5
1FA
  8
DETAIL
  6
CONTINUOUS
 62
     5
 10
-4.075213999999999
 20
-108.54752499999999
 30
0.0
 11
-4.075213999999999
 21
-149.65000000000001
 31
0.0
  0
LINE
  5
1FB
  8
DETAIL
  6
CONTINUOUS
 62
     5
 10
5.7109800000000002
 20
-104.65000000000001
 30
0.0
 11
5.7109800000000002
 21
-149.65000000000001
 31
0.0
  0
LINE
  5
1FC
  8
OUTLINE
  6
CONTINUOUS
 62
     3
 10
-0.575167
 20
-171.63549599999999
 30
0.0
 11
31.469999999999999
 21
-171.63691800000001
 31
0.0
  0
LINE
  5
1FD
  8
OUTLINE
  6
CONTINUOUS
 62
     3
 10
0.0
 20
-172.50294400000001
 30
0.0
 11
31.969999999999999
 21
-172.50294400000001
 31
0.0
  0
LINE
  5
1FE
  8
OUTLINE
  6
CONTINUOUS
 62
     3
 10
0.0
 20
-222.09999999999999
 30
0.0
 11
68.032250000000005
 21
-222.09999999999999
 31
0.0
  0
LINE
  5
1FF
  8
OUTLINE
  6
CONTINUOUS
 62
     3
 10
49.232250000000001
 20
-211.5
 30
0.0
 11
0.0
 21
-211.5
 31
0.0
  0
LINE
  5
200
  8
OUTLINE
  6
CONTINUOUS
 62
     3
 10
0.0
 20
-192.0
 30
0.0
 11
68.103952000000007
 21
-192.0
 31
0.0
  0
LINE
  5
201
  8
OUTLINE
  6
CONTINUOUS
 62
     3
 10
43.702249999999999
 20
-186.80000000000001
 30
0.0
 11
0.0
 21
-186.80000000000001
 31
0.0
  0
LINE
  5
202
  8
OUTLINE
  6
CONTINUOUS
 62
     3
 10
48.779665999999999
 20
-171.634073
 30
0.0
 11
-0.575167
 21
-171.63549599999999
 31
0.0
  0
LINE
  5
203
  8
OUTLINE
  6
CONTINUOUS
 62
     3
 10
48.779809
 20
-172.500181
 30
0.0
 11
0.0
 21
-172.50294400000001
 31
0.0
  0
LINE
  5
204
  8
OUTLINE
  6
CONTINUOUS
 62
     3
 10
55.232250000000001
 20
-188.0
 30
0.0
 11
0.0
 21
-188.0
 31
0.0
  0
LINE
  5
205
  8
OUTLINE
  6
CONTINUOUS
 62
     3
 10
-0.9322499999999999
 20
-189.0
 30
0.0
 11
69.400000000000006
 21
-189.0
 31
0.0
  0
LINE
  5
206
  8
OUTLINE
  6
CONTINUOUS
 62
     3
 10
0.0
 20
-192.0
 30
0.0
 11
68.103952000000007
 21
-192.0
 31
0.0
  0
LINE
  5
207
  8
OUTLINE
  6
CONTINUOUS
 62
     3
 10
0.575167
 20
-171.63549599999999
 30
0.0
 11
-31.469999999999999
 21
-171.63691800000001
 31
0.0
  0
LINE
  5
208
  8
OUTLINE
  6
CONTINUOUS
 62
     3
 10
-48.779665999999999
 20
-171.634073
 30
0.0
 11
0.575167
 21
-171.63549599999999
 31
0.0
  0
LINE
  5
209
  8
OUTLINE
  6
CONTINUOUS
 62
     3
 10
0.9322499999999999
 20
-189.0
 30
0.0
 11
-69.400000000000006
 21
-189.0
 31
0.0
  0
LINE
  5
20A
  8
OUTLINE
  6
CONTINUOUS
 62
     3
 10
56.697172000000002
 20
-228.0
 30
0.0
 11
0.0
 21
-228.0
 31
0.0
  0
LINE
  5
20B
  8
OUTLINE
  6
CONTINUOUS
 62
     3
 10
0.0
 20
0.0
 30
0.0
 11
208.40000000000001
 21
0.0
 31
0.0
  0
LINE
  5
20C
  8
OUTLINE
  6
CONTINUOUS
 62
     3
 10
0.0
 20
0.0
 30
0.0
 11
233.40000000000001
 21
0.0
 31
0.0
  0
LINE
  5
20D
  8
OUTLINE
  6
CONTINUOUS
 62
     3
 10
230.30000000000001
 20
-10.0
 30
0.0
 11
0.0
 21
-10.0
 31
0.0
  0
LINE
  5
20E
  8
OUTLINE
  6
CONTINUOUS
 62
     3
 10
233.59999999999999
 20
-5.2000000000000002
 30
0.0
 11
0.0
 21
-5.2000000000000002
 31
0.0
  0
LINE
  5
20F
  8
OUTLINE
  6
CONTINUOUS
 62
     3
 10
194.22602599999999
 20
-19.989761000000001
 30
0.0
 11
0.0
 21
-19.989761000000001
 31
0.0
  0
ARC
  5
210
  8
OUTLINE
  6
CONTINUOUS
 62
     3
 10
-233.40000000000001
 20
-1.6000000000000001
 30
0.0
 40
1.6000000000000001
 50
90.0
 51
180.0
  0
ARC
  5
211
  8
OUTLINE
  6
CONTINUOUS
 62
     3
 10
-230.30000000000001
 20
-7.5
 30
0.0
 40
2.5
 50
180.0
 51
270.0
  0
LINE
  5
212
  8
OUTLINE
  6
CONTINUOUS
 62
     3
 10
-233.59999999999999
 20
-5.2000000000000002
 30
0.0
 11
0.0
 21
-5.2000000000000002
 31
0.0
  0
LINE
  5
213
  8
OUTLINE
  6
CONTINUOUS
 62
     3
 10
0.0
 20
0.0
 30
0.0
 11
-233.40000000000001
 21
0.0
 31
0.0
  0
LINE
  5
214
  8
OUTLINE
  6
CONTINUOUS
 62
     3
 10
-235.0
 20
-1.6000000000000001
 30
0.0
 11
-234.38321099999999
 21
-4.563034
 31
0.0
  0
ARC
  5
215
  8
OUTLINE
  6
CONTINUOUS
 62
     3
 10
-233.59999999999999
 20
-4.4000000000000004
 30
0.0
 40
0.8
 50
191.758836
 51
270.0
  0
LINE
  5
216
  8
OUTLINE
  6
CONTINUOUS
 62
     3
 10
-232.80000000000001
 20
-5.2000000000000002
 30
0.0
 11
-232.80000000000001
 21
-7.5
 31
0.0
  0
ARC
  5
217
  8
OUTLINE
  6
CONTINUOUS
 62
     3
 10
-124.60973
 20
-151.90877
 30
0.0
 40
40.220351999999998
 50
180.12996100000001
 51
265.407689
  0
ARC
  5
218
  8
OUTLINE
  6
CONTINUOUS
 62
     3
 10
-120.30878
 20
-152.0
 30
0.0
 40
65.0
 50
180.0
 51
270.0
  0
ARC
  5
219
  8
OUTLINE
  6
CONTINUOUS
 62
     3
 10
-122.029509
 20
-152.0
 30
0.0
 40
65.0
 50
180.0
 51
270.0
  0
LINE
  5
21A
  8
OUTLINE
  6
CONTINUOUS
 62
     3
 10
-127.82997899999999
 20
-192.0
 30
0.0
 11
-70.171701999999996
 21
-192.0
 31
0.0
  0
LINE
  5
21B
  8
OUTLINE
  6
CONTINUOUS
 62
     3
 10
-120.30878
 20
-217.0
 30
0.0
 11
-69.400000000000006
 21
-217.0
 31
0.0
  0
LINE
  5
21C
  8
OUTLINE
  6
CONTINUOUS
 62
     3
 10
0.0
 20
-192.0
 30
0.0
 11
-68.103952000000007
 21
-192.0
 31
0.0
  0
LINE
  5
21D
  8
OUTLINE
  6
CONTINUOUS
 62
     3
 10
0.0
 20
-192.0
 30
0.0
 11
-68.103952000000007
 21
-192.0
 31
0.0
  0
LINE
  5
21E
  8
OUTLINE
  6
CONTINUOUS
 62
     3
 10
-59.482250000000001
 20
-188.0
 30
0.0
 11
-11.18225
 21
-188.0
 31
0.0
  0
LINE
  5
21F
  8
OUTLINE
  6
CONTINUOUS
 62
     3
 10
-59.482250000000001
 20
-186.80000000000001
 30
0.0
 11
-51.632249999999999
 21
-186.80000000000001
 31
0.0
  0
LINE
  5
220
  8
OUTLINE
  6
CONTINUOUS
 62
     3
 10
0.0
 20
-222.09999999999999
 30
0.0
 11
-68.032250000000005
 21
-222.09999999999999
 31
0.0
  0
LINE
  5
221
  8
OUTLINE
  6
CONTINUOUS
 62
     3
 10
-57.722582999999993
 20
-222.09999999999999
 30
0.0
 11
-67.799999999999997
 21
-222.09999999999999
 31
0.0
  0
LINE
  5
222
  8
OUTLINE
  6
CONTINUOUS
 62
     3
 10
-53.527124000000001
 20
-217.0
 30
0.0
 11
-69.400000000000006
 21
-217.0
 31
0.0
  0
LINE
  5
223
  8
OUTLINE
  6
CONTINUOUS
 62
     3
 10
-69.400000000000006
 20
-217.5
 30
0.0
 11
-54.232250000000001
 21
-217.5
 31
0.0
  0
ARC
  5
224
  8
OUTLINE
  6
CONTINUOUS
 62
     3
 10
-55.337125
 20
-220.86619300000001
 30
0.0
 40
7.2622949999999991
 50
234.45120800000001
 51
259.54605199999997
  0
LINE
  5
225
  8
OUTLINE
  6
CONTINUOUS
 62
     3
 10
-58.650326
 20
-192.0
 30
0.0
 11
-70.171701999999996
 21
-192.0
 31
0.0
  0
LINE
  5
226
  8
OUTLINE
  6
CONTINUOUS
 62
     3
 10
-59.482250000000001
 20
-188.0
 30
0.0
 11
-59.482250000000001
 21
-186.80000000000001
 31
0.0
  0
LINE
  5
227
  8
OUTLINE
  6
CONTINUOUS
 62
     3
 10
-63.805622999999997
 20
-187.5
 30
0.0
 11
-59.80562299999999
 21
-187.5
 31
0.0
  0
LINE
  5
228
  8
OUTLINE
  6
CONTINUOUS
 62
     3
 10
-59.305622999999997
 20
-189.0
 30
0.0
 11
-59.305622999999997
 21
-188.0
 31
0.0
  0
ARC
  5
229
  8
OUTLINE
  6
CONTINUOUS
 62
     3
 10
-59.80562299999999
 20
-188.0
 30
0.0
 40
0.5
 50
0.0
 51
90.0
  0
LINE
  5
22A
  8
OUTLINE
  6
CONTINUOUS
 62
     3
 10
-65.099999999999994
 20
-189.0
 30
0.0
 11
-63.79999999999999
 21
-189.0
 31
0.0
  0
LINE
  5
22B
  8
OUTLINE
  6
CONTINUOUS
 62
     3
 10
-67.805622999999997
 20
-187.5
 30
0.0
 11
-63.805622999999997
 21
-187.5
 31
0.0
  0
LINE
  5
22C
  8
OUTLINE
  6
CONTINUOUS
 62
     3
 10
-68.305622999999997
 20
-189.0
 30
0.0
 11
-68.305622999999997
 21
-188.0
 31
0.0
  0
ARC
  5
22D
  8
OUTLINE
  6
CONTINUOUS
 62
     3
 10
-67.805622999999997
 20
-188.0
 30
0.0
 40
0.5
 50
90.0
 51
180.0
  0
LINE
  5
22E
  8
OUTLINE
  6
CONTINUOUS
 62
     3
 10
-69.400000000000006
 20
-192.0
 30
0.0
 11
-69.400000000000006
 21
-189.0
 31
0.0
  0
ARC
  5
22F
  8
OUTLINE
  6
CONTINUOUS
 62
     3
 10
-67.799999999999997
 20
-220.5
 30
0.0
 40
1.6000000000000001
 50
180.0
 51
270.0
  0
LINE
  5
230
  8
OUTLINE
  6
CONTINUOUS
 62
     3
 10
-61.100000000000001
 20
-217.0
 30
0.0
 11
-65.303482999999986
 21
-217.0
 31
0.0
  0
LINE
  5
231
  8
OUTLINE
  6
CONTINUOUS
 62
     3
 10
-69.400000000000006
 20
-217.5
 30
0.0
 11
-69.400000000000006
 21
-220.5
 31
0.0
  0
LINE
  5
232
  8
OUTLINE
  6
CONTINUOUS
 62
     3
 10
-69.400000000000006
 20
-217.5
 30
0.0
 11
-69.372915000000006
 21
-217.07712699999999
 31
0.0
  0
ARC
  5
233
  8
OUTLINE
  6
CONTINUOUS
 62
     3
 10
-66.534843000000009
 20
-225.569862
 30
0.0
 40
3.470037
 50
51.044024
 51
89.424681000000007
  0
LINE
  5
234
  8
OUTLINE
  6
CONTINUOUS
 62
     3
 10
-64.353149999999999
 20
-222.87146000000001
 30
0.0
 11
-59.559394999999988
 21
-226.774947
 31
0.0
  0
LINE
  5
235
  8
OUTLINE
  6
CONTINUOUS
 62
     3
 10
-67.849999999999994
 20
-217.0
 30
0.0
 11
-67.849999999999994
 21
-192.0
 31
0.0
  0
LINE
  5
236
  8
OUTLINE
  6
CONTINUOUS
 62
     3
 10
0.0
 20
-172.50294400000001
 30
0.0
 11
-31.969999999999999
 21
-172.50294400000001
 31
0.0
  0
LINE
  5
237
  8
OUTLINE
  6
CONTINUOUS
 62
     3
 10
-43.702249999999999
 20
-186.80000000000001
 30
0.0
 11
0.0
 21
-186.80000000000001
 31
0.0
  0
LINE
  5
238
  8
OUTLINE
  6
CONTINUOUS
 62
     3
 10
-48.779809
 20
-172.500181
 30
0.0
 11
0.0
 21
-172.50294400000001
 31
0.0
  0
LINE
  5
239
  8
OUTLINE
  6
CONTINUOUS
 62
     3
 10
-55.232250000000001
 20
-188.0
 30
0.0
 11
0.0
 21
-188.0
 31
0.0
  0
LINE
  5
23A
  8
OUTLINE
  6
CONTINUOUS
 62
     3
 10
-0.65225
 20
-186.80000000000001
 30
0.0
 11
-42.402250000000002
 21
-186.80000000000001
 31
0.0
  0
LINE
  5
23B
  8
OUTLINE
  6
CONTINUOUS
 62
     3
 10
-9.2322500000000005
 20
-189.0
 30
0.0
 11
-55.232250000000001
 21
-189.0
 31
0.0
  0
LINE
  5
23C
  8
OUTLINE
  6
CONTINUOUS
 62
     3
 10
-54.232250000000001
 20
-186.80000000000001
 30
0.0
 11
-51.632249999999999
 21
-186.80000000000001
 31
0.0
  0
LINE
  5
23D
  8
OUTLINE
  6
CONTINUOUS
 62
     3
 10
-55.732250000000001
 20
-186.80000000000001
 30
0.0
 11
-55.732250000000001
 21
-185.0
 31
0.0
  0
ARC
  5
23E
  8
OUTLINE
  6
CONTINUOUS
 62
     3
 10
-55.232250000000001
 20
-187.5
 30
0.0
 40
1.5
 50
199.4712209999999
 51
270.0
  0
LINE
  5
23F
  8
OUTLINE
  6
CONTINUOUS
 62
     3
 10
-56.732250000000001
 20
-186.80000000000001
 30
0.0
 11
-56.732250000000001
 21
-185.0
 31
0.0
  0
LINE
  5
240
  8
OUTLINE
  6
CONTINUOUS
 62
     3
 10
-55.732250000000001
 20
-185.0
 30
0.0
 11
-56.732250000000001
 21
-185.0
 31
0.0
  0
LINE
  5
241
  8
OUTLINE
  6
CONTINUOUS
 62
     3
 10
-50.432250000000003
 20
-172.50294400000001
 30
0.0
 11
-50.432250000000003
 21
-183.102791
 31
0.0
  0
LINE
  5
242
  8
OUTLINE
  6
CONTINUOUS
 62
     3
 10
-50.432250000000003
 20
-172.50294400000001
 30
0.0
 11
-49.932250000000003
 21
-171.63691800000001
 31
0.0
  0
ARC
  5
243
  8
OUTLINE
  6
CONTINUOUS
 62
     3
 10
-42.552384999999987
 20
-184.65313599999999
 30
0.0
 40
1.8531329999999999
 50
89.999981999999974
 51
128.35766899999999
  0
ARC
  5
244
  8
OUTLINE
  6
CONTINUOUS
 62
     3
 10
-46.002383000000002
 20
-189.61250000000001
 30
0.0
 40
6.8124979999999988
 50
70.268330000000006
 51
109.731579
  0
ARC
  5
245
  8
OUTLINE
  6
CONTINUOUS
 62
     3
 10
-49.452382
 20
-184.65313800000001
 30
0.0
 40
1.8531349999999991
 50
51.642265000000002
 51
89.999981999999974
  0
LINE
  5
246
  8
OUTLINE
  6
CONTINUOUS
 62
     3
 10
-43.702382999999998
 20
-183.20000099999999
 30
0.0
 11
-43.702382999999998
 21
-186.80000000000001
 31
0.0
  0
LINE
  5
247
  8
OUTLINE
  6
CONTINUOUS
 62
     3
 10
-48.302384000000004
 20
-183.20000099999999
 30
0.0
 11
-48.302384000000004
 21
-186.80000000000001
 31
0.0
  0
LINE
  5
248
  8
OUTLINE
  6
CONTINUOUS
 62
     3
 10
-50.602383000000003
 20
-183.20000099999999
 30
0.0
 11
-50.602383000000003
 21
-186.79999900000001
 31
0.0
  0
LINE
  5
249
  8
OUTLINE
  6
CONTINUOUS
 62
     3
 10
-49.902377999999999
 20
-182.80000699999999
 30
0.0
 11
-50.602378000000002
 21
-183.200007
 31
0.0
  0
LINE
  5
24A
  8
OUTLINE
  6
CONTINUOUS
 62
     3
 10
-42.102384999999991
 20
-182.80000000000001
 30
0.0
 11
-49.902382000000003
 21
-182.80000000000001
 31
0.0
  0
LINE
  5
24B
  8
OUTLINE
  6
CONTINUOUS
 62
     3
 10
-41.402388000000002
 20
-183.200007
 30
0.0
 11
-42.102389000000002
 21
-182.80000699999999
 31
0.0
  0
LINE
  5
24C
  8
OUTLINE
  6
CONTINUOUS
 62
     3
 10
-41.402383999999998
 20
-186.80000100000001
 30
0.0
 11
-41.402383999999998
 21
-183.20000099999999
 31
0.0
  0
LINE
  5
24D
  8
OUTLINE
  6
CONTINUOUS
 62
     3
 10
-50.602384000000001
 20
-186.80000000000001
 30
0.0
 11
-41.402383
 21
-186.80000000000001
 31
0.0
  0
LINE
  5
24E
  8
OUTLINE
  6
CONTINUOUS
 62
     3
 10
-48.502383000000002
 20
-180.400002
 30
0.0
 11
-43.502383000000002
 21
-180.400002
 31
0.0
  0
LINE
  5
24F
  8
OUTLINE
  6
CONTINUOUS
 62
     3
 10
-48.502383000000002
 20
-180.400002
 30
0.0
 11
-48.502383000000002
 21
-182.80000200000001
 31
0.0
  0
LINE
  5
250
  8
OUTLINE
  6
CONTINUOUS
 62
     3
 10
-43.502383000000002
 20
-180.400002
 30
0.0
 11
-43.502383000000002
 21
-182.80000200000001
 31
0.0
  0
ARC
  5
251
  8
OUTLINE
  6
CONTINUOUS
 62
     3
 10
-51.632249999999999
 20
-185.59999999999999
 30
0.0
 40
1.1999999999999991
 50
270.0
 51
329.117615
  0
LINE
  5
252
  8
OUTLINE
  6
CONTINUOUS
 62
     3
 10
-49.232250000000001
 20
-211.5
 30
0.0
 11
0.0
 21
-211.5
 31
0.0
  0
LINE
  5
253
  8
OUTLINE
  6
CONTINUOUS
 62
     3
 10
-52.232250000000001
 20
-215.5
 30
0.0
 11
-52.232250000000001
 21
-214.5
 31
0.0
  0
ARC
  5
254
  8
OUTLINE
  6
CONTINUOUS
 62
     3
 10
-49.232250000000001
 20
-214.5
 30
0.0
 40
3.0
 50
90.0
 51
180.0
  0
ARC
  5
255
  8
OUTLINE
  6
CONTINUOUS
 62
     3
 10
-54.232250000000001
 20
-215.5
 30
0.0
 40
2.0
 50
270.0
 51
0.0
  0
LINE
  5
256
  8
OUTLINE
  6
CONTINUOUS
 62
     3
 10
-56.697172000000002
 20
-228.0
 30
0.0
 11
0.0
 21
-228.0
 31
0.0
  0
LINE
  5
257
  8
OUTLINE
  6
CONTINUOUS
 62
     3
 10
-194.22602599999999
 20
-19.989761000000001
 30
0.0
 11
0.0
 21
-19.989761000000001
 31
0.0
  0
LINE
  5
258
  8
OUTLINE
  6
CONTINUOUS
 62
     3
 10
-230.30000000000001
 20
-10.0
 30
0.0
 11
0.0
 21
-10.0
 31
0.0
  0
LINE
  5
259
  8
OUTLINE
  6
CONTINUOUS
 62
     3
 10
0.0
 20
0.0
 30
0.0
 11
-208.40000000000001
 21
0.0
 31
0.0
  0
LINE
  5
25A
  8
OUTLINE
  6
CONTINUOUS
 62
     3
 10
-185.30878000000001
 20
-152.0
 30
0.0
 11
-185.30878000000001
 21
-19.989761000000001
 31
0.0
  0
LINE
  5
25B
  8
OUTLINE
  6
CONTINUOUS
 62
     3
 10
-187.02950899999999
 20
-152.0
 30
0.0
 11
-187.02950899999999
 21
-19.989761000000001
 31
0.0
  0
LINE
  5
25C
  8
OUTLINE
  6
CONTINUOUS
 62
     3
 10
-164.82997900000001
 20
-152.0
 30
0.0
 11
-164.82997900000001
 21
-27.989758999999999
 31
0.0
  0
LINE
  5
25D
  8
OUTLINE
  6
CONTINUOUS
 62
     3
 10
-164.82997900000001
 20
-94.0
 30
0.0
 11
-164.82997900000001
 21
-50.0
 31
0.0
  0
LINE
  5
25E
  8
OUTLINE
  6
CONTINUOUS
 62
     3
 10
-185.30878000000001
 20
-22.989761000000001
 30
0.0
 11
-164.17602600000001
 21
-22.989761000000001
 31
0.0
  0
ARC
  5
25F
  8
OUTLINE
  6
CONTINUOUS
 62
     3
 10
-174.23852600000001
 20
-25.673355000000001
 30
0.0
 40
2.3164060000000002
 50
270.0
 51
308.35799700000001
  0
LINE
  5
260
  8
OUTLINE
  6
CONTINUOUS
 62
     3
 10
-153.950861
 20
-19.989761000000001
 30
0.0
 11
-181.02950899999999
 21
-19.989761000000001
 31
0.0
  0
LINE
  5
261
  8
OUTLINE
  6
CONTINUOUS
 62
     3
 10
-164.176027
 20
-22.989761000000001
 30
0.0
 11
-175.67602600000001
 21
-22.989761000000001
 31
0.0
  0
LINE
  5
262
  8
OUTLINE
  6
CONTINUOUS
 62
     3
 10
-174.82602499999999
 20
-27.989758999999999
 30
0.0
 11
-165.026028
 21
-27.989758999999999
 31
0.0
  0
LINE
  5
263
  8
OUTLINE
  6
CONTINUOUS
 62
     3
 10
-185.41004000000001
 20
-19.989761000000001
 30
0.0
 11
-185.41004000000001
 21
-22.989761000000001
 31
0.0
  0
ARC
  5
264
  8
OUTLINE
  6
CONTINUOUS
 62
     3
 10
-178.022074
 20
-25.989761000000001
 30
0.0
 40
3.0
 50
38.554479000000001
 51
90.0
  0
ARC
  5
265
  8
OUTLINE
  6
CONTINUOUS
 62
     3
 10
-194.22602599999999
 20
-17.489761000000001
 30
0.0
 40
2.5
 50
180.0
 51
270.0
  0
ARC
  5
266
  8
OUTLINE
  6
CONTINUOUS
 62
     3
 10
-193.42211699999999
 20
-17.489761000000001
 30
0.0
 40
2.5
 50
180.0
 51
269.99999700000001
  0
ARC
  5
267
  8
OUTLINE
  6
CONTINUOUS
 62
     3
 10
-198.42211699999999
 20
-12.489761
 30
0.0
 40
2.5
 50
0.0
 51
88.564402999999999
  0
ARC
  5
268
  8
OUTLINE
  6
CONTINUOUS
 62
     3
 10
-199.22602599999999
 20
-12.489761
 30
0.0
 40
2.5
 50
0.0
 51
84.812775999999999
  0
LINE
  5
269
  8
OUTLINE
  6
CONTINUOUS
 62
     3
 10
-196.72602599999999
 20
-12.489761
 30
0.0
 11
-196.72602599999999
 21
-17.489761000000001
 31
0.0
  0
LINE
  5
26A
  8
OUTLINE
  6
CONTINUOUS
 62
     3
 10
-195.92211699999999
 20
-12.489761
 30
0.0
 11
-195.92211699999999
 21
-17.489761000000001
 31
0.0
  0
ARC
  5
26B
  8
OUTLINE
  6
DASHED
 62
     3
 10
-174.82602600000001
 20
-29.989761000000001
 30
0.0
 40
10.0
 50
89.883752999999984
 51
90.0
  0
LINE
  5
26C
  8
OUTLINE
  6
CONTINUOUS
 62
     3
 10
-175.67602600000001
 20
-22.989761000000001
 30
0.0
 11
-175.67602600000001
 21
-27.489761000000001
 31
0.0
  0
LINE
  5
26D
  8
OUTLINE
  6
CONTINUOUS
 62
     3
 10
-175.67603099999999
 20
-27.489771000000001
 30
0.0
 11
-174.826031
 21
-27.989771000000001
 31
0.0
  0
LINE
  5
26E
  8
OUTLINE
  6
CONTINUOUS
 62
     3
 10
-164.82997900000001
 20
-19.989761000000001
 30
0.0
 11
-164.82997900000001
 21
-22.989761000000001
 31
0.0
  0
LINE
  5
26F
  8
OUTLINE
  6
CONTINUOUS
 62
     3
 10
-168.20784699999999
 20
-19.989761000000001
 30
0.0
 11
-168.20784699999999
 21
-22.989761000000001
 31
0.0
  0
ARC
  5
270
  8
OUTLINE
  6
DASHED
 62
     3
 10
-166.696091
 20
-12.5
 30
0.0
 40
2.5
 50
88.564402999999999
 51
90.0
  0
ARC
  5
271
  8
OUTLINE
  6
DASHED
 62
     3
 10
-167.5
 20
-12.5
 30
0.0
 40
2.5
 50
84.812775999999999
 51
90.0
  0
LINE
  5
272
  8
OUTLINE
  6
CONTINUOUS
 62
     3
 10
-165.02602200000001
 20
-27.989771000000001
 30
0.0
 11
-164.17602199999999
 21
-27.489771000000001
 31
0.0
  0
LINE
  5
273
  8
OUTLINE
  6
CONTINUOUS
 62
     3
 10
-164.17602600000001
 20
-27.489761000000001
 30
0.0
 11
-164.17602600000001
 21
-22.989761000000001
 31
0.0
  0
LINE
  5
274
  8
OUTLINE
  6
CONTINUOUS
 62
     3
 10
-167.05102600000001
 20
-22.989761000000001
 30
0.0
 11
-167.05102600000001
 21
-27.489761000000001
 31
0.0
  0
ARC
  5
275
  8
OUTLINE
  6
CONTINUOUS
 62
     3
 10
-169.92602600000001
 20
-19.474136000000001
 30
0.0
 40
8.515625
 50
250.26832999999999
 51
289.73157900000001
  0
LINE
  5
276
  8
OUTLINE
  6
CONTINUOUS
 62
     3
 10
-172.80102500000001
 20
-22.989761000000001
 30
0.0
 11
-172.80102500000001
 21
-27.489761000000001
 31
0.0
  0
ARC
  5
277
  8
OUTLINE
  6
CONTINUOUS
 62
     3
 10
-165.61352600000001
 20
-25.673355000000001
 30
0.0
 40
2.3164060000000002
 50
231.64194699999999
 51
270.0
  0
ARC
  5
278
  8
OUTLINE
  6
CONTINUOUS
 62
     3
 10
233.40000000000001
 20
-1.6000000000000001
 30
0.0
 40
1.6000000000000001
 50
0.0
 51
90.0
  0
ARC
  5
279
  8
OUTLINE
  6
CONTINUOUS
 62
     3
 10
230.30000000000001
 20
-7.5
 30
0.0
 40
2.5
 50
270.0
 51
0.0
  0
ARC
  5
27A
  8
OUTLINE
  6
CONTINUOUS
 62
     3
 10
124.60973
 20
-151.90877
 30
0.0
 40
40.220351999999998
 50
274.592311
 51
359.87003900000002
  0
ARC
  5
27B
  8
OUTLINE
  6
CONTINUOUS
 62
     3
 10
122.029509
 20
-152.0
 30
0.0
 40
65.0
 50
270.0
 51
0.0
  0
ARC
  5
27C
  8
OUTLINE
  6
CONTINUOUS
 62
     3
 10
120.30878
 20
-152.0
 30
0.0
 40
65.0
 50
270.0
 51
0.0
  0
LINE
  5
27D
  8
OUTLINE
  6
CONTINUOUS
 62
     3
 10
127.82997899999999
 20
-192.0
 30
0.0
 11
70.171701999999996
 21
-192.0
 31
0.0
  0
LINE
  5
27E
  8
OUTLINE
  6
CONTINUOUS
 62
     3
 10
120.30878
 20
-217.0
 30
0.0
 11
69.400000000000006
 21
-217.0
 31
0.0
  0
LINE
  5
27F
  8
OUTLINE
  6
CONTINUOUS
 62
     3
 10
59.482250000000001
 20
-188.0
 30
0.0
 11
11.18225
 21
-188.0
 31
0.0
  0
LINE
  5
280
  8
OUTLINE
  6
CONTINUOUS
 62
     3
 10
59.482250000000001
 20
-186.80000000000001
 30
0.0
 11
51.632249999999999
 21
-186.80000000000001
 31
0.0
  0
LINE
  5
281
  8
OUTLINE
  6
CONTINUOUS
 62
     3
 10
57.722582999999993
 20
-222.09999999999999
 30
0.0
 11
67.799999999999997
 21
-222.09999999999999
 31
0.0
  0
LINE
  5
282
  8
OUTLINE
  6
CONTINUOUS
 62
     3
 10
53.527124000000001
 20
-217.0
 30
0.0
 11
69.400000000000006
 21
-217.0
 31
0.0
  0
LINE
  5
283
  8
OUTLINE
  6
CONTINUOUS
 62
     3
 10
69.400000000000006
 20
-217.5
 30
0.0
 11
54.232250000000001
 21
-217.5
 31
0.0
  0
ARC
  5
284
  8
OUTLINE
  6
CONTINUOUS
 62
     3
 10
55.337125
 20
-220.86619300000001
 30
0.0
 40
7.2622949999999991
 50
280.45394800000003
 51
305.54879199999999
  0
LINE
  5
285
  8
OUTLINE
  6
CONTINUOUS
 62
     3
 10
0.65225
 20
-186.80000000000001
 30
0.0
 11
42.402250000000002
 21
-186.80000000000001
 31
0.0
  0
LINE
  5
286
  8
OUTLINE
  6
CONTINUOUS
 62
     3
 10
9.2322500000000005
 20
-189.0
 30
0.0
 11
55.232250000000001
 21
-189.0
 31
0.0
  0
LINE
  5
287
  8
OUTLINE
  6
CONTINUOUS
 62
     3
 10
54.232250000000001
 20
-186.80000000000001
 30
0.0
 11
51.632249999999999
 21
-186.80000000000001
 31
0.0
  0
LINE
  5
288
  8
OUTLINE
  6
CONTINUOUS
 62
     3
 10
55.732250000000001
 20
-186.80000000000001
 30
0.0
 11
55.732250000000001
 21
-185.0
 31
0.0
  0
ARC
  5
289
  8
OUTLINE
  6
CONTINUOUS
 62
     3
 10
55.232250000000001
 20
-187.5
 30
0.0
 40
1.5
 50
270.0
 51
340.52877899999999
  0
LINE
  5
28A
  8
OUTLINE
  6
CONTINUOUS
 62
     3
 10
56.732250000000001
 20
-186.80000000000001
 30
0.0
 11
56.732250000000001
 21
-185.0
 31
0.0
  0
LINE
  5
28B
  8
OUTLINE
  6
CONTINUOUS
 62
     3
 10
55.732250000000001
 20
-185.0
 30
0.0
 11
56.732250000000001
 21
-185.0
 31
0.0
  0
LINE
  5
28C
  8
OUTLINE
  6
CONTINUOUS
 62
     3
 10
50.432250000000003
 20
-172.50294400000001
 30
0.0
 11
50.432250000000003
 21
-183.102791
 31
0.0
  0
LINE
  5
28D
  8
OUTLINE
  6
CONTINUOUS
 62
     3
 10
50.432250000000003
 20
-172.50294400000001
 30
0.0
 11
49.932250000000003
 21
-171.63691800000001
 31
0.0
  0
ARC
  5
28E
  8
OUTLINE
  6
CONTINUOUS
 62
     3
 10
42.552384999999987
 20
-184.65313599999999
 30
0.0
 40
1.8531329999999999
 50
51.642330999999999
 51
90.000018000000011
  0
ARC
  5
28F
  8
OUTLINE
  6
CONTINUOUS
 62
     3
 10
46.002383000000002
 20
-189.61250000000001
 30
0.0
 40
6.8124979999999988
 50
70.268420999999989
 51
109.73166999999999
  0
ARC
  5
290
  8
OUTLINE
  6
CONTINUOUS
 62
     3
 10
49.452382
 20
-184.65313800000001
 30
0.0
 40
1.8531349999999991
 50
90.000018000000011
 51
128.35773499999999
  0
LINE
  5
291
  8
OUTLINE
  6
CONTINUOUS
 62
     3
 10
43.702382999999998
 20
-183.20000099999999
 30
0.0
 11
43.702382999999998
 21
-186.80000000000001
 31
0.0
  0
LINE
  5
292
  8
OUTLINE
  6
CONTINUOUS
 62
     3
 10
48.302384000000004
 20
-183.20000099999999
 30
0.0
 11
48.302384000000004
 21
-186.80000000000001
 31
0.0
  0
LINE
  5
293
  8
OUTLINE
  6
CONTINUOUS
 62
     3
 10
50.602383000000003
 20
-183.20000099999999
 30
0.0
 11
50.602383000000003
 21
-186.79999900000001
 31
0.0
  0
LINE
  5
294
  8
OUTLINE
  6
CONTINUOUS
 62
     3
 10
49.902377999999999
 20
-182.80000699999999
 30
0.0
 11
50.602378000000002
 21
-183.200007
 31
0.0
  0
LINE
  5
295
  8
OUTLINE
  6
CONTINUOUS
 62
     3
 10
42.102384999999991
 20
-182.80000000000001
 30
0.0
 11
49.902382000000003
 21
-182.80000000000001
 31
0.0
  0
LINE
  5
296
  8
OUTLINE
  6
CONTINUOUS
 62
     3
 10
41.402388000000002
 20
-183.200007
 30
0.0
 11
42.102389000000002
 21
-182.80000699999999
 31
0.0
  0
LINE
  5
297
  8
OUTLINE
  6
CONTINUOUS
 62
     3
 10
41.402383999999998
 20
-186.80000100000001
 30
0.0
 11
41.402383999999998
 21
-183.20000099999999
 31
0.0
  0
LINE
  5
298
  8
OUTLINE
  6
CONTINUOUS
 62
     3
 10
50.602384000000001
 20
-186.80000000000001
 30
0.0
 11
41.402383
 21
-186.80000000000001
 31
0.0
  0
LINE
  5
299
  8
OUTLINE
  6
CONTINUOUS
 62
     3
 10
48.502383000000002
 20
-180.400002
 30
0.0
 11
43.502383000000002
 21
-180.400002
 31
0.0
  0
LINE
  5
29A
  8
OUTLINE
  6
CONTINUOUS
 62
     3
 10
48.502383000000002
 20
-180.400002
 30
0.0
 11
48.502383000000002
 21
-182.80000200000001
 31
0.0
  0
LINE
  5
29B
  8
OUTLINE
  6
CONTINUOUS
 62
     3
 10
43.502383000000002
 20
-180.400002
 30
0.0
 11
43.502383000000002
 21
-182.80000200000001
 31
0.0
  0
ARC
  5
29C
  8
OUTLINE
  6
CONTINUOUS
 62
     3
 10
51.632249999999999
 20
-185.59999999999999
 30
0.0
 40
1.1999999999999991
 50
210.882385
 51
270.0
  0
ARC
  5
29D
  8
OUTLINE
  6
CONTINUOUS
 62
     3
 10
54.232250000000001
 20
-215.5
 30
0.0
 40
2.0
 50
180.0
 51
270.0
  0
LINE
  5
29E
  8
OUTLINE
  6
CONTINUOUS
 62
     3
 10
52.232250000000001
 20
-215.5
 30
0.0
 11
52.232250000000001
 21
-214.5
 31
0.0
  0
ARC
  5
29F
  8
OUTLINE
  6
CONTINUOUS
 62
     3
 10
49.232250000000001
 20
-214.5
 30
0.0
 40
3.0
 50
0.0
 51
90.0
  0
LINE
  5
2A0
  8
OUTLINE
  6
CONTINUOUS
 62
     3
 10
58.650326
 20
-192.0
 30
0.0
 11
70.171701999999996
 21
-192.0
 31
0.0
  0
LINE
  5
2A1
  8
OUTLINE
  6
CONTINUOUS
 62
     3
 10
59.482250000000001
 20
-188.0
 30
0.0
 11
59.482250000000001
 21
-186.80000000000001
 31
0.0
  0
LINE
  5
2A2
  8
OUTLINE
  6
CONTINUOUS
 62
     3
 10
63.805622999999997
 20
-187.5
 30
0.0
 11
59.80562299999999
 21
-187.5
 31
0.0
  0
LINE
  5
2A3
  8
OUTLINE
  6
CONTINUOUS
 62
     3
 10
59.305622999999997
 20
-189.0
 30
0.0
 11
59.305622999999997
 21
-188.0
 31
0.0
  0
ARC
  5
2A4
  8
OUTLINE
  6
CONTINUOUS
 62
     3
 10
59.80562299999999
 20
-188.0
 30
0.0
 40
0.5
 50
90.0
 51
180.0
  0
LINE
  5
2A5
  8
OUTLINE
  6
CONTINUOUS
 62
     3
 10
65.099999999999994
 20
-189.0
 30
0.0
 11
63.79999999999999
 21
-189.0
 31
0.0
  0
LINE
  5
2A6
  8
OUTLINE
  6
CONTINUOUS
 62
     3
 10
67.805622999999997
 20
-187.5
 30
0.0
 11
63.805622999999997
 21
-187.5
 31
0.0
  0
LINE
  5
2A7
  8
OUTLINE
  6
CONTINUOUS
 62
     3
 10
68.305622999999997
 20
-189.0
 30
0.0
 11
68.305622999999997
 21
-188.0
 31
0.0
  0
ARC
  5
2A8
  8
OUTLINE
  6
CONTINUOUS
 62
     3
 10
67.805622999999997
 20
-188.0
 30
0.0
 40
0.5
 50
0.0
 51
90.0
  0
LINE
  5
2A9
  8
OUTLINE
  6
CONTINUOUS
 62
     3
 10
69.400000000000006
 20
-192.0
 30
0.0
 11
69.400000000000006
 21
-189.0
 31
0.0
  0
ARC
  5
2AA
  8
OUTLINE
  6
CONTINUOUS
 62
     3
 10
67.799999999999997
 20
-220.5
 30
0.0
 40
1.6000000000000001
 50
270.0
 51
0.0
  0
LINE
  5
2AB
  8
OUTLINE
  6
CONTINUOUS
 62
     3
 10
61.100000000000001
 20
-217.0
 30
0.0
 11
65.303482999999986
 21
-217.0
 31
0.0
  0
LINE
  5
2AC
  8
OUTLINE
  6
CONTINUOUS
 62
     3
 10
69.400000000000006
 20
-217.5
 30
0.0
 11
69.400000000000006
 21
-220.5
 31
0.0
  0
LINE
  5
2AD
  8
OUTLINE
  6
CONTINUOUS
 62
     3
 10
69.400000000000006
 20
-217.5
 30
0.0
 11
69.372915000000006
 21
-217.07712699999999
 31
0.0
  0
ARC
  5
2AE
  8
OUTLINE
  6
CONTINUOUS
 62
     3
 10
66.5
 20
-225.50794200000001
 30
0.0
 40
3.399999999999999
 50
90.0
 51
129.15543400000001
  0
LINE
  5
2AF
  8
OUTLINE
  6
CONTINUOUS
 62
     3
 10
64.353149999999999
 20
-222.87146000000001
 30
0.0
 11
59.559394999999988
 21
-226.774947
 31
0.0
  0
LINE
  5
2B0
  8
OUTLINE
  6
CONTINUOUS
 62
     3
 10
67.849999999999994
 20
-217.0
 30
0.0
 11
67.849999999999994
 21
-192.0
 31
0.0
  0
LINE
  5
2B1
  8
OUTLINE
  6
CONTINUOUS
 62
     3
 10
185.30878000000001
 20
-152.0
 30
0.0
 11
185.30878000000001
 21
-19.989761000000001
 31
0.0
  0
LINE
  5
2B2
  8
OUTLINE
  6
CONTINUOUS
 62
     3
 10
187.02950899999999
 20
-152.0
 30
0.0
 11
187.02950899999999
 21
-19.989761000000001
 31
0.0
  0
LINE
  5
2B3
  8
OUTLINE
  6
CONTINUOUS
 62
     3
 10
164.82997900000001
 20
-152.0
 30
0.0
 11
164.82997900000001
 21
-27.989758999999999
 31
0.0
  0
LINE
  5
2B4
  8
OUTLINE
  6
CONTINUOUS
 62
     3
 10
164.82997900000001
 20
-94.0
 30
0.0
 11
164.82997900000001
 21
-50.0
 31
0.0
  0
LINE
  5
2B5
  8
OUTLINE
  6
CONTINUOUS
 62
     3
 10
185.30878000000001
 20
-22.989761000000001
 30
0.0
 11
164.17602600000001
 21
-22.989761000000001
 31
0.0
  0
ARC
  5
2B6
  8
OUTLINE
  6
CONTINUOUS
 62
     3
 10
174.23852600000001
 20
-25.673355000000001
 30
0.0
 40
2.3164060000000002
 50
231.64200299999999
 51
270.0
  0
LINE
  5
2B7
  8
OUTLINE
  6
CONTINUOUS
 62
     3
 10
153.950861
 20
-19.989761000000001
 30
0.0
 11
181.02950899999999
 21
-19.989761000000001
 31
0.0
  0
LINE
  5
2B8
  8
OUTLINE
  6
CONTINUOUS
 62
     3
 10
164.176027
 20
-22.989761000000001
 30
0.0
 11
175.67602600000001
 21
-22.989761000000001
 31
0.0
  0
LINE
  5
2B9
  8
OUTLINE
  6
CONTINUOUS
 62
     3
 10
174.82602499999999
 20
-27.989758999999999
 30
0.0
 11
165.026028
 21
-27.989758999999999
 31
0.0
  0
LINE
  5
2BA
  8
OUTLINE
  6
CONTINUOUS
 62
     3
 10
164.82997900000001
 20
-19.989761000000001
 30
0.0
 11
164.82997900000001
 21
-22.989761000000001
 31
0.0
  0
LINE
  5
2BB
  8
OUTLINE
  6
CONTINUOUS
 62
     3
 10
168.20784699999999
 20
-19.989761000000001
 30
0.0
 11
168.20784699999999
 21
-22.989761000000001
 31
0.0
  0
ARC
  5
2BC
  8
OUTLINE
  6
DASHED
 62
     3
 10
166.696091
 20
-12.5
 30
0.0
 40
2.5
 50
90.0
 51
91.435597000000001
  0
ARC
  5
2BD
  8
OUTLINE
  6
DASHED
 62
     3
 10
167.5
 20
-12.5
 30
0.0
 40
2.5
 50
90.0
 51
95.187223999999986
  0
LINE
  5
2BE
  8
OUTLINE
  6
CONTINUOUS
 62
     3
 10
165.02602200000001
 20
-27.989771000000001
 30
0.0
 11
164.17602199999999
 21
-27.489771000000001
 31
0.0
  0
LINE
  5
2BF
  8
OUTLINE
  6
CONTINUOUS
 62
     3
 10
164.17602600000001
 20
-27.489761000000001
 30
0.0
 11
164.17602600000001
 21
-22.989761000000001
 31
0.0
  0
LINE
  5
2C0
  8
OUTLINE
  6
CONTINUOUS
 62
     3
 10
167.05102600000001
 20
-22.989761000000001
 30
0.0
 11
167.05102600000001
 21
-27.489761000000001
 31
0.0
  0
ARC
  5
2C1
  8
OUTLINE
  6
CONTINUOUS
 62
     3
 10
169.92602600000001
 20
-19.474136000000001
 30
0.0
 40
8.515625
 50
250.26842099999999
 51
289.73167000000001
  0
LINE
  5
2C2
  8
OUTLINE
  6
CONTINUOUS
 62
     3
 10
172.80102500000001
 20
-22.989761000000001
 30
0.0
 11
172.80102500000001
 21
-27.489761000000001
 31
0.0
  0
ARC
  5
2C3
  8
OUTLINE
  6
CONTINUOUS
 62
     3
 10
165.61352600000001
 20
-25.673355000000001
 30
0.0
 40
2.3164060000000002
 50
270.0
 51
308.35805299999998
  0
LINE
  5
2C4
  8
OUTLINE
  6
CONTINUOUS
 62
     3
 10
185.41004000000001
 20
-19.989761000000001
 30
0.0
 11
185.41004000000001
 21
-22.989761000000001
 31
0.0
  0
ARC
  5
2C5
  8
OUTLINE
  6
CONTINUOUS
 62
     3
 10
178.022074
 20
-25.989761000000001
 30
0.0
 40
3.0
 50
90.0
 51
141.44552100000001
  0
ARC
  5
2C6
  8
OUTLINE
  6
CONTINUOUS
 62
     3
 10
194.22602599999999
 20
-17.489761000000001
 30
0.0
 40
2.5
 50
270.0
 51
0.0
  0
ARC
  5
2C7
  8
OUTLINE
  6
CONTINUOUS
 62
     3
 10
193.42211699999999
 20
-17.489761000000001
 30
0.0
 40
2.5
 50
270.00000299999999
 51
0.0
  0
ARC
  5
2C8
  8
OUTLINE
  6
CONTINUOUS
 62
     3
 10
198.42211699999999
 20
-12.489761
 30
0.0
 40
2.5
 50
91.435597000000001
 51
180.0
  0
ARC
  5
2C9
  8
OUTLINE
  6
CONTINUOUS
 62
     3
 10
199.22602599999999
 20
-12.489761
 30
0.0
 40
2.5
 50
95.187223999999986
 51
180.0
  0
LINE
  5
2CA
  8
OUTLINE
  6
CONTINUOUS
 62
     3
 10
196.72602599999999
 20
-12.489761
 30
0.0
 11
196.72602599999999
 21
-17.489761000000001
 31
0.0
  0
LINE
  5
2CB
  8
OUTLINE
  6
CONTINUOUS
 62
     3
 10
195.92211699999999
 20
-12.489761
 30
0.0
 11
195.92211699999999
 21
-17.489761000000001
 31
0.0
  0
ARC
  5
2CC
  8
OUTLINE
  6
DASHED
 62
     3
 10
174.82602600000001
 20
-29.989761000000001
 30
0.0
 40
10.0
 50
90.0
 51
90.116247000000001
  0
LINE
  5
2CD
  8
OUTLINE
  6
CONTINUOUS
 62
     3
 10
175.67602600000001
 20
-22.989761000000001
 30
0.0
 11
175.67602600000001
 21
-27.489761000000001
 31
0.0
  0
LINE
  5
2CE
  8
OUTLINE
  6
CONTINUOUS
 62
     3
 10
175.67603099999999
 20
-27.489771000000001
 30
0.0
 11
174.826031
 21
-27.989771000000001
 31
0.0
  0
LINE
  5
2CF
  8
OUTLINE
  6
CONTINUOUS
 62
     3
 10
235.0
 20
-1.6000000000000001
 30
0.0
 11
234.38321099999999
 21
-4.563034
 31
0.0
  0
ARC
  5
2D0
  8
OUTLINE
  6
CONTINUOUS
 62
     3
 10
233.59999999999999
 20
-4.4000000000000004
 30
0.0
 40
0.8
 50
270.0
 51
348.24116400000003
  0
LINE
  5
2D1
  8
OUTLINE
  6
CONTINUOUS
 62
     3
 10
232.80000000000001
 20
-5.2000000000000002
 30
0.0
 11
232.80000000000001
 21
-7.5
 31
0.0
  0
CIRCLE
  5
2D2
  8
ARRANGE
  6
CONTINUOUS
 62
     1
 10
0.0
 20
0.0
 30
0.0
 40
40.0
  0
POINT
  5
2D3
  8
ARRANGE
  6
CONTINUOUS
 62
     1
 10
0.0
 20
0.0
 30
0.0
  0
TEXT
  5
2E4
  8
ETC
  6
CONTINUOUS
 62
    61
 10
442.60803420912288
 20
586.65311562600436
 30
0.0
 40
40.0
  1
EF-35DSB3_1
 41
0.9
  0
TEXT
  5
2E5
  8
ETC
  6
CONTINUOUS
 62
    61
 10
499.11348305535739
 20
462.72388562600418
 30
0.0
 40
40.0
  1
EF-35DSB2
 41
0.9
  0
TEXT
  5
2E6
  8
ETC
  6
CONTINUOUS
 62
    61
 10
498.68408805535739
 20
399.51492262600431
 30
0.0
 40
40.0
  1
EF-35DTB2
 41
0.9
  0
TEXT
  5
2E7
  8
ETC
  6
CONTINUOUS
 62
    61
 10
442.60803420912288
 20
525.46720262600434
 30
0.0
 40
40.0
  1
産業扇
 41
0.9
  0
TEXT
  5
2E8
  8
ETC
  6
CONTINUOUS
 62
    61
 10
498.68408805535739
 20
339.08772592672011
 30
0.0
 40
40.0
  1
EF-35DSB3
 41
0.9
  0
TEXT
  5
2E9
  8
ETC
  6
CONTINUOUS
 62
    61
 10
498.68408805535739
 20
277.34689326601591
 30
0.0
 40
40.0
  1
EF-35DTB3
 41
0.9
  0
TEXT
  5
2EA
  8
ETC
  6
CONTINUOUS
 62
    61
 10
498.68408805535739
 20
215.60606060531171
 30
0.0
 40
40.0
  1
EF-35DTB40A5
 41
0.9
  0
ENDSEC
  0
EOF
