  0
SECTION
  2
HEADER
  9
$ACADVER
  1
AC1009
  9
$INSBASE
 10
0.0
 20
0.0
 30
0.0
  9
$EXTMIN
 10
-354.38333162911232
 20
-600.54868799999986
 30
0.0
  9
$EXTMAX
 10
1426.5792939407399
 20
573.84648510132388
 30
50.0
  9
$LIMMIN
 10
-2970.0
 20
-2100.0
  9
$LIMMAX
 10
2970.0
 20
2100.0
  9
$ORTHOMODE
 70
     1
  9
$REGENMODE
 70
     0
  9
$FILLMODE
 70
     1
  9
$QTEXTMODE
 70
     0
  9
$MIRRTEXT
 70
     0
  9
$DRAGMODE
 70
     2
  9
$LTSCALE
 40
20.0
  9
$OSMODE
 70
   169
  9
$ATTMODE
 70
     1
  9
$TEXTSIZE
 40
64.0
  9
$TRACEWID
 40
0.05
  9
$TEXTSTYLE
  7
STANDARD
  9
$CLAYER
  8
SIZE
  9
$CELTYPE
  6
CONTINUOUS
  9
$CECOLOR
 62
    30
  9
$DIMSCALE
 40
1.0
  9
$DIMASZ
 40
12.0
  9
$DIMEXO
 40
20.0
  9
$DIMDLI
 40
200.0
  9
$DIMRND
 40
0.0
  9
$DIMDLE
 40
0.0
  9
$DIMEXE
 40
20.0
  9
$DIMTP
 40
0.0
  9
$DIMTM
 40
0.0
  9
$DIMTXT
 40
64.0
  9
$DIMCEN
 40
0.09
  9
$DIMTSZ
 40
0.0
  9
$DIMTOL
 70
     0
  9
$DIMLIM
 70
     0
  9
$DIMTIH
 70
     0
  9
$DIMTOH
 70
     0
  9
$DIMSE1
 70
     0
  9
$DIMSE2
 70
     0
  9
$DIMTAD
 70
     1
  9
$DIMZIN
 70
     8
  9
$DIMBLK
  1

  9
$DIMASO
 70
     1
  9
$DIMSHO
 70
     0
  9
$DIMPOST
  1

  9
$DIMAPOST
  1

  9
$DIMALT
 70
     0
  9
$DIMALTD
 70
     2
  9
$DIMALTF
 40
25.399999999999999
  9
$DIMLFAC
 40
1.0
  9
$DIMTOFL
 70
     1
  9
$DIMTVP
 40
0.0
  9
$DIMTIX
 70
     1
  9
$DIMSOXD
 70
     0
  9
$DIMSAH
 70
     1
  9
$DIMBLK1
  1
ORIGIN
  9
$DIMBLK2
  1
ORIGIN
  9
$DIMSTYLE
  2
STANDARD
  9
$DIMCLRD
 70
     0
  9
$DIMCLRE
 70
     0
  9
$DIMCLRT
 70
     0
  9
$DIMTFAC
 40
1.0
  9
$DIMGAP
 40
25.0
  9
$LUNITS
 70
     2
  9
$LUPREC
 70
     4
  9
$SKETCHINC
 40
0.1
  9
$FILLETRAD
 40
10.0
  9
$AUNITS
 70
     1
  9
$AUPREC
 70
     3
  9
$MENU
  1
ACAD
  9
$ELEVATION
 40
0.0
  9
$PELEVATION
 40
0.0
  9
$THICKNESS
 40
50.0
  9
$LIMCHECK
 70
     0
  9
$BLIPMODE
 70
     0
  9
$CHAMFERA
 40
0.0
  9
$CHAMFERB
 40
0.0
  9
$SKPOLY
 70
     0
  9
$TDCREATE
 40
2452310.4493174758
  9
$TDUPDATE
 40
2453479.34141728
  9
$TDINDWG
 40
0.1555797338
  9
$TDUSRTIMER
 40
0.1555795486
  9
$USRTIMER
 70
     1
  9
$ANGBASE
 50
0.0
  9
$ANGDIR
 70
     0
  9
$PDMODE
 70
     3
  9
$PDSIZE
 40
-2.0
  9
$PLINEWID
 40
0.0
  9
$COORDS
 70
     2
  9
$SPLFRAME
 70
     0
  9
$SPLINETYPE
 70
     6
  9
$SPLINESEGS
 70
     8
  9
$ATTDIA
 70
     0
  9
$ATTREQ
 70
     1
  9
$HANDLING
 70
 22529
  9
$HANDSEED
  5
45A
  9
$SURFTAB1
 70
     6
  9
$SURFTAB2
 70
     6
  9
$SURFTYPE
 70
     6
  9
$SURFU
 70
     6
  9
$SURFV
 70
     6
  9
$UCSNAME
  2

  9
$UCSORG
 10
0.0
 20
0.0
 30
0.0
  9
$UCSXDIR
 10
1.0
 20
0.0
 30
0.0
  9
$UCSYDIR
 10
0.0
 20
1.0
 30
0.0
  9
$PUCSNAME
  2

  9
$PUCSORG
 10
0.0
 20
0.0
 30
0.0
  9
$PUCSXDIR
 10
1.0
 20
0.0
 30
0.0
  9
$PUCSYDIR
 10
0.0
 20
1.0
 30
0.0
  9
$USERI1
 70
     0
  9
$USERI2
 70
     0
  9
$USERI3
 70
     0
  9
$USERI4
 70
     0
  9
$USERI5
 70
     0
  9
$USERR1
 40
20.0
  9
$USERR2
 40
0.0
  9
$USERR3
 40
0.0
  9
$USERR4
 40
0.0
  9
$USERR5
 40
0.0
  9
$WORLDVIEW
 70
     1
  9
$SHADEDGE
 70
     3
  9
$SHADEDIF
 70
    70
  9
$TILEMODE
 70
     1
  9
$MAXACTVP
 70
    64
  9
$PLIMCHECK
 70
     0
  9
$PEXTMIN
 10
1.0000000000000000E+020
 20
1.0000000000000000E+020
 30
1.0000000000000000E+020
  9
$PEXTMAX
 10
-1.0000000000000000E+020
 20
-1.0000000000000000E+020
 30
-1.0000000000000000E+020
  9
$PLIMMIN
 10
0.0
 20
0.0
  9
$PLIMMAX
 10
12.0
 20
9.0
  9
$UNITMODE
 70
     0
  9
$VISRETAIN
 70
     1
  9
$PLINEGEN
 70
     0
  9
$PSLTSCALE
 70
     1
  0
ENDSEC
  0
SECTION
  2
TABLES
  0
TABLE
  2
VPORT
 70
     3
  0
VPORT
  2
*ACTIVE
 70
     0
 10
0.0
 20
0.0
 11
1.0
 21
1.0
 12
398.70776322032128
 22
-19.93187808456036
 13
0.0
 23
0.0
 14
1.0
 24
1.0
 15
0.0
 25
0.0
 16
0.0
 26
0.0
 36
1.0
 17
0.0
 27
0.0
 37
0.0
 40
1468.860257880144
 41
1.4423558897243101
 42
50.0
 43
0.0
 44
0.0
 50
0.0
 51
0.0
 71
     0
 72
   100
 73
     1
 74
     0
 75
     0
 76
     0
 77
     0
 78
     1
  0
ENDTAB
  0
TABLE
  2
LTYPE
 70
     2
  0
LTYPE
  2
CONTINUOUS
 70
     0
  3
実線
 72
    65
 73
     0
 40
0.0
  0
LTYPE
  2
DASHDOT
 70
     0
  3
____ _ ____ _ ____ _ ____ _ ____ _ ____ _ ____
 72
    65
 73
     4
 40
5.5
 49
4.0
 49
-0.6
 49
0.3
 49
-0.6
  0
ENDTAB
  0
TABLE
  2
LAYER
 70
    12
  0
LAYER
  2
0
 70
     0
 62
     7
  6
CONTINUOUS
  0
LAYER
  2
SIZE
 70
     0
 62
    30
  6
CONTINUOUS
  0
LAYER
  2
BASIS
 70
     0
 62
     6
  6
DASHDOT
  0
LAYER
  2
OUTLINE
 70
     0
 62
     3
  6
CONTINUOUS
  0
LAYER
  2
DETAIL
 70
     0
 62
     5
  6
CONTINUOUS
  0
LAYER
  2
ARRANGE
 70
     0
 62
     1
  6
CONTINUOUS
  0
LAYER
  2
DEFPOINTS
 70
     0
 62
     7
  6
CONTINUOUS
  0
LAYER
  2
ETC
 70
     0
 62
    61
  6
CONTINUOUS
  0
LAYER
  2
FIX
 70
     0
 62
    11
  6
CONTINUOUS
  0
LAYER
  2
NOTE
 70
     0
 62
     4
  6
CONTINUOUS
  0
LAYER
  2
SERVICESPACE
 70
     0
 62
     2
  6
DASHDOT
  0
LAYER
  2
SYMBOLLINE
 70
     0
 62
    15
  6
CONTINUOUS
  0
ENDTAB
  0
TABLE
  2
STYLE
 70
     1
  0
STYLE
  2
STANDARD
 70
     0
 40
64.0
 41
0.9
 50
0.0
 71
     0
 42
64.0
  3
SIMPLEX.shx
  4
BIGFONT.shx
  0
ENDTAB
  0
TABLE
  2
VIEW
 70
     1
  0
VIEW
  2
ALL
 70
     0
 40
4282.6198079999967
 10
0.0
 20
41.309903999999989
 41
5940.0
 11
0.0
 21
0.0
 31
1.0
 12
0.0
 22
0.0
 32
0.0
 42
50.0
 43
0.0
 44
0.0
 50
0.0
 71
     0
  0
ENDTAB
  0
TABLE
  2
UCS
 70
     0
  0
ENDTAB
  0
TABLE
  2
APPID
 70
     1
  0
APPID
  2
ACAD
 70
     0
  0
ENDTAB
  0
TABLE
  2
DIMSTYLE
 70
     1
  0
DIMSTYLE
  2
STANDARD
 70
     0
  3

  4

  5

  6

  7

 40
1.0
 41
0.18
 42
0.0625
 43
0.38
 44
0.18
 45
0.0
 46
0.0
 47
0.0
 48
0.0
140
0.18
141
0.09
142
0.0
143
25.399999999999999
144
1.0
145
0.0
146
1.0
147
0.09
 71
     0
 72
     0
 73
     1
 74
     1
 75
     0
 76
     0
 77
     0
 78
     0
170
     0
171
     2
172
     0
173
     0
174
     0
175
     0
176
     0
177
     0
178
     0
  0
ENDTAB
  0
ENDSEC
  0
SECTION
  2
BLOCKS
  0
BLOCK
  8
0
  2
$MODEL_SPACE
 70
     0
 10
0.0
 20
0.0
 30
0.0
  3
$MODEL_SPACE
  1

  0
ENDBLK
  5
318
  8
0
  0
BLOCK
 67
     1
  8
0
  2
$PAPER_SPACE
 70
     0
 10
0.0
 20
0.0
 30
0.0
  3
$PAPER_SPACE
  1

  0
ENDBLK
  5
314
 67
     1
  8
0
  0
BLOCK
  8
0
  2
DOT1
 70
     0
 10
0.0
 20
0.0
 30
0.0
  3
DOT1
  1

  0
CIRCLE
  5
333
  8
SIZE
  6
CONTINUOUS
 62
     7
 10
0.0
 20
0.0
 30
0.0
 40
3.0
  0
ENDBLK
  5
334
  8
0
  0
BLOCK
  8
0
  2
_ORIGIN
 70
     0
 10
0.0
 20
0.0
 30
0.0
  3
_ORIGIN
  1

  0
CIRCLE
  5
337
  8
0
  6
CONTINUOUS
 62
     7
 10
0.0
 20
0.0
 30
0.0
 40
0.5
  0
LINE
  5
338
  8
0
  6
CONTINUOUS
 62
     7
 10
0.0
 20
0.0
 30
0.0
 11
-1.0
 21
0.0
 31
0.0
  0
ENDBLK
  5
339
  8
0
  0
BLOCK
  8
0
 62
    30
  2
*D4
 70
     1
 10
0.0
 20
0.0
 30
0.0
  3
*D4
  1

  0
LINE
  5
33C
  8
SIZE
  6
CONTINUOUS
 62
     0
 10
-20.0
 20
234.99999999999969
 30
0.0
 11
-285.38333162911232
 21
235.0
 31
0.0
  0
LINE
  5
33D
  8
SIZE
  6
CONTINUOUS
 62
     0
 10
-20.0
 20
-234.99999999999969
 30
0.0
 11
-285.38333162911249
 21
-234.9999999999996
 31
0.0
  0
LINE
  5
33E
  8
SIZE
  6
CONTINUOUS
 62
     0
 10
-265.38333162911232
 20
223.0
 30
0.0
 11
-265.38333162911232
 21
-222.99999999999989
 31
0.0
  0
INSERT
  5
33F
  8
SIZE
  6
CONTINUOUS
 62
     0
  2
_ORIGIN
 10
-265.38333162911232
 20
235.0
 30
0.0
 41
12.0
 42
12.0
 43
12.0
 50
90.0
  0
INSERT
  5
340
  8
SIZE
  6
CONTINUOUS
 62
     0
  2
_ORIGIN
 10
-265.38333162911232
 20
-234.9999999999996
 30
0.0
 41
12.0
 42
12.0
 43
12.0
 50
270.0
  0
TEXT
  5
341
  8
SIZE
  6
CONTINUOUS
 62
     0
 10
-290.38333162911232
 20
-74.057142857142779
 30
0.0
 40
64.0
  1
470
 50
90.0
 41
0.9
  0
POINT
  5
342
  8
DEFPOINTS
  6
CONTINUOUS
 62
     0
 10
0.0
 20
234.99999999999969
 30
0.0
  0
POINT
  5
343
  8
DEFPOINTS
  6
CONTINUOUS
 62
     0
 10
0.0
 20
-234.99999999999969
 30
0.0
  0
POINT
  5
344
  8
DEFPOINTS
  6
CONTINUOUS
 62
     0
 10
-265.38333162911232
 20
-234.9999999999996
 30
0.0
  0
ENDBLK
  5
345
  8
0
 62
    30
  0
ENDSEC
  0
SECTION
  2
ENTITIES
  0
LINE
  5
346
  8
DETAIL
  6
CONTINUOUS
 62
     5
 10
0.0
 20
-234.99999999999969
 30
0.0
 11
0.0
 21
234.99999999999969
 31
0.0
  0
LINE
  5
347
  8
BASIS
  6
DASHDOT
 62
     6
 10
-75.692600999999982
 20
0.0
 30
0.0
 11
279.37314600000002
 21
0.0
 31
0.0
  0
LINE
  5
348
  8
DETAIL
  6
CONTINUOUS
 62
     5
 10
67.0
 20
207.5
 30
0.0
 11
70.0
 21
207.5
 31
0.0
  0
TEXT
  5
349
  8
NOTE
  6
CONTINUOUS
 62
     4
 10
269.42990499999991
 20
332.64689399999992
 30
0.0
 40
64.0
  1
4-φ12
 41
0.9
  0
LINE
  5
34A
  8
NOTE
  6
CONTINUOUS
 62
     4
 10
564.79841699999986
 20
305.21994199999989
 30
0.0
 11
240.51811000000001
 21
305.21994199999989
 31
0.0
  0
LINE
  5
34B
  8
NOTE
  6
CONTINUOUS
 62
     4
 10
10.121027999999979
 20
216.9851309999998
 30
0.0
 11
240.51811000000001
 21
305.21994199999989
 31
0.0
  0
LINE
  5
34C
  8
NOTE
  6
CONTINUOUS
 62
     4
 10
49.936748999999999
 20
220.82027400000001
 30
0.0
 11
10.121027999999979
 21
216.9851309999998
 31
0.0
  0
LINE
  5
34D
  8
NOTE
  6
CONTINUOUS
 62
     4
 10
10.121027999999979
 20
216.9851309999998
 30
0.0
 11
42.684882000000002
 21
240.214324
 31
0.0
  0
LINE
  5
34E
  8
DETAIL
  6
CONTINUOUS
 62
     5
 10
20.0
 20
-210.49999999999989
 30
0.0
 11
10.0
 21
-210.49999999999989
 31
0.0
  0
LINE
  5
34F
  8
DETAIL
  6
CONTINUOUS
 62
     5
 10
20.0
 20
210.49999999999989
 30
0.0
 11
10.0
 21
210.49999999999989
 31
0.0
  0
LINE
  5
350
  8
SIZE
  6
CONTINUOUS
 62
    30
 10
0.0
 20
253.5
 30
0.0
 11
0.0
 21
373.564278
 31
0.0
  0
LINE
  5
351
  8
SIZE
  6
CONTINUOUS
 62
    30
 10
10.0
 20
253.5
 30
0.0
 11
10.0
 21
373.564278
 31
0.0
  0
LINE
  5
352
  8
SIZE
  6
CONTINUOUS
 62
    30
 10
-12.0
 20
353.56427799999972
 30
0.0
 11
-24.0
 21
353.56427799999972
 31
0.0
  0
LINE
  5
353
  8
SIZE
  6
CONTINUOUS
 62
    30
 10
22.0
 20
353.56427799999972
 30
0.0
 11
34.0
 21
353.56427799999972
 31
0.0
  0
LINE
  5
354
  8
SIZE
  6
CONTINUOUS
 62
    30
 10
-157.02845899999991
 20
353.56427799999972
 30
0.0
 11
0.0
 21
353.56427799999972
 31
0.0
  0
TEXT
  5
355
  8
SIZE
  6
CONTINUOUS
 62
    30
 10
-132.02845914285709
 20
378.56427799999989
 30
0.0
 40
64.0
  1
10
 41
0.9
 72
     1
 11
-90.885602000000006
 21
378.56427799999989
 31
0.0
  0
LINE
  5
356
  8
SIZE
  6
CONTINUOUS
 62
    30
 10
0.0
 20
353.56427799999972
 30
0.0
 11
10.0
 21
353.56427799999972
 31
0.0
  0
LINE
  5
357
  8
SIZE
  6
CONTINUOUS
 62
    30
 10
0.0
 20
353.56427799999972
 30
0.0
 11
10.0
 21
353.56427799999972
 31
0.0
  0
CIRCLE
  5
358
  8
SIZE
  6
CONTINUOUS
 62
    30
 10
0.0
 20
353.56427799999972
 30
0.0
 40
6.0
  0
LINE
  5
359
  8
SIZE
  6
CONTINUOUS
 62
    30
 10
0.0
 20
353.56427799999972
 30
0.0
 11
-12.0
 21
353.56427799999972
 31
0.0
  0
CIRCLE
  5
35A
  8
SIZE
  6
CONTINUOUS
 62
    30
 10
10.0
 20
353.56427799999972
 30
0.0
 40
6.0
  0
LINE
  5
35B
  8
SIZE
  6
CONTINUOUS
 62
    30
 10
10.0
 20
353.56427799999972
 30
0.0
 11
22.0
 21
353.56427799999972
 31
0.0
  0
POINT
  5
35C
  8
DEFPOINTS
  6
CONTINUOUS
 62
    30
 10
10.0
 20
353.56427799999972
 30
0.0
  0
LINE
  5
35D
  8
SIZE
  6
CONTINUOUS
 62
    30
 10
10.0
 20
255.0
 30
0.0
 11
10.0
 21
373.564278
 31
0.0
  0
LINE
  5
35E
  8
SIZE
  6
CONTINUOUS
 62
    30
 10
20.0
 20
230.5
 30
0.0
 11
20.0
 21
373.564278
 31
0.0
  0
LINE
  5
35F
  8
SIZE
  6
CONTINUOUS
 62
    30
 10
-2.0
 20
353.56427799999972
 30
0.0
 11
-14.0
 21
353.56427799999972
 31
0.0
  0
LINE
  5
360
  8
SIZE
  6
CONTINUOUS
 62
    30
 10
32.0
 20
353.56427799999972
 30
0.0
 11
44.0
 21
353.56427799999972
 31
0.0
  0
LINE
  5
361
  8
SIZE
  6
CONTINUOUS
 62
    30
 10
182.74230800000001
 20
353.56427799999972
 30
0.0
 11
20.0
 21
353.56427799999972
 31
0.0
  0
TEXT
  5
362
  8
SIZE
  6
CONTINUOUS
 62
    30
 10
75.456593857142764
 20
378.56427799999989
 30
0.0
 40
64.0
  1
10
 41
0.9
 72
     1
 11
116.5994509999999
 21
378.56427799999989
 31
0.0
  0
LINE
  5
363
  8
SIZE
  6
CONTINUOUS
 62
    30
 10
10.0
 20
353.56427799999972
 30
0.0
 11
20.0
 21
353.56427799999972
 31
0.0
  0
LINE
  5
364
  8
SIZE
  6
CONTINUOUS
 62
    30
 10
10.0
 20
353.56427799999972
 30
0.0
 11
20.0
 21
353.56427799999972
 31
0.0
  0
CIRCLE
  5
365
  8
SIZE
  6
CONTINUOUS
 62
    30
 10
10.0
 20
353.56427799999972
 30
0.0
 40
6.0
  0
LINE
  5
366
  8
SIZE
  6
CONTINUOUS
 62
    30
 10
10.0
 20
353.56427799999972
 30
0.0
 11
-2.0
 21
353.56427799999972
 31
0.0
  0
CIRCLE
  5
367
  8
SIZE
  6
CONTINUOUS
 62
    30
 10
20.0
 20
353.56427799999972
 30
0.0
 40
6.0
  0
LINE
  5
368
  8
SIZE
  6
CONTINUOUS
 62
    30
 10
20.0
 20
353.56427799999972
 30
0.0
 11
32.0
 21
353.56427799999972
 31
0.0
  0
POINT
  5
369
  8
DEFPOINTS
  6
CONTINUOUS
 62
    30
 10
20.0
 20
353.56427799999972
 30
0.0
  0
LINE
  5
36A
  8
DETAIL
  6
CONTINUOUS
 62
     5
 10
10.0
 20
-234.99999999999969
 30
0.0
 11
10.0
 21
234.99999999999969
 31
0.0
  0
LINE
  5
36B
  8
DETAIL
  6
CONTINUOUS
 62
     5
 10
20.0
 20
-210.49999999999989
 30
0.0
 11
20.0
 21
210.49999999999989
 31
0.0
  0
LINE
  5
36C
  8
DETAIL
  6
CONTINUOUS
 62
     5
 10
198.0
 20
-145.0
 30
0.0
 11
198.0
 21
-57.5
 31
0.0
  0
LINE
  5
36D
  8
DETAIL
  6
CONTINUOUS
 62
     5
 10
173.0
 20
-150.0
 30
0.0
 11
173.0
 21
150.0
 31
0.0
  0
LINE
  5
36E
  8
DETAIL
  6
CONTINUOUS
 62
     5
 10
70.0
 20
-180.0
 30
0.0
 11
70.0
 21
180.0
 31
0.0
  0
LINE
  5
36F
  8
SIZE
  6
CONTINUOUS
 62
    30
 10
0.0
 20
-253.5
 30
0.0
 11
0.0
 21
-600.54868799999986
 31
0.0
  0
LINE
  5
370
  8
SIZE
  6
CONTINUOUS
 62
    30
 10
228.0
 20
-77.5
 30
0.0
 11
228.0
 21
-600.54868799999986
 31
0.0
  0
LINE
  5
371
  8
SIZE
  6
CONTINUOUS
 62
    30
 10
12.0
 20
-580.54868799999997
 30
0.0
 11
216.0
 21
-580.54868799999997
 31
0.0
  0
LINE
  5
372
  8
SIZE
  6
CONTINUOUS
 62
    30
 10
455.20735300000001
 20
-580.54868799999997
 30
0.0
 11
228.0
 21
-580.54868799999997
 31
0.0
  0
TEXT
  5
373
  8
SIZE
  6
CONTINUOUS
 62
    30
 10
282.09306714285719
 20
-555.54868799999997
 30
0.0
 40
64.0
  1
228
 41
0.9
 72
     1
 11
356.15021000000002
 21
-555.54868799999997
 31
0.0
  0
CIRCLE
  5
374
  8
SIZE
  6
CONTINUOUS
 62
    30
 10
0.0
 20
-580.54868799999997
 30
0.0
 40
6.0
  0
LINE
  5
375
  8
SIZE
  6
CONTINUOUS
 62
    30
 10
0.0
 20
-580.54868799999997
 30
0.0
 11
12.0
 21
-580.54868799999997
 31
0.0
  0
CIRCLE
  5
376
  8
SIZE
  6
CONTINUOUS
 62
    30
 10
228.0
 20
-580.54868799999997
 30
0.0
 40
6.0
  0
LINE
  5
377
  8
SIZE
  6
CONTINUOUS
 62
    30
 10
228.0
 20
-580.54868799999997
 30
0.0
 11
216.0
 21
-580.54868799999997
 31
0.0
  0
POINT
  5
378
  8
DEFPOINTS
  6
CONTINUOUS
 62
    30
 10
228.0
 20
-580.54868799999997
 30
0.0
  0
LINE
  5
379
  8
DETAIL
  6
CONTINUOUS
 62
     5
 10
20.0
 20
200.0
 30
0.0
 11
143.0
 21
200.0
 31
0.0
  0
LINE
  5
37A
  8
DETAIL
  6
CONTINUOUS
 62
     5
 10
20.0
 20
180.0
 30
0.0
 11
143.0
 21
180.0
 31
0.0
  0
ARC
  5
37B
  8
DETAIL
  6
CONTINUOUS
 62
     5
 10
143.0
 20
145.0
 30
0.0
 40
55.0
 50
0.0
 51
90.0
  0
LINE
  5
37C
  8
DETAIL
  6
CONTINUOUS
 62
     5
 10
67.0
 20
-180.0
 30
0.0
 11
67.0
 21
180.0
 31
0.0
  0
LINE
  5
37D
  8
DETAIL
  6
CONTINUOUS
 62
     5
 10
70.0
 20
200.0
 30
0.0
 11
70.0
 21
207.5
 31
0.0
  0
LINE
  5
37E
  8
DETAIL
  6
CONTINUOUS
 62
     5
 10
67.0
 20
200.0
 30
0.0
 11
67.0
 21
207.5
 31
0.0
  0
LINE
  5
37F
  8
DETAIL
  6
CONTINUOUS
 62
     5
 10
20.0
 20
-180.0
 30
0.0
 11
143.0
 21
-180.0
 31
0.0
  0
LINE
  5
380
  8
DETAIL
  6
CONTINUOUS
 62
     5
 10
143.0
 20
-200.0
 30
0.0
 11
20.0
 21
-200.0
 31
0.0
  0
ARC
  5
381
  8
DETAIL
  6
CONTINUOUS
 62
     5
 10
143.0
 20
-145.0
 30
0.0
 40
55.0
 50
270.0
 51
0.0
  0
LINE
  5
382
  8
DETAIL
  6
CONTINUOUS
 62
     5
 10
70.0
 20
-200.0
 30
0.0
 11
70.0
 21
-207.5
 31
0.0
  0
LINE
  5
383
  8
DETAIL
  6
CONTINUOUS
 62
     5
 10
67.0
 20
-200.0
 30
0.0
 11
67.0
 21
-207.5
 31
0.0
  0
LINE
  5
384
  8
DETAIL
  6
CONTINUOUS
 62
     5
 10
67.0
 20
-207.5
 30
0.0
 11
70.0
 21
-207.5
 31
0.0
  0
LINE
  5
385
  8
SIZE
  6
CONTINUOUS
 62
    30
 10
0.0
 20
-253.5
 30
0.0
 11
0.0
 21
-480.87068799999992
 31
0.0
  0
LINE
  5
386
  8
SIZE
  6
CONTINUOUS
 62
    30
 10
70.0
 20
-227.49999999999989
 30
0.0
 11
70.0
 21
-480.87068799999992
 31
0.0
  0
LINE
  5
387
  8
SIZE
  6
CONTINUOUS
 62
    30
 10
-12.0
 20
-460.8706879999998
 30
0.0
 11
-24.0
 21
-460.8706879999998
 31
0.0
  0
LINE
  5
388
  8
SIZE
  6
CONTINUOUS
 62
    30
 10
82.0
 20
-460.8706879999998
 30
0.0
 11
94.0
 21
-460.8706879999998
 31
0.0
  0
LINE
  5
389
  8
SIZE
  6
CONTINUOUS
 62
    30
 10
-167.53635700000001
 20
-460.8706879999998
 30
0.0
 11
0.0
 21
-460.8706879999998
 31
0.0
  0
TEXT
  5
38A
  8
SIZE
  6
CONTINUOUS
 62
    30
 10
-142.53635742857139
 20
-435.8706879999998
 30
0.0
 40
64.0
  1
70
 41
0.9
 72
     1
 11
-95.907786000000002
 21
-435.8706879999998
 31
0.0
  0
LINE
  5
38B
  8
SIZE
  6
CONTINUOUS
 62
    30
 10
0.0
 20
-460.8706879999998
 30
0.0
 11
70.0
 21
-460.8706879999998
 31
0.0
  0
LINE
  5
38C
  8
SIZE
  6
CONTINUOUS
 62
    30
 10
0.0
 20
-460.8706879999998
 30
0.0
 11
70.0
 21
-460.8706879999998
 31
0.0
  0
CIRCLE
  5
38D
  8
SIZE
  6
CONTINUOUS
 62
    30
 10
0.0
 20
-460.8706879999998
 30
0.0
 40
6.0
  0
LINE
  5
38E
  8
SIZE
  6
CONTINUOUS
 62
    30
 10
0.0
 20
-460.8706879999998
 30
0.0
 11
-12.0
 21
-460.8706879999998
 31
0.0
  0
CIRCLE
  5
38F
  8
SIZE
  6
CONTINUOUS
 62
    30
 10
70.0
 20
-460.8706879999998
 30
0.0
 40
6.0
  0
LINE
  5
390
  8
SIZE
  6
CONTINUOUS
 62
    30
 10
70.0
 20
-460.8706879999998
 30
0.0
 11
82.0
 21
-460.8706879999998
 31
0.0
  0
POINT
  5
391
  8
DEFPOINTS
  6
CONTINUOUS
 62
    30
 10
70.0
 20
-460.8706879999998
 30
0.0
  0
LINE
  5
392
  8
SIZE
  6
CONTINUOUS
 62
    30
 10
-30.0
 20
-217.0
 30
0.0
 11
-152.25287499999999
 21
-217.0
 31
0.0
  0
LINE
  5
393
  8
SIZE
  6
CONTINUOUS
 62
    30
 10
-30.0
 20
217.0
 30
0.0
 11
-152.25287499999999
 21
217.0
 31
0.0
  0
LINE
  5
394
  8
SIZE
  6
CONTINUOUS
 62
    30
 10
-132.2528749999999
 20
-205.0
 30
0.0
 11
-132.2528749999999
 21
205.0
 31
0.0
  0
CIRCLE
  5
395
  8
SIZE
  6
CONTINUOUS
 62
    30
 10
-132.2528749999999
 20
-217.0
 30
0.0
 40
6.0
  0
LINE
  5
396
  8
SIZE
  6
CONTINUOUS
 62
    30
 10
-132.2528749999999
 20
-217.0
 30
0.0
 11
-132.2528749999999
 21
-205.0
 31
0.0
  0
CIRCLE
  5
397
  8
SIZE
  6
CONTINUOUS
 62
    30
 10
-132.2528749999999
 20
217.0
 30
0.0
 40
6.0
  0
LINE
  5
398
  8
SIZE
  6
CONTINUOUS
 62
    30
 10
-132.2528749999999
 20
217.0
 30
0.0
 11
-132.2528749999999
 21
205.0
 31
0.0
  0
TEXT
  5
399
  8
SIZE
  6
CONTINUOUS
 62
    30
 10
-157.25287499999999
 20
-75.428571428571416
 30
0.0
 40
64.0
  1
434
 50
90.0
 41
0.9
 72
     1
 11
-157.25287499999999
 21
0.0
 31
0.0
  0
POINT
  5
39A
  8
DEFPOINTS
  6
CONTINUOUS
 62
    30
 10
-132.2528749999999
 20
217.0
 30
0.0
  0
LINE
  5
39B
  8
NOTE
  6
CONTINUOUS
 62
     4
 10
30.0
 20
217.0
 30
0.0
 11
-10.0
 21
217.0
 31
0.0
  0
LINE
  5
39C
  8
NOTE
  6
CONTINUOUS
 62
     4
 10
10.0
 20
237.0
 30
0.0
 11
10.0
 21
197.0
 31
0.0
  0
LINE
  5
39D
  8
NOTE
  6
CONTINUOUS
 62
     4
 10
30.0
 20
-217.0
 30
0.0
 11
-10.0
 21
-217.0
 31
0.0
  0
LINE
  5
39E
  8
NOTE
  6
CONTINUOUS
 62
     4
 10
10.0
 20
-197.0
 30
0.0
 11
10.0
 21
-237.0
 31
0.0
  0
POINT
  5
39F
  8
ARRANGE
  6
CONTINUOUS
 62
     1
 10
0.0
 20
0.0
 30
0.0
  0
CIRCLE
  5
3A0
  8
ARRANGE
  6
CONTINUOUS
 62
     1
 10
0.0
 20
0.0
 30
0.0
 40
40.0
  0
LINE
  5
3A1
  8
DETAIL
  6
CONTINUOUS
 62
     5
 10
213.0
 20
-123.0
 30
0.0
 11
213.0
 21
80.0
 31
0.0
  0
LINE
  5
3A2
  8
DETAIL
  6
CONTINUOUS
 62
     5
 10
198.0
 20
-123.0
 30
0.0
 11
213.0
 21
-123.0
 31
0.0
  0
LINE
  5
3A3
  8
DETAIL
  6
CONTINUOUS
 62
     5
 10
198.0
 20
80.0
 30
0.0
 11
213.0
 21
80.0
 31
0.0
  0
LINE
  5
3A4
  8
SIZE
  6
CONTINUOUS
 62
    30
 10
90.0
 20
207.5
 30
0.0
 11
578.44218699999999
 21
207.5
 31
0.0
  0
LINE
  5
3A5
  8
SIZE
  6
CONTINUOUS
 62
    30
 10
90.0
 20
-207.5
 30
0.0
 11
578.44218699999999
 21
-207.5
 31
0.0
  0
LINE
  5
3A6
  8
SIZE
  6
CONTINUOUS
 62
    30
 10
558.44218699999988
 20
195.5
 30
0.0
 11
558.44218699999988
 21
-195.5
 31
0.0
  0
CIRCLE
  5
3A7
  8
SIZE
  6
CONTINUOUS
 62
    30
 10
558.44218699999988
 20
207.5
 30
0.0
 40
6.0
  0
LINE
  5
3A8
  8
SIZE
  6
CONTINUOUS
 62
    30
 10
558.44218699999988
 20
207.5
 30
0.0
 11
558.44218699999988
 21
195.5
 31
0.0
  0
CIRCLE
  5
3A9
  8
SIZE
  6
CONTINUOUS
 62
    30
 10
558.44218699999988
 20
-207.5
 30
0.0
 40
6.0
  0
LINE
  5
3AA
  8
SIZE
  6
CONTINUOUS
 62
    30
 10
558.44218699999988
 20
-207.5
 30
0.0
 11
558.44218699999988
 21
-195.5
 31
0.0
  0
TEXT
  5
3AB
  8
SIZE
  6
CONTINUOUS
 62
    30
 10
533.44218699999988
 20
-108.89142857142851
 30
0.0
 40
64.0
  1
φ415
 50
90.0
 41
0.9
 72
     1
 11
533.44218699999988
 21
0.0
 31
0.0
  0
POINT
  5
3AC
  8
DEFPOINTS
  6
CONTINUOUS
 62
    30
 10
558.44218699999988
 20
-207.5
 30
0.0
  0
LINE
  5
3AD
  8
SIZE
  6
CONTINUOUS
 62
    30
 10
233.0
 20
65.5
 30
0.0
 11
442.21908499999989
 21
65.5
 31
0.0
  0
LINE
  5
3AE
  8
SIZE
  6
CONTINUOUS
 62
    30
 10
233.0
 20
-65.5
 30
0.0
 11
442.21908499999989
 21
-65.5
 31
0.0
  0
LINE
  5
3AF
  8
SIZE
  6
CONTINUOUS
 62
    30
 10
422.21908499999989
 20
53.5
 30
0.0
 11
422.21908499999989
 21
-53.5
 31
0.0
  0
LINE
  5
3B0
  8
SIZE
  6
CONTINUOUS
 62
    30
 10
422.21908499999989
 20
-422.46142899999978
 30
0.0
 11
422.21908499999989
 21
-65.5
 31
0.0
  0
TEXT
  5
3B1
  8
SIZE
  6
CONTINUOUS
 62
    30
 10
397.21908500000001
 20
-411.7242864285713
 30
0.0
 40
64.0
  1
φ131
 50
90.0
 41
0.9
 72
     1
 11
397.21908500000001
 21
-315.17571499999991
 31
0.0
  0
CIRCLE
  5
3B2
  8
SIZE
  6
CONTINUOUS
 62
    30
 10
422.21908499999989
 20
65.5
 30
0.0
 40
6.0
  0
LINE
  5
3B3
  8
SIZE
  6
CONTINUOUS
 62
    30
 10
422.21908499999989
 20
65.5
 30
0.0
 11
422.21908499999989
 21
53.5
 31
0.0
  0
CIRCLE
  5
3B4
  8
SIZE
  6
CONTINUOUS
 62
    30
 10
422.21908499999989
 20
-65.5
 30
0.0
 40
6.0
  0
LINE
  5
3B5
  8
SIZE
  6
CONTINUOUS
 62
    30
 10
422.21908499999989
 20
-65.5
 30
0.0
 11
422.21908499999989
 21
-53.5
 31
0.0
  0
POINT
  5
3B6
  8
DEFPOINTS
  6
CONTINUOUS
 62
    30
 10
422.21908499999989
 20
-65.5
 30
0.0
  0
CIRCLE
  5
3B7
  8
FIX
  6
CONTINUOUS
 62
    11
 10
10.0
 20
217.0
 30
0.0
 40
6.0
  0
CIRCLE
  5
3B8
  8
FIX
  6
CONTINUOUS
 62
    11
 10
10.0
 20
-217.0
 30
0.0
 40
6.0
  0
ARC
  5
3B9
  8
DETAIL
  6
CONTINUOUS
 62
     5
 10
143.0
 20
150.0
 30
0.0
 40
30.0
 50
0.0
 51
90.0
  0
ARC
  5
3BA
  8
DETAIL
  6
CONTINUOUS
 62
     5
 10
143.0
 20
-150.0
 30
0.0
 40
30.0
 50
270.0
 51
0.0
  0
LINE
  5
3BB
  8
DETAIL
  6
CONTINUOUS
 62
     5
 10
228.0
 20
-57.5
 30
0.0
 11
228.0
 21
57.5
 31
0.0
  0
LINE
  5
3BC
  8
DETAIL
  6
CONTINUOUS
 62
     5
 10
213.0
 20
65.5
 30
0.0
 11
228.0
 21
57.5
 31
0.0
  0
LINE
  5
3BD
  8
DETAIL
  6
CONTINUOUS
 62
     5
 10
228.0
 20
-57.5
 30
0.0
 11
213.0
 21
-65.5
 31
0.0
  0
LINE
  5
3BE
  8
DETAIL
  6
CONTINUOUS
 62
     5
 10
193.86087199999969
 20
-55.822792000000007
 30
0.0
 11
193.86087199999969
 21
55.822792000000007
 31
0.0
  0
LINE
  5
3BF
  8
DETAIL
  6
CONTINUOUS
 62
     5
 10
201.451787
 20
58.89869199999999
 30
0.0
 11
193.86087199999969
 21
55.822792000000007
 31
0.0
  0
LINE
  5
3C0
  8
DETAIL
  6
CONTINUOUS
 62
     5
 10
198.0
 20
-57.5
 30
0.0
 11
193.86087199999969
 21
-55.822792000000007
 31
0.0
  0
LINE
  5
3C1
  8
DETAIL
  6
CONTINUOUS
 62
     5
 10
198.0
 20
57.5
 30
0.0
 11
198.0
 21
145.0
 31
0.0
  0
LINE
  5
3C2
  8
DETAIL
  6
CONTINUOUS
 62
     5
 10
201.451787
 20
58.89869199999999
 30
0.0
 11
201.451787
 21
66.958658999999997
 31
0.0
  0
LINE
  5
3C3
  8
DETAIL
  6
CONTINUOUS
 62
     5
 10
198.0
 20
68.5
 30
0.0
 11
201.451787
 21
66.958658999999997
 31
0.0
  0
LINE
  5
3C4
  8
DETAIL
  6
CONTINUOUS
 62
     5
 10
201.451787
 20
-58.89869199999999
 30
0.0
 11
201.451787
 21
-110.23603899999991
 31
0.0
  0
LINE
  5
3C5
  8
DETAIL
  6
CONTINUOUS
 62
     5
 10
201.451787
 20
-58.89869199999999
 30
0.0
 11
193.86087199999969
 21
-55.822792000000007
 31
0.0
  0
LINE
  5
3C6
  8
DETAIL
  6
CONTINUOUS
 62
     5
 10
198.0
 20
-111.4999999999999
 30
0.0
 11
201.451787
 21
-110.23603899999991
 31
0.0
  0
LINE
  5
3C7
  8
OUTLINE
  6
CONTINUOUS
 62
     3
 10
173.0
 20
-150.0
 30
0.0
 11
173.0
 21
150.0
 31
0.0
  0
LINE
  5
3C8
  8
OUTLINE
  6
CONTINUOUS
 62
     3
 10
193.86087199999969
 20
-55.822792000000007
 30
0.0
 11
193.86087199999969
 21
55.822792000000007
 31
0.0
  0
LINE
  5
3C9
  8
OUTLINE
  6
CONTINUOUS
 62
     3
 10
213.0
 20
-123.0
 30
0.0
 11
213.0
 21
80.0
 31
0.0
  0
LINE
  5
3CA
  8
OUTLINE
  6
CONTINUOUS
 62
     3
 10
228.0
 20
-57.5
 30
0.0
 11
228.0
 21
57.5
 31
0.0
  0
LINE
  5
3CB
  8
OUTLINE
  6
CONTINUOUS
 62
     3
 10
67.0
 20
-180.0
 30
0.0
 11
67.0
 21
180.0
 31
0.0
  0
LINE
  5
3CC
  8
OUTLINE
  6
CONTINUOUS
 62
     3
 10
70.0
 20
-180.0
 30
0.0
 11
70.0
 21
180.0
 31
0.0
  0
LINE
  5
3CD
  8
OUTLINE
  6
CONTINUOUS
 62
     3
 10
20.0
 20
-210.49999999999989
 30
0.0
 11
20.0
 21
210.49999999999989
 31
0.0
  0
ARC
  5
3CE
  8
OUTLINE
  6
CONTINUOUS
 62
     3
 10
143.0
 20
-145.0
 30
0.0
 40
55.0
 50
270.0
 51
0.0
  0
ARC
  5
3CF
  8
OUTLINE
  6
CONTINUOUS
 62
     3
 10
143.0
 20
-150.0
 30
0.0
 40
30.0
 50
270.0
 51
0.0
  0
LINE
  5
3D0
  8
OUTLINE
  6
CONTINUOUS
 62
     3
 10
143.0
 20
-200.0
 30
0.0
 11
20.0
 21
-200.0
 31
0.0
  0
LINE
  5
3D1
  8
OUTLINE
  6
CONTINUOUS
 62
     3
 10
20.0
 20
-180.0
 30
0.0
 11
143.0
 21
-180.0
 31
0.0
  0
LINE
  5
3D2
  8
OUTLINE
  6
CONTINUOUS
 62
     3
 10
67.0
 20
-200.0
 30
0.0
 11
67.0
 21
-207.5
 31
0.0
  0
LINE
  5
3D3
  8
OUTLINE
  6
CONTINUOUS
 62
     3
 10
70.0
 20
-200.0
 30
0.0
 11
70.0
 21
-207.5
 31
0.0
  0
LINE
  5
3D4
  8
OUTLINE
  6
CONTINUOUS
 62
     3
 10
67.0
 20
-207.5
 30
0.0
 11
70.0
 21
-207.5
 31
0.0
  0
LINE
  5
3D5
  8
OUTLINE
  6
CONTINUOUS
 62
     3
 10
20.0
 20
-210.49999999999989
 30
0.0
 11
10.0
 21
-210.49999999999989
 31
0.0
  0
LINE
  5
3D6
  8
OUTLINE
  6
CONTINUOUS
 62
     3
 10
201.451787
 20
-58.89869199999999
 30
0.0
 11
201.451787
 21
-110.23603899999991
 31
0.0
  0
LINE
  5
3D7
  8
OUTLINE
  6
CONTINUOUS
 62
     3
 10
198.0
 20
-145.0
 30
0.0
 11
198.0
 21
-57.5
 31
0.0
  0
LINE
  5
3D8
  8
OUTLINE
  6
CONTINUOUS
 62
     3
 10
198.0
 20
-111.4999999999999
 30
0.0
 11
201.451787
 21
-110.23603899999991
 31
0.0
  0
LINE
  5
3D9
  8
OUTLINE
  6
CONTINUOUS
 62
     3
 10
198.0
 20
-123.0
 30
0.0
 11
213.0
 21
-123.0
 31
0.0
  0
LINE
  5
3DA
  8
OUTLINE
  6
CONTINUOUS
 62
     3
 10
201.451787
 20
-58.89869199999999
 30
0.0
 11
193.86087199999969
 21
-55.822792000000007
 31
0.0
  0
LINE
  5
3DB
  8
OUTLINE
  6
CONTINUOUS
 62
     3
 10
198.0
 20
-57.5
 30
0.0
 11
193.86087199999969
 21
-55.822792000000007
 31
0.0
  0
LINE
  5
3DC
  8
OUTLINE
  6
CONTINUOUS
 62
     3
 10
228.0
 20
-57.5
 30
0.0
 11
213.0
 21
-65.5
 31
0.0
  0
ARC
  5
3DD
  8
OUTLINE
  6
CONTINUOUS
 62
     3
 10
143.0
 20
145.0
 30
0.0
 40
55.0
 50
0.0
 51
90.0
  0
ARC
  5
3DE
  8
OUTLINE
  6
CONTINUOUS
 62
     3
 10
143.0
 20
150.0
 30
0.0
 40
30.0
 50
0.0
 51
90.0
  0
LINE
  5
3DF
  8
OUTLINE
  6
CONTINUOUS
 62
     3
 10
198.0
 20
57.5
 30
0.0
 11
198.0
 21
145.0
 31
0.0
  0
LINE
  5
3E0
  8
OUTLINE
  6
CONTINUOUS
 62
     3
 10
201.451787
 20
58.89869199999999
 30
0.0
 11
201.451787
 21
66.958658999999997
 31
0.0
  0
LINE
  5
3E1
  8
OUTLINE
  6
CONTINUOUS
 62
     3
 10
198.0
 20
68.5
 30
0.0
 11
201.451787
 21
66.958658999999997
 31
0.0
  0
LINE
  5
3E2
  8
OUTLINE
  6
CONTINUOUS
 62
     3
 10
201.451787
 20
58.89869199999999
 30
0.0
 11
193.86087199999969
 21
55.822792000000007
 31
0.0
  0
LINE
  5
3E3
  8
OUTLINE
  6
CONTINUOUS
 62
     3
 10
213.0
 20
65.5
 30
0.0
 11
228.0
 21
57.5
 31
0.0
  0
LINE
  5
3E4
  8
OUTLINE
  6
CONTINUOUS
 62
     3
 10
198.0
 20
80.0
 30
0.0
 11
213.0
 21
80.0
 31
0.0
  0
LINE
  5
3E5
  8
OUTLINE
  6
CONTINUOUS
 62
     3
 10
20.0
 20
200.0
 30
0.0
 11
143.0
 21
200.0
 31
0.0
  0
LINE
  5
3E6
  8
OUTLINE
  6
CONTINUOUS
 62
     3
 10
20.0
 20
180.0
 30
0.0
 11
143.0
 21
180.0
 31
0.0
  0
LINE
  5
3E7
  8
OUTLINE
  6
CONTINUOUS
 62
     3
 10
67.0
 20
200.0
 30
0.0
 11
67.0
 21
207.5
 31
0.0
  0
LINE
  5
3E8
  8
OUTLINE
  6
CONTINUOUS
 62
     3
 10
70.0
 20
200.0
 30
0.0
 11
70.0
 21
207.5
 31
0.0
  0
LINE
  5
3E9
  8
OUTLINE
  6
CONTINUOUS
 62
     3
 10
67.0
 20
207.5
 30
0.0
 11
70.0
 21
207.5
 31
0.0
  0
LINE
  5
3EA
  8
OUTLINE
  6
CONTINUOUS
 62
     3
 10
20.0
 20
210.49999999999989
 30
0.0
 11
10.0
 21
210.49999999999989
 31
0.0
  0
ARC
  5
3EB
  8
DETAIL
  6
CONTINUOUS
 62
     5
 10
62.604207999999993
 20
91.103478999999979
 30
0.0
 40
90.333031999999974
 50
24.021788999999998
 51
79.768341000000007
  0
ARC
  5
3EC
  8
DETAIL
  6
CONTINUOUS
 62
     5
 10
232.0579819999999
 20
-57.215271999999999
 30
0.0
 40
212.726899
 50
121.92258699999999
 51
139.624234
  0
ARC
  5
3ED
  8
DETAIL
  6
CONTINUOUS
 62
     5
 10
135.43693500000001
 20
97.876614000000004
 30
0.0
 40
30.0
 50
90.0
 51
121.92258699999999
  0
LINE
  5
3EE
  8
DETAIL
  6
CONTINUOUS
 62
     5
 10
145.113561
 20
127.87661399999971
 30
0.0
 11
135.43693500000001
 21
127.87661399999971
 31
0.0
  0
LINE
  5
3EF
  8
DETAIL
  6
CONTINUOUS
 62
     5
 10
93.0
 20
10.0
 30
0.0
 11
93.0
 21
-10.0
 31
0.0
  0
LINE
  5
3F0
  8
DETAIL
  6
CONTINUOUS
 62
     5
 10
108.0
 20
47.5
 30
0.0
 11
108.0
 21
-47.5
 31
0.0
  0
LINE
  5
3F1
  8
DETAIL
  6
CONTINUOUS
 62
     5
 10
163.0
 20
70.0
 30
0.0
 11
163.0
 21
-113.0
 31
0.0
  0
LINE
  5
3F2
  8
DETAIL
  6
CONTINUOUS
 62
     5
 10
138.0
 20
57.5
 30
0.0
 11
138.0
 21
-57.5
 31
0.0
  0
ARC
  5
3F3
  8
DETAIL
  6
CONTINUOUS
 62
     5
 10
173.0
 20
-113.0
 30
0.0
 40
10.0
 50
180.0
 51
270.0
  0
ARC
  5
3F4
  8
DETAIL
  6
CONTINUOUS
 62
     5
 10
118.0
 20
-47.5
 30
0.0
 40
10.0
 50
180.0
 51
270.0
  0
ARC
  5
3F5
  8
DETAIL
  6
CONTINUOUS
 62
     5
 10
98.0
 20
-10.0
 30
0.0
 40
5.0
 50
180.0
 51
270.0
  0
LINE
  5
3F6
  8
DETAIL
  6
CONTINUOUS
 62
     5
 10
98.0
 20
-15.0
 30
0.0
 11
108.0
 21
-15.0
 31
0.0
  0
LINE
  5
3F7
  8
DETAIL
  6
CONTINUOUS
 62
     5
 10
163.0
 20
-57.5
 30
0.0
 11
118.0
 21
-57.5
 31
0.0
  0
ARC
  5
3F8
  8
DETAIL
  6
CONTINUOUS
 62
     5
 10
173.0
 20
70.0
 30
0.0
 40
10.0
 50
90.0
 51
180.0
  0
ARC
  5
3F9
  8
DETAIL
  6
CONTINUOUS
 62
     5
 10
118.0
 20
47.5
 30
0.0
 40
10.0
 50
90.0
 51
180.0
  0
ARC
  5
3FA
  8
DETAIL
  6
CONTINUOUS
 62
     5
 10
98.0
 20
10.0
 30
0.0
 40
5.0
 50
90.0
 51
180.0
  0
LINE
  5
3FB
  8
DETAIL
  6
CONTINUOUS
 62
     5
 10
98.0
 20
15.0
 30
0.0
 11
108.0
 21
15.0
 31
0.0
  0
LINE
  5
3FC
  8
DETAIL
  6
CONTINUOUS
 62
     5
 10
163.0
 20
57.5
 30
0.0
 11
118.0
 21
57.5
 31
0.0
  0
ARC
  5
3FD
  8
DETAIL
  6
CONTINUOUS
 62
     5
 10
-4.7182510000000004
 20
92.721168000000006
 30
0.0
 40
143.87302
 50
303.99375600000002
 51
313.09612700000002
  0
ARC
  5
3FE
  8
DETAIL
  6
CONTINUOUS
 62
     5
 10
-367.94328400000001
 20
132.951097
 30
0.0
 40
508.97729800000002
 50
329.36577
 51
335.14892700000001
  0
LINE
  5
3FF
  8
DETAIL
  6
CONTINUOUS
 62
     5
 10
80.0
 20
-8.320064999999996
 30
0.0
 11
80.0
 21
8.320064999999996
 31
0.0
  0
LINE
  5
400
  8
DETAIL
  6
CONTINUOUS
 62
     5
 10
80.0
 20
-8.320064999999996
 30
0.0
 11
70.0
 21
-10.956924000000001
 31
0.0
  0
LINE
  5
401
  8
DETAIL
  6
CONTINUOUS
 62
     5
 10
80.0
 20
-5.0
 30
0.0
 11
93.0
 21
-5.0
 31
0.0
  0
LINE
  5
402
  8
DETAIL
  6
CONTINUOUS
 62
     5
 10
80.0
 20
8.320064999999996
 30
0.0
 11
70.0
 21
10.956924000000001
 31
0.0
  0
LINE
  5
403
  8
DETAIL
  6
CONTINUOUS
 62
     5
 10
80.0
 20
5.0
 30
0.0
 11
93.0
 21
5.0
 31
0.0
  0
ARC
  5
404
  8
DETAIL
  6
CONTINUOUS
 62
     5
 10
-283.72970499999991
 20
-339.07649199999992
 30
0.0
 40
457.42277999999999
 50
20.360746999999989
 51
39.347918999999997
  0
ARC
  5
405
  8
DETAIL
  6
CONTINUOUS
 62
     5
 10
-197.28942099999981
 20
-242.47369800000001
 30
0.0
 40
348.06907999999999
 50
10.352323999999991
 51
39.832473
  0
ARC
  5
406
  8
DETAIL
  6
CONTINUOUS
 62
     5
 10
-367.94328400000001
 20
132.951097
 30
0.0
 40
508.97729800000002
 50
337.25362100000001
 51
339.24386600000003
  0
ARC
  5
407
  8
DETAIL
  6
CONTINUOUS
 62
     5
 10
-367.94328400000001
 20
132.951097
 30
0.0
 40
508.97729800000002
 50
351.47501999999992
 51
352.36297000000002
  0
ARC
  5
408
  8
DETAIL
  6
CONTINUOUS
 62
     5
 10
-4.7182510000000004
 20
92.721168000000006
 30
0.0
 40
143.87302
 50
345.82955299999998
 51
349.01649199999991
  0
LINE
  5
409
  8
DETAIL
  6
CONTINUOUS
 62
     5
 39
50.0
 10
0.0
 20
-234.99999999999969
 30
0.0
 11
10.0
 21
-234.99999999999969
 31
0.0
  0
LINE
  5
40A
  8
DETAIL
  6
CONTINUOUS
 62
     5
 39
50.0
 10
10.0
 20
234.99999999999969
 30
0.0
 11
0.0
 21
234.99999999999969
 31
0.0
  0
LINE
  5
40B
  8
OUTLINE
  6
CONTINUOUS
 62
     3
 39
50.0
 10
10.0
 20
-234.99999999999969
 30
0.0
 11
0.0
 21
-234.99999999999969
 31
0.0
  0
LINE
  5
40C
  8
OUTLINE
  6
CONTINUOUS
 62
     3
 39
50.0
 10
10.0
 20
-234.99999999999969
 30
0.0
 11
10.0
 21
234.99999999999969
 31
0.0
  0
LINE
  5
40D
  8
OUTLINE
  6
CONTINUOUS
 62
     3
 39
50.0
 10
10.0
 20
234.99999999999969
 30
0.0
 11
0.0
 21
234.99999999999969
 31
0.0
  0
LINE
  5
40E
  8
OUTLINE
  6
CONTINUOUS
 62
     3
 39
50.0
 10
0.0
 20
234.99999999999969
 30
0.0
 11
0.0
 21
-234.99999999999969
 31
0.0
  0
LINE
  5
40F
  8
SIZE
  6
CONTINUOUS
 62
    30
 10
-20.0
 20
234.99999999999969
 30
0.0
 11
-285.38333162911232
 21
235.0
 31
0.0
  0
LINE
  5
410
  8
SIZE
  6
CONTINUOUS
 62
    30
 10
-20.0
 20
-234.99999999999969
 30
0.0
 11
-285.38333162911249
 21
-234.9999999999996
 31
0.0
  0
LINE
  5
411
  8
SIZE
  6
CONTINUOUS
 62
    30
 10
-265.38333162911232
 20
235.0
 30
0.0
 11
-265.38333162911232
 21
-234.9999999999996
 31
0.0
  0
CIRCLE
  5
412
  8
SIZE
  6
CONTINUOUS
 62
    30
 39
50.0
 10
-265.38333162911232
 20
235.0
 30
0.0
 40
6.0
  0
CIRCLE
  5
413
  8
SIZE
  6
CONTINUOUS
 62
    30
 39
50.0
 10
-265.38333162911232
 20
-234.9999999999996
 30
0.0
 40
6.0
  0
TEXT
  5
414
  8
SIZE
  6
CONTINUOUS
 62
    30
 10
-290.38333162911232
 20
-74.057142857142779
 30
0.0
 40
64.0
  1
470
 50
90.0
 41
0.9
  0
TEXT
  5
415
  8
ETC
  6
CONTINUOUS
 62
    61
 10
766.56054782483022
 20
328.62171798454631
 30
0.0
 40
50.0
  1
EF-35DTB40A2
 41
0.9
  0
TEXT
  5
416
  8
ETC
  6
CONTINUOUS
 62
    61
 10
650.35072251216775
 20
509.84648510132331
 30
0.0
 40
64.0
  1
EF-35DTB40A2_5
 41
0.9
  0
TEXT
  5
417
  8
ETC
  6
CONTINUOUS
 62
    61
 10
647.06744451216775
 20
411.34622110132329
 30
0.0
 40
64.0
  1
産業扇
 41
0.9
  0
ENDSEC
  0
EOF
