  0
SECTION
  2
HEADER
  9
$ACADVER
  1
AC1009
  9
$INSBASE
 10
0.0
 20
0.0
 30
0.0
  9
$EXTMIN
 10
-639.526568
 20
-574.72700399999997
 30
0.0
  9
$EXTMAX
 10
1240.7483395159229
 20
487.7804517180698
 30
50.0
  9
$LIMMIN
 10
-2970.0
 20
-2100.0
  9
$LIMMAX
 10
2970.0
 20
2100.0
  9
$ORTHOMODE
 70
     1
  9
$REGENMODE
 70
     0
  9
$FILLMODE
 70
     1
  9
$QTEXTMODE
 70
     0
  9
$MIRRTEXT
 70
     0
  9
$DRAGMODE
 70
     2
  9
$LTSCALE
 40
20.0
  9
$OSMODE
 70
   181
  9
$ATTMODE
 70
     1
  9
$TEXTSIZE
 40
64.0
  9
$TRACEWID
 40
0.05
  9
$TEXTSTYLE
  7
STANDARD
  9
$CLAYER
  8
OUTLINE
  9
$CELTYPE
  6
CONTINUOUS
  9
$CECOLOR
 62
     3
  9
$DIMSCALE
 40
1.0
  9
$DIMASZ
 40
40.0
  9
$DIMEXO
 40
20.0
  9
$DIMDLI
 40
200.0
  9
$DIMRND
 40
0.0
  9
$DIMDLE
 40
0.0
  9
$DIMEXE
 40
20.0
  9
$DIMTP
 40
0.0
  9
$DIMTM
 40
0.0
  9
$DIMTXT
 40
64.0
  9
$DIMCEN
 40
0.09
  9
$DIMTSZ
 40
0.0
  9
$DIMTOL
 70
     0
  9
$DIMLIM
 70
     0
  9
$DIMTIH
 70
     0
  9
$DIMTOH
 70
     0
  9
$DIMSE1
 70
     0
  9
$DIMSE2
 70
     0
  9
$DIMTAD
 70
     1
  9
$DIMZIN
 70
     8
  9
$DIMBLK
  1
NONE
  9
$DIMASO
 70
     1
  9
$DIMSHO
 70
     0
  9
$DIMPOST
  1

  9
$DIMAPOST
  1

  9
$DIMALT
 70
     0
  9
$DIMALTD
 70
     2
  9
$DIMALTF
 40
25.399999999999999
  9
$DIMLFAC
 40
1.0
  9
$DIMTOFL
 70
     1
  9
$DIMTVP
 40
0.0
  9
$DIMTIX
 70
     1
  9
$DIMSOXD
 70
     0
  9
$DIMSAH
 70
     0
  9
$DIMBLK1
  1
NONE
  9
$DIMBLK2
  1
ORIGIN
  9
$DIMSTYLE
  2
STANDARD
  9
$DIMCLRD
 70
   256
  9
$DIMCLRE
 70
   256
  9
$DIMCLRT
 70
   256
  9
$DIMTFAC
 40
1.0
  9
$DIMGAP
 40
20.0
  9
$LUNITS
 70
     2
  9
$LUPREC
 70
     4
  9
$SKETCHINC
 40
0.1
  9
$FILLETRAD
 40
50.0
  9
$AUNITS
 70
     1
  9
$AUPREC
 70
     3
  9
$MENU
  1
ACAD
  9
$ELEVATION
 40
0.0
  9
$PELEVATION
 40
0.0
  9
$THICKNESS
 40
50.0
  9
$LIMCHECK
 70
     0
  9
$BLIPMODE
 70
     0
  9
$CHAMFERA
 40
0.0
  9
$CHAMFERB
 40
0.0
  9
$SKPOLY
 70
     0
  9
$TDCREATE
 40
2452310.4493174758
  9
$TDUPDATE
 40
2454427.7895489698
  9
$TDINDWG
 40
0.1767800926
  9
$TDUSRTIMER
 40
0.1767797222
  9
$USRTIMER
 70
     1
  9
$ANGBASE
 50
0.0
  9
$ANGDIR
 70
     0
  9
$PDMODE
 70
     3
  9
$PDSIZE
 40
-2.0
  9
$PLINEWID
 40
0.0
  9
$COORDS
 70
     2
  9
$SPLFRAME
 70
     0
  9
$SPLINETYPE
 70
     6
  9
$SPLINESEGS
 70
     8
  9
$ATTDIA
 70
     0
  9
$ATTREQ
 70
     1
  9
$HANDLING
 70
 22529
  9
$HANDSEED
  5
762
  9
$SURFTAB1
 70
     6
  9
$SURFTAB2
 70
     6
  9
$SURFTYPE
 70
     6
  9
$SURFU
 70
     6
  9
$SURFV
 70
     6
  9
$UCSNAME
  2

  9
$UCSORG
 10
0.0
 20
0.0
 30
0.0
  9
$UCSXDIR
 10
1.0
 20
0.0
 30
0.0
  9
$UCSYDIR
 10
0.0
 20
1.0
 30
0.0
  9
$PUCSNAME
  2

  9
$PUCSORG
 10
0.0
 20
0.0
 30
0.0
  9
$PUCSXDIR
 10
1.0
 20
0.0
 30
0.0
  9
$PUCSYDIR
 10
0.0
 20
1.0
 30
0.0
  9
$USERI1
 70
     0
  9
$USERI2
 70
     0
  9
$USERI3
 70
     0
  9
$USERI4
 70
     0
  9
$USERI5
 70
     0
  9
$USERR1
 40
20.0
  9
$USERR2
 40
0.0
  9
$USERR3
 40
0.0
  9
$USERR4
 40
0.0
  9
$USERR5
 40
0.0
  9
$WORLDVIEW
 70
     1
  9
$SHADEDGE
 70
     3
  9
$SHADEDIF
 70
    70
  9
$TILEMODE
 70
     1
  9
$MAXACTVP
 70
    64
  9
$PLIMCHECK
 70
     0
  9
$PEXTMIN
 10
1.0000000000000000E+020
 20
1.0000000000000000E+020
 30
1.0000000000000000E+020
  9
$PEXTMAX
 10
-1.0000000000000000E+020
 20
-1.0000000000000000E+020
 30
-1.0000000000000000E+020
  9
$PLIMMIN
 10
0.0
 20
0.0
  9
$PLIMMAX
 10
12.0
 20
9.0
  9
$UNITMODE
 70
     0
  9
$VISRETAIN
 70
     1
  9
$PLINEGEN
 70
     0
  9
$PSLTSCALE
 70
     1
  0
ENDSEC
  0
SECTION
  2
TABLES
  0
TABLE
  2
VPORT
 70
     3
  0
VPORT
  2
*ACTIVE
 70
     0
 10
0.0
 20
0.0
 11
1.0
 21
1.0
 12
304.36193296688538
 22
-44.122858455994667
 13
0.0
 23
0.0
 14
1.0
 24
1.0
 15
0.0
 25
0.0
 16
0.0
 26
0.0
 36
1.0
 17
0.0
 27
0.0
 37
0.0
 40
1314.8927853451901
 41
1.7011070110701101
 42
50.0
 43
0.0
 44
0.0
 50
0.0
 51
0.0
 71
     0
 72
   100
 73
     1
 74
     0
 75
     0
 76
     0
 77
     0
 78
     1
  0
ENDTAB
  0
TABLE
  2
LTYPE
 70
     2
  0
LTYPE
  2
CONTINUOUS
 70
     0
  3
実線
 72
    65
 73
     0
 40
0.0
  0
LTYPE
  2
DASHDOT
 70
     0
  3
____ _ ____ _ ____ _ ____ _ ____ _ ____ _ ____
 72
    65
 73
     4
 40
5.5
 49
4.0
 49
-0.6
 49
0.3
 49
-0.6
  0
ENDTAB
  0
TABLE
  2
LAYER
 70
    12
  0
LAYER
  2
0
 70
     0
 62
     7
  6
CONTINUOUS
  0
LAYER
  2
OUTLINE
 70
     0
 62
     3
  6
CONTINUOUS
  0
LAYER
  2
SIZE
 70
     0
 62
    30
  6
CONTINUOUS
  0
LAYER
  2
BASIS
 70
     0
 62
     6
  6
DASHDOT
  0
LAYER
  2
DETAIL
 70
     0
 62
     5
  6
CONTINUOUS
  0
LAYER
  2
ARRANGE
 70
     0
 62
     1
  6
CONTINUOUS
  0
LAYER
  2
DEFPOINTS
 70
     0
 62
     7
  6
CONTINUOUS
  0
LAYER
  2
ETC
 70
     0
 62
    61
  6
CONTINUOUS
  0
LAYER
  2
FIX
 70
     0
 62
    11
  6
CONTINUOUS
  0
LAYER
  2
NOTE
 70
     0
 62
     4
  6
CONTINUOUS
  0
LAYER
  2
SERVICESPACE
 70
     0
 62
     2
  6
DASHDOT
  0
LAYER
  2
SYMBOLLINE
 70
     0
 62
    15
  6
CONTINUOUS
  0
ENDTAB
  0
TABLE
  2
STYLE
 70
     1
  0
STYLE
  2
STANDARD
 70
     0
 40
64.0
 41
0.9
 50
0.0
 71
     0
 42
64.0
  3
SIMPLEX.shx
  4
BIGFONT.shx
  0
ENDTAB
  0
TABLE
  2
VIEW
 70
     1
  0
VIEW
  2
ALL
 70
     0
 40
4282.6198079999967
 10
0.0
 20
41.309903999999989
 41
5940.0
 11
0.0
 21
0.0
 31
1.0
 12
0.0
 22
0.0
 32
0.0
 42
50.0
 43
0.0
 44
0.0
 50
0.0
 71
     0
  0
ENDTAB
  0
TABLE
  2
UCS
 70
     0
  0
ENDTAB
  0
TABLE
  2
APPID
 70
     1
  0
APPID
  2
ACAD
 70
     0
  0
ENDTAB
  0
TABLE
  2
DIMSTYLE
 70
     1
  0
DIMSTYLE
  2
STANDARD
 70
     0
  3

  4

  5

  6

  7

 40
1.0
 41
0.18
 42
0.0625
 43
0.38
 44
0.18
 45
0.0
 46
0.0
 47
0.0
 48
0.0
140
0.18
141
0.09
142
0.0
143
25.399999999999999
144
1.0
145
0.0
146
1.0
147
0.09
 71
     0
 72
     0
 73
     1
 74
     1
 75
     0
 76
     0
 77
     0
 78
     0
170
     0
171
     2
172
     0
173
     0
174
     0
175
     0
176
     0
177
     0
178
     0
  0
ENDTAB
  0
ENDSEC
  0
SECTION
  2
BLOCKS
  0
BLOCK
  8
0
  2
$MODEL_SPACE
 70
     0
 10
0.0
 20
0.0
 30
0.0
  3
$MODEL_SPACE
  1

  0
ENDBLK
  5
5F8
  8
0
  0
BLOCK
 67
     1
  8
0
  2
$PAPER_SPACE
 70
     0
 10
0.0
 20
0.0
 30
0.0
  3
$PAPER_SPACE
  1

  0
ENDBLK
  5
5F4
 67
     1
  8
0
  0
BLOCK
  8
0
  2
DOT1
 70
     0
 10
0.0
 20
0.0
 30
0.0
  3
DOT1
  1

  0
CIRCLE
  5
613
  8
SIZE
  6
CONTINUOUS
 62
     7
 10
0.0
 20
0.0
 30
0.0
 40
3.0
  0
ENDBLK
  5
614
  8
0
  0
BLOCK
  8
0
  2
_ORIGIN
 70
     0
 10
0.0
 20
0.0
 30
0.0
  3
_ORIGIN
  1

  0
CIRCLE
  5
617
  8
0
  6
CONTINUOUS
 62
     7
 10
0.0
 20
0.0
 30
0.0
 40
0.5
  0
LINE
  5
618
  8
0
  6
CONTINUOUS
 62
     7
 10
0.0
 20
0.0
 30
0.0
 11
-1.0
 21
0.0
 31
0.0
  0
ENDBLK
  5
619
  8
0
  0
BLOCK
  8
0
 62
    30
  2
*D4
 70
     1
 10
0.0
 20
0.0
 30
0.0
  3
*D4
  1

  0
LINE
  5
61C
  8
SIZE
  6
CONTINUOUS
 62
     0
 10
-235.0
 20
20.0
 30
0.0
 11
-234.99999999999949
 21
293.167866751791
 31
0.0
  0
LINE
  5
61D
  8
SIZE
  6
CONTINUOUS
 62
     0
 10
234.99999999999949
 20
20.000000000001322
 30
0.0
 11
234.99999999999949
 21
293.167866751791
 31
0.0
  0
LINE
  5
61E
  8
SIZE
  6
CONTINUOUS
 62
     0
 10
-222.99999999999989
 20
273.16786675179111
 30
0.0
 11
222.99999999999989
 21
273.16786675179111
 31
0.0
  0
INSERT
  5
61F
  8
SIZE
  6
CONTINUOUS
 62
     0
  2
_ORIGIN
 10
-234.99999999999949
 20
273.16786675179111
 30
0.0
 41
12.0
 42
12.0
 43
12.0
 50
180.0
  0
INSERT
  5
620
  8
SIZE
  6
CONTINUOUS
 62
     0
  2
_ORIGIN
 10
234.99999999999949
 20
273.16786675179111
 30
0.0
 41
12.0
 42
12.0
 43
12.0
  0
TEXT
  5
621
  8
SIZE
  6
CONTINUOUS
 62
     0
 10
-74.057142857142864
 20
298.16786675179128
 30
0.0
 40
64.0
  1
470
 41
0.9
  0
POINT
  5
622
  8
DEFPOINTS
  6
CONTINUOUS
 62
     0
 10
-235.0
 20
0.0
 30
0.0
  0
POINT
  5
623
  8
DEFPOINTS
  6
CONTINUOUS
 62
     0
 10
234.99999999999949
 20
0.0000000000013358
 30
0.0
  0
POINT
  5
624
  8
DEFPOINTS
  6
CONTINUOUS
 62
     0
 10
234.99999999999949
 20
273.16786675179111
 30
0.0
  0
ENDBLK
  5
625
  8
0
 62
    30
  0
BLOCK
  8
0
 62
    30
  2
_DATUMFILLED
 70
     0
 10
0.0
 20
0.0
 30
0.0
  3
_DATUMFILLED
  1

  0
SOLID
  5
628
  8
0
  6
BYBLOCK
 62
     0
 10
0.0
 20
0.5773502700000001
 30
0.0
 11
-1.0
 21
0.0
 31
0.0
 12
0.0
 22
-0.5773502700000001
 32
0.0
 13
0.0
 23
-0.5773502700000001
 33
0.0
  0
ENDBLK
  5
629
  8
0
 62
    30
  0
BLOCK
  8
0
 62
    30
  2
_NONE
 70
     0
 10
0.0
 20
0.0
 30
0.0
  3
_NONE
  1

  0
ENDBLK
  5
62C
  8
0
 62
    30
  0
BLOCK
  8
0
 62
    30
  2
_OPEN30
 70
     0
 10
0.0
 20
0.0
 30
0.0
  3
_OPEN30
  1

  0
LINE
  5
62F
  8
0
  6
BYBLOCK
 62
     0
 10
-1.0
 20
0.26794919
 30
0.0
 11
0.0
 21
0.0
 31
0.0
  0
LINE
  5
630
  8
0
  6
BYBLOCK
 62
     0
 10
0.0
 20
0.0
 30
0.0
 11
-1.0
 21
-0.26794919
 31
0.0
  0
LINE
  5
631
  8
0
  6
BYBLOCK
 62
     0
 10
0.0
 20
0.0
 30
0.0
 11
-1.0
 21
0.0
 31
0.0
  0
ENDBLK
  5
632
  8
0
 62
    30
  0
BLOCK
  8
0
 62
    30
  2
*D8
 70
     1
 10
0.0
 20
0.0
 30
0.0
  3
*D8
  1

  0
LINE
  5
635
  8
SIZE
  6
CONTINUOUS
 10
-66.499999999999986
 20
-233.0
 30
0.0
 11
-66.5
 21
-439.78597910978402
 31
0.0
  0
LINE
  5
636
  8
SIZE
  6
CONTINUOUS
 10
66.499999999999986
 20
-233.0
 30
0.0
 11
66.499999999999972
 21
-439.78597910978402
 31
0.0
  0
LINE
  5
637
  8
SIZE
  6
CONTINUOUS
 10
-66.5
 20
-419.78597910978391
 30
0.0
 11
-106.4999999999999
 21
-419.78597910978391
 31
0.0
  0
LINE
  5
638
  8
SIZE
  6
CONTINUOUS
 10
66.499999999999972
 20
-419.78597910978391
 30
0.0
 11
106.4999999999999
 21
-419.78597910978391
 31
0.0
  0
LINE
  5
639
  8
SIZE
  6
CONTINUOUS
 10
-66.5
 20
-419.78597910978391
 30
0.0
 11
66.499999999999972
 21
-419.78597910978391
 31
0.0
  0
TEXT
  5
63A
  8
OUTLINE
  6
CONTINUOUS
 10
-68.571428571428569
 20
-399.78597910978391
 30
0.0
 40
64.0
  1
133
 41
0.9
  0
POINT
  5
63B
  8
DEFPOINTS
  6
CONTINUOUS
 62
     0
 10
-66.499999999999986
 20
-213.0
 30
0.0
  0
POINT
  5
63C
  8
DEFPOINTS
  6
CONTINUOUS
 62
     0
 10
66.499999999999986
 20
-213.0
 30
0.0
  0
POINT
  5
63D
  8
DEFPOINTS
  6
CONTINUOUS
 62
     0
 10
66.499999999999972
 20
-419.78597910978391
 30
0.0
  0
ENDBLK
  5
63E
  8
0
 62
    30
  0
ENDSEC
  0
SECTION
  2
ENTITIES
  0
LINE
  5
63F
  8
DETAIL
  6
CONTINUOUS
 62
     5
 10
234.99999999999949
 20
0.0
 30
0.0
 11
-235.0
 21
0.0
 31
0.0
  0
LINE
  5
640
  8
BASIS
  6
DASHDOT
 62
     6
 10
0.0
 20
75.692600999999982
 30
0.0
 11
0.0
 21
-279.37314600000002
 31
0.0
  0
LINE
  5
641
  8
DETAIL
  6
CONTINUOUS
 62
     5
 10
-207.5
 20
-67.0
 30
0.0
 11
-207.5
 21
-70.0
 31
0.0
  0
TEXT
  5
642
  8
NOTE
  6
CONTINUOUS
 62
     4
 10
-621.73519899999997
 20
243.83146400000001
 30
0.0
 40
64.0
  1
4-φ12
 41
0.9
  0
LINE
  5
643
  8
NOTE
  6
CONTINUOUS
 62
     4
 10
-639.526568
 20
216.40451200000001
 30
0.0
 11
-315.246261
 21
216.40451200000001
 31
0.0
  0
LINE
  5
644
  8
NOTE
  6
CONTINUOUS
 62
     4
 10
-216.239664
 20
-9.5731219999999997
 30
0.0
 11
-315.246261
 21
216.40451200000001
 31
0.0
  0
LINE
  5
645
  8
NOTE
  6
CONTINUOUS
 62
     4
 10
-241.473648
 20
21.463083999999998
 30
0.0
 11
-216.239664
 21
-9.5731219999999997
 31
0.0
  0
LINE
  5
646
  8
NOTE
  6
CONTINUOUS
 62
     4
 10
-216.239664
 20
-9.5731219999999997
 30
0.0
 11
-222.57483199999999
 21
29.922011999999999
 31
0.0
  0
LINE
  5
647
  8
DETAIL
  6
CONTINUOUS
 62
     5
 10
210.49999999999989
 20
-20.0
 30
0.0
 11
210.49999999999989
 21
-10.0
 31
0.0
  0
LINE
  5
648
  8
DETAIL
  6
CONTINUOUS
 62
     5
 10
-210.49999999999989
 20
-20.0
 30
0.0
 11
-210.49999999999989
 21
-10.0
 31
0.0
  0
LINE
  5
649
  8
SIZE
  6
CONTINUOUS
 62
    30
 10
-253.5
 20
0.0
 30
0.0
 11
-373.564278
 21
0.0
 31
0.0
  0
LINE
  5
64A
  8
SIZE
  6
CONTINUOUS
 62
    30
 10
-253.5
 20
-10.0
 30
0.0
 11
-373.564278
 21
-10.0
 31
0.0
  0
LINE
  5
64B
  8
SIZE
  6
CONTINUOUS
 62
    30
 10
-353.56427799999972
 20
12.0
 30
0.0
 11
-353.56427799999972
 21
24.0
 31
0.0
  0
LINE
  5
64C
  8
SIZE
  6
CONTINUOUS
 62
    30
 10
-353.56427799999972
 20
-22.0
 30
0.0
 11
-353.56427799999972
 21
-34.0
 31
0.0
  0
LINE
  5
64D
  8
SIZE
  6
CONTINUOUS
 62
    30
 10
-353.56427799999972
 20
157.02845899999991
 30
0.0
 11
-353.56427799999972
 21
0.0
 31
0.0
  0
TEXT
  5
64E
  8
SIZE
  6
CONTINUOUS
 62
    30
 10
-378.56427799999989
 20
49.74274485714286
 30
0.0
 40
64.0
  1
10
 50
90.0
 41
0.9
 72
     1
 11
-378.56427799999989
 21
90.885602000000006
 31
0.0
  0
LINE
  5
64F
  8
SIZE
  6
CONTINUOUS
 62
    30
 10
-353.56427799999972
 20
0.0
 30
0.0
 11
-353.56427799999972
 21
-10.0
 31
0.0
  0
LINE
  5
650
  8
SIZE
  6
CONTINUOUS
 62
    30
 10
-353.56427799999972
 20
0.0
 30
0.0
 11
-353.56427799999972
 21
-10.0
 31
0.0
  0
CIRCLE
  5
651
  8
SIZE
  6
CONTINUOUS
 62
    30
 10
-353.56427799999972
 20
0.0
 30
0.0
 40
6.0
  0
LINE
  5
652
  8
SIZE
  6
CONTINUOUS
 62
    30
 10
-353.56427799999972
 20
0.0
 30
0.0
 11
-353.56427799999972
 21
12.0
 31
0.0
  0
CIRCLE
  5
653
  8
SIZE
  6
CONTINUOUS
 62
    30
 10
-353.56427799999972
 20
-10.0
 30
0.0
 40
6.0
  0
LINE
  5
654
  8
SIZE
  6
CONTINUOUS
 62
    30
 10
-353.56427799999972
 20
-10.0
 30
0.0
 11
-353.56427799999972
 21
-22.0
 31
0.0
  0
LINE
  5
655
  8
SIZE
  6
CONTINUOUS
 62
    30
 10
-255.0
 20
-10.0
 30
0.0
 11
-373.564278
 21
-10.0
 31
0.0
  0
LINE
  5
656
  8
SIZE
  6
CONTINUOUS
 62
    30
 10
-230.5
 20
-20.0
 30
0.0
 11
-373.564278
 21
-20.0
 31
0.0
  0
LINE
  5
657
  8
SIZE
  6
CONTINUOUS
 62
    30
 10
-353.56427799999972
 20
2.0
 30
0.0
 11
-353.56427799999972
 21
14.0
 31
0.0
  0
LINE
  5
658
  8
SIZE
  6
CONTINUOUS
 62
    30
 10
-353.56427799999972
 20
-32.0
 30
0.0
 11
-353.56427799999972
 21
-44.0
 31
0.0
  0
LINE
  5
659
  8
SIZE
  6
CONTINUOUS
 62
    30
 10
-353.56427799999972
 20
-182.74230800000001
 30
0.0
 11
-353.56427799999972
 21
-20.0
 31
0.0
  0
TEXT
  5
65A
  8
SIZE
  6
CONTINUOUS
 62
    30
 10
-378.56427799999989
 20
-157.74230814285701
 30
0.0
 40
64.0
  1
10
 50
90.0
 41
0.9
 72
     1
 11
-378.56427799999989
 21
-116.5994509999999
 31
0.0
  0
LINE
  5
65B
  8
SIZE
  6
CONTINUOUS
 62
    30
 10
-353.56427799999972
 20
-10.0
 30
0.0
 11
-353.56427799999972
 21
-20.0
 31
0.0
  0
LINE
  5
65C
  8
SIZE
  6
CONTINUOUS
 62
    30
 10
-353.56427799999972
 20
-10.0
 30
0.0
 11
-353.56427799999972
 21
-20.0
 31
0.0
  0
CIRCLE
  5
65D
  8
SIZE
  6
CONTINUOUS
 62
    30
 10
-353.56427799999972
 20
-10.0
 30
0.0
 40
6.0
  0
LINE
  5
65E
  8
SIZE
  6
CONTINUOUS
 62
    30
 10
-353.56427799999972
 20
-10.0
 30
0.0
 11
-353.56427799999972
 21
2.0
 31
0.0
  0
CIRCLE
  5
65F
  8
SIZE
  6
CONTINUOUS
 62
    30
 10
-353.56427799999972
 20
-20.0
 30
0.0
 40
6.0
  0
LINE
  5
660
  8
SIZE
  6
CONTINUOUS
 62
    30
 10
-353.56427799999972
 20
-20.0
 30
0.0
 11
-353.56427799999972
 21
-32.0
 31
0.0
  0
LINE
  5
661
  8
DETAIL
  6
CONTINUOUS
 62
     5
 10
234.99999999999949
 20
-10.0
 30
0.0
 11
-235.0
 21
-10.0
 31
0.0
  0
LINE
  5
662
  8
DETAIL
  6
CONTINUOUS
 62
     5
 10
210.49999999999989
 20
-20.0
 30
0.0
 11
-210.49999999999989
 21
-20.0
 31
0.0
  0
LINE
  5
663
  8
DETAIL
  6
CONTINUOUS
 62
     5
 10
130.0
 20
-173.0
 30
0.0
 11
-130.0
 21
-173.0
 31
0.0
  0
LINE
  5
664
  8
DETAIL
  6
CONTINUOUS
 62
     5
 10
180.0
 20
-70.0
 30
0.0
 11
-180.0
 21
-70.0
 31
0.0
  0
LINE
  5
665
  8
SIZE
  6
CONTINUOUS
 62
    30
 10
253.5
 20
0.0
 30
0.0
 11
521.18094900000006
 21
0.0
 31
0.0
  0
LINE
  5
666
  8
SIZE
  6
CONTINUOUS
 62
    30
 10
77.5
 20
-228.0
 30
0.0
 11
521.18094900000006
 21
-228.0
 31
0.0
  0
LINE
  5
667
  8
SIZE
  6
CONTINUOUS
 62
    30
 10
501.180949
 20
-12.0
 30
0.0
 11
501.180949
 21
-216.0
 31
0.0
  0
LINE
  5
668
  8
SIZE
  6
CONTINUOUS
 62
    30
 10
501.180949
 20
-455.20735300000001
 30
0.0
 11
501.180949
 21
-228.0
 31
0.0
  0
TEXT
  5
669
  8
SIZE
  6
CONTINUOUS
 62
    30
 10
476.180949
 20
-430.20735285714278
 30
0.0
 40
64.0
  1
228
 50
90.0
 41
0.9
 72
     1
 11
476.180949
 21
-356.15021000000002
 31
0.0
  0
CIRCLE
  5
66A
  8
SIZE
  6
CONTINUOUS
 62
    30
 10
501.180949
 20
0.0
 30
0.0
 40
6.0
  0
LINE
  5
66B
  8
SIZE
  6
CONTINUOUS
 62
    30
 10
501.180949
 20
0.0
 30
0.0
 11
501.180949
 21
-12.0
 31
0.0
  0
CIRCLE
  5
66C
  8
SIZE
  6
CONTINUOUS
 62
    30
 10
501.180949
 20
-228.0
 30
0.0
 40
6.0
  0
LINE
  5
66D
  8
SIZE
  6
CONTINUOUS
 62
    30
 10
501.180949
 20
-228.0
 30
0.0
 11
501.180949
 21
-216.0
 31
0.0
  0
LINE
  5
66E
  8
DETAIL
  6
CONTINUOUS
 62
     5
 10
-200.0
 20
-20.0
 30
0.0
 11
-200.0
 21
-133.0
 31
0.0
  0
LINE
  5
66F
  8
DETAIL
  6
CONTINUOUS
 62
     5
 10
-180.0
 20
-20.0
 30
0.0
 11
-180.0
 21
-123.0
 31
0.0
  0
LINE
  5
671
  8
DETAIL
  6
CONTINUOUS
 62
     5
 10
180.0
 20
-67.0
 30
0.0
 11
-180.0
 21
-67.0
 31
0.0
  0
LINE
  5
672
  8
DETAIL
  6
CONTINUOUS
 62
     5
 10
-200.0
 20
-70.0
 30
0.0
 11
-207.5
 21
-70.0
 31
0.0
  0
LINE
  5
673
  8
DETAIL
  6
CONTINUOUS
 62
     5
 10
-200.0
 20
-67.0
 30
0.0
 11
-207.5
 21
-67.0
 31
0.0
  0
LINE
  5
674
  8
DETAIL
  6
CONTINUOUS
 62
     5
 10
180.0
 20
-20.0
 30
0.0
 11
180.0
 21
-123.0
 31
0.0
  0
LINE
  5
675
  8
DETAIL
  6
CONTINUOUS
 62
     5
 10
200.0
 20
-133.0
 30
0.0
 11
200.0
 21
-20.0
 31
0.0
  0
LINE
  5
677
  8
DETAIL
  6
CONTINUOUS
 62
     5
 10
200.0
 20
-70.0
 30
0.0
 11
207.5
 21
-70.0
 31
0.0
  0
LINE
  5
678
  8
DETAIL
  6
CONTINUOUS
 62
     5
 10
200.0
 20
-67.0
 30
0.0
 11
207.5
 21
-67.0
 31
0.0
  0
LINE
  5
679
  8
DETAIL
  6
CONTINUOUS
 62
     5
 10
207.5
 20
-67.0
 30
0.0
 11
207.5
 21
-70.0
 31
0.0
  0
LINE
  5
67A
  8
SIZE
  6
CONTINUOUS
 62
    30
 10
253.5
 20
0.0
 30
0.0
 11
418.42998099999988
 21
0.0
 31
0.0
  0
LINE
  5
67B
  8
SIZE
  6
CONTINUOUS
 62
    30
 10
227.49999999999989
 20
-70.0
 30
0.0
 11
418.42998099999988
 21
-70.0
 31
0.0
  0
LINE
  5
67C
  8
SIZE
  6
CONTINUOUS
 62
    30
 10
398.42998099999988
 20
12.0
 30
0.0
 11
398.42998099999988
 21
24.0
 31
0.0
  0
LINE
  5
67D
  8
SIZE
  6
CONTINUOUS
 62
    30
 10
398.42998099999988
 20
-82.0
 30
0.0
 11
398.42998099999988
 21
-94.0
 31
0.0
  0
LINE
  5
67E
  8
SIZE
  6
CONTINUOUS
 62
    30
 10
398.42998099999988
 20
167.53635700000001
 30
0.0
 11
398.42998099999988
 21
0.0
 31
0.0
  0
TEXT
  5
67F
  8
SIZE
  6
CONTINUOUS
 62
    30
 10
373.42998099999988
 20
49.279214571428582
 30
0.0
 40
64.0
  1
70
 50
90.0
 41
0.9
 72
     1
 11
373.42998099999988
 21
95.907786000000002
 31
0.0
  0
LINE
  5
680
  8
SIZE
  6
CONTINUOUS
 62
    30
 10
398.42998099999988
 20
0.0
 30
0.0
 11
398.42998099999988
 21
-70.0
 31
0.0
  0
LINE
  5
681
  8
SIZE
  6
CONTINUOUS
 62
    30
 10
398.42998099999988
 20
0.0
 30
0.0
 11
398.42998099999988
 21
-70.0
 31
0.0
  0
CIRCLE
  5
682
  8
SIZE
  6
CONTINUOUS
 62
    30
 10
398.42998099999988
 20
0.0
 30
0.0
 40
6.0
  0
LINE
  5
683
  8
SIZE
  6
CONTINUOUS
 62
    30
 10
398.42998099999988
 20
0.0
 30
0.0
 11
398.42998099999988
 21
12.0
 31
0.0
  0
CIRCLE
  5
684
  8
SIZE
  6
CONTINUOUS
 62
    30
 10
398.42998099999988
 20
-70.0
 30
0.0
 40
6.0
  0
LINE
  5
685
  8
SIZE
  6
CONTINUOUS
 62
    30
 10
398.42998099999988
 20
-70.0
 30
0.0
 11
398.42998099999988
 21
-82.0
 31
0.0
  0
LINE
  5
686
  8
SIZE
  6
CONTINUOUS
 62
    30
 10
217.0
 20
30.0
 30
0.0
 11
217.0
 21
160.12397200000001
 31
0.0
  0
LINE
  5
687
  8
SIZE
  6
CONTINUOUS
 62
    30
 10
-217.0
 20
30.0
 30
0.0
 11
-217.0
 21
160.12397200000001
 31
0.0
  0
LINE
  5
688
  8
SIZE
  6
CONTINUOUS
 62
    30
 10
205.0
 20
140.12397200000001
 30
0.0
 11
-205.0
 21
140.12397200000001
 31
0.0
  0
CIRCLE
  5
689
  8
SIZE
  6
CONTINUOUS
 62
    30
 10
217.0
 20
140.12397200000001
 30
0.0
 40
6.0
  0
LINE
  5
68A
  8
SIZE
  6
CONTINUOUS
 62
    30
 10
217.0
 20
140.12397200000001
 30
0.0
 11
205.0
 21
140.12397200000001
 31
0.0
  0
CIRCLE
  5
68B
  8
SIZE
  6
CONTINUOUS
 62
    30
 10
-217.0
 20
140.12397200000001
 30
0.0
 40
6.0
  0
LINE
  5
68C
  8
SIZE
  6
CONTINUOUS
 62
    30
 10
-217.0
 20
140.12397200000001
 30
0.0
 11
-205.0
 21
140.12397200000001
 31
0.0
  0
TEXT
  5
68D
  8
SIZE
  6
CONTINUOUS
 62
    30
 10
-75.428571428571416
 20
165.12397200000001
 30
0.0
 40
64.0
  1
434
 41
0.9
 72
     1
 11
0.0
 21
165.12397200000001
 31
0.0
  0
LINE
  5
68E
  8
NOTE
  6
CONTINUOUS
 62
     4
 10
-217.0
 20
-30.0
 30
0.0
 11
-217.0
 21
10.0
 31
0.0
  0
LINE
  5
68F
  8
NOTE
  6
CONTINUOUS
 62
     4
 10
-237.0
 20
-10.0
 30
0.0
 11
-197.0
 21
-10.0
 31
0.0
  0
LINE
  5
690
  8
NOTE
  6
CONTINUOUS
 62
     4
 10
217.0
 20
-30.0
 30
0.0
 11
217.0
 21
10.0
 31
0.0
  0
LINE
  5
691
  8
NOTE
  6
CONTINUOUS
 62
     4
 10
197.0
 20
-10.0
 30
0.0
 11
237.0
 21
-10.0
 31
0.0
  0
POINT
  5
692
  8
ARRANGE
  6
CONTINUOUS
 62
     1
 10
0.0
 20
0.0
 30
0.0
  0
CIRCLE
  5
693
  8
ARRANGE
  6
CONTINUOUS
 62
     1
 10
0.0
 20
0.0
 30
0.0
 40
40.0
  0
LINE
  5
694
  8
DETAIL
  6
CONTINUOUS
 62
     5
 10
89.319999999999979
 20
-213.0
 30
0.0
 11
-88.0
 21
-213.0
 31
0.0
  0
LINE
  5
695
  8
DETAIL
  6
CONTINUOUS
 62
     5
 10
89.319999999999979
 20
-173.0
 30
0.0
 11
89.319999999999979
 21
-213.0
 31
0.0
  0
LINE
  5
696
  8
DETAIL
  6
CONTINUOUS
 62
     5
 10
-88.0
 20
-173.0
 30
0.0
 11
-88.0
 21
-213.0
 31
0.0
  0
LINE
  5
697
  8
NOTE
  6
CONTINUOUS
 62
     4
 10
204.62380899999999
 20
-49.39896199999999
 30
0.0
 11
177.5
 21
-20.0
 31
0.0
  0
LINE
  5
698
  8
NOTE
  6
CONTINUOUS
 62
     4
 10
177.5
 20
-20.0
 30
0.0
 11
186.290426
 21
-59.022153000000003
 31
0.0
  0
LINE
  5
699
  8
NOTE
  6
CONTINUOUS
 62
     4
 10
177.5
 20
-20.0
 30
0.0
 11
265.36480499999999
 21
-191.96339
 31
0.0
  0
LINE
  5
69A
  8
NOTE
  6
CONTINUOUS
 62
     4
 10
197.5
 20
-20.0
 30
0.0
 11
157.5
 21
-20.0
 31
0.0
  0
LINE
  5
69B
  8
NOTE
  6
CONTINUOUS
 62
     4
 10
177.5
 20
-40.0
 30
0.0
 11
177.5
 21
0.0
 31
0.0
  0
LINE
  5
69C
  8
NOTE
  6
CONTINUOUS
 62
     4
 10
265.36480499999999
 20
-191.96339
 30
0.0
 11
375.05093199999988
 21
-191.96339
 31
0.0
  0
TEXT
  5
69D
  8
NOTE
  6
CONTINUOUS
 62
     4
 10
293.02099299999992
 20
-169.33060900000001
 30
0.0
 40
50.706637000000001
  1
EL
 41
0.9
  0
LINE
  5
69E
  8
SIZE
  6
CONTINUOUS
 62
    30
 10
-207.5
 20
-90.0
 30
0.0
 11
-207.5
 21
-574.72700399999997
 31
0.0
  0
LINE
  5
69F
  8
SIZE
  6
CONTINUOUS
 62
    30
 10
207.5
 20
-90.0
 30
0.0
 11
207.5
 21
-574.72700399999997
 31
0.0
  0
LINE
  5
6A0
  8
SIZE
  6
CONTINUOUS
 62
    30
 10
-195.5
 20
-554.72700399999985
 30
0.0
 11
195.5
 21
-554.72700399999985
 31
0.0
  0
CIRCLE
  5
6A1
  8
SIZE
  6
CONTINUOUS
 62
    30
 10
-207.5
 20
-554.72700399999985
 30
0.0
 40
6.0
  0
LINE
  5
6A2
  8
SIZE
  6
CONTINUOUS
 62
    30
 10
-207.5
 20
-554.72700399999985
 30
0.0
 11
-195.5
 21
-554.72700399999985
 31
0.0
  0
CIRCLE
  5
6A3
  8
SIZE
  6
CONTINUOUS
 62
    30
 10
207.5
 20
-554.72700399999985
 30
0.0
 40
6.0
  0
LINE
  5
6A4
  8
SIZE
  6
CONTINUOUS
 62
    30
 10
207.5
 20
-554.72700399999985
 30
0.0
 11
195.5
 21
-554.72700399999985
 31
0.0
  0
TEXT
  5
6A5
  8
SIZE
  6
CONTINUOUS
 62
    30
 10
-108.89142857142851
 20
-529.72700399999985
 30
0.0
 40
64.0
  1
φ415
 41
0.9
 72
     1
 11
0.0
 21
-529.72700399999985
 31
0.0
  0
LINE
  5
6A6
  8
SIZE
  6
CONTINUOUS
 62
    30
 10
-460.83222599999999
 20
-418.50390199999993
 30
0.0
 11
66.499999999999972
 21
-418.50390199999993
 31
0.0
  0
TEXT
  5
6A7
  8
SIZE
  6
CONTINUOUS
 62
    30
 10
-462.4379405714285
 20
-393.50390199999993
 30
0.0
 40
64.0
  1
φ133
 41
0.9
 72
     1
 11
-353.54651200000001
 21
-393.50390199999993
 31
0.0
  0
CIRCLE
  5
6A8
  8
FIX
  6
CONTINUOUS
 62
    11
 10
-217.0
 20
-10.0
 30
0.0
 40
6.0
  0
CIRCLE
  5
6A9
  8
FIX
  6
CONTINUOUS
 62
    11
 10
217.0
 20
-10.0
 30
0.0
 40
6.0
  0
LINE
  5
6AC
  8
DETAIL
  6
CONTINUOUS
 62
     5
 10
51.499999999999979
 20
-228.0
 30
0.0
 11
-51.499999999999979
 21
-228.0
 31
0.0
  0
LINE
  5
6AD
  8
OUTLINE
  6
CONTINUOUS
 62
     3
 10
180.0
 20
-67.0
 30
0.0
 11
-180.0
 21
-67.0
 31
0.0
  0
LINE
  5
6AE
  8
OUTLINE
  6
CONTINUOUS
 62
     3
 10
180.0
 20
-70.0
 30
0.0
 11
-180.0
 21
-70.0
 31
0.0
  0
LINE
  5
6AF
  8
OUTLINE
  6
CONTINUOUS
 62
     3
 10
210.49999999999989
 20
-20.0
 30
0.0
 11
-210.49999999999989
 21
-20.0
 31
0.0
  0
LINE
  5
6B4
  8
OUTLINE
  6
CONTINUOUS
 62
     3
 10
200.0
 20
-67.0
 30
0.0
 11
207.5
 21
-67.0
 31
0.0
  0
LINE
  5
6B5
  8
OUTLINE
  6
CONTINUOUS
 62
     3
 10
200.0
 20
-70.0
 30
0.0
 11
207.5
 21
-70.0
 31
0.0
  0
LINE
  5
6B6
  8
OUTLINE
  6
CONTINUOUS
 62
     3
 10
207.5
 20
-67.0
 30
0.0
 11
207.5
 21
-70.0
 31
0.0
  0
LINE
  5
6B7
  8
OUTLINE
  6
CONTINUOUS
 62
     3
 10
210.49999999999989
 20
-20.0
 30
0.0
 11
210.49999999999989
 21
-10.0
 31
0.0
  0
LINE
  5
6BC
  8
OUTLINE
  6
CONTINUOUS
 62
     3
 10
-200.0
 20
-67.0
 30
0.0
 11
-207.5
 21
-67.0
 31
0.0
  0
LINE
  5
6BD
  8
OUTLINE
  6
CONTINUOUS
 62
     3
 10
-200.0
 20
-70.0
 30
0.0
 11
-207.5
 21
-70.0
 31
0.0
  0
LINE
  5
6BE
  8
OUTLINE
  6
CONTINUOUS
 62
     3
 10
-207.5
 20
-67.0
 30
0.0
 11
-207.5
 21
-70.0
 31
0.0
  0
LINE
  5
6BF
  8
OUTLINE
  6
CONTINUOUS
 62
     3
 10
-210.49999999999989
 20
-20.0
 30
0.0
 11
-210.49999999999989
 21
-10.0
 31
0.0
  0
LINE
  5
6C0
  8
DETAIL
  6
CONTINUOUS
 62
     5
 10
-78.0
 20
-163.0
 30
0.0
 11
79.319999999999979
 21
-163.0
 31
0.0
  0
ARC
  5
6C1
  8
DETAIL
  6
CONTINUOUS
 62
     5
 10
-78.0
 20
-173.0
 30
0.0
 40
10.0
 50
90.0
 51
180.0
  0
ARC
  5
6C2
  8
DETAIL
  6
CONTINUOUS
 62
     5
 10
79.319999999999979
 20
-173.0
 30
0.0
 40
10.0
 50
0.0
 51
90.0
  0
ARC
  5
6C3
  8
DETAIL
  6
CONTINUOUS
 62
     5
 10
-91.103478999999979
 20
-62.604207999999993
 30
0.0
 40
90.333031999999974
 50
190.23165900000001
 51
245.9782109999999
  0
ARC
  5
6C4
  8
DETAIL
  6
CONTINUOUS
 62
     5
 10
-97.876614000000004
 20
-135.43693500000001
 30
0.0
 40
30.0
 50
148.07741299999981
 51
180.0
  0
ARC
  5
6C5
  8
DETAIL
  6
CONTINUOUS
 62
     5
 10
57.215271999999999
 20
-232.0579819999999
 30
0.0
 40
212.726899
 50
130.375766
 51
148.07741299999981
  0
LINE
  5
6C6
  8
DETAIL
  6
CONTINUOUS
 62
     5
 10
-127.87661399999971
 20
-145.113561
 30
0.0
 11
-127.87661399999971
 21
-135.43693500000001
 31
0.0
  0
LINE
  5
6C7
  8
DETAIL
  6
CONTINUOUS
 62
     5
 10
-47.5
 20
-108.0
 30
0.0
 11
47.5
 21
-108.0
 31
0.0
  0
LINE
  5
6C8
  8
DETAIL
  6
CONTINUOUS
 62
     5
 10
-57.5
 20
-138.0
 30
0.0
 11
57.5
 21
-138.0
 31
0.0
  0
LINE
  5
6C9
  8
DETAIL
  6
CONTINUOUS
 62
     5
 10
-57.5
 20
-163.0
 30
0.0
 11
-57.5
 21
-118.0
 31
0.0
  0
ARC
  5
6CA
  8
DETAIL
  6
CONTINUOUS
 62
     5
 10
-47.5
 20
-118.0
 30
0.0
 40
10.0
 50
90.0
 51
180.0
  0
LINE
  5
6CB
  8
DETAIL
  6
CONTINUOUS
 62
     5
 10
57.5
 20
-163.0
 30
0.0
 11
57.5
 21
-118.0
 31
0.0
  0
ARC
  5
6CC
  8
DETAIL
  6
CONTINUOUS
 62
     5
 10
47.5
 20
-118.0
 30
0.0
 40
10.0
 50
0.0
 51
90.0
  0
ARC
  5
6CD
  8
DETAIL
  6
CONTINUOUS
 62
     5
 10
-132.951097
 20
367.94328400000001
 30
0.0
 40
508.97729800000002
 50
290.75613399999992
 51
292.74637899999999
  0
LINE
  5
6CE
  8
DETAIL
  6
CONTINUOUS
 62
     5
 10
-10.0
 20
-93.0
 30
0.0
 11
10.0
 21
-93.0
 31
0.0
  0
ARC
  5
6CF
  8
DETAIL
  6
CONTINUOUS
 62
     5
 10
10.0
 20
-98.0
 30
0.0
 40
5.0
 50
0.0
 51
90.0
  0
ARC
  5
6D0
  8
DETAIL
  6
CONTINUOUS
 62
     5
 10
-10.0
 20
-98.0
 30
0.0
 40
5.0
 50
90.0
 51
180.0
  0
ARC
  5
6D1
  8
DETAIL
  6
CONTINUOUS
 62
     5
 10
-92.721168000000006
 20
4.7182510000000004
 30
0.0
 40
143.87302
 50
316.90387299999998
 51
326.00624399999998
  0
LINE
  5
6D2
  8
DETAIL
  6
CONTINUOUS
 62
     5
 10
8.320064999999996
 20
-80.0
 30
0.0
 11
-8.320064999999996
 21
-80.0
 31
0.0
  0
LINE
  5
6D3
  8
DETAIL
  6
CONTINUOUS
 62
     5
 10
8.320064999999996
 20
-80.0
 30
0.0
 11
10.956924000000001
 21
-70.0
 31
0.0
  0
LINE
  5
6D4
  8
DETAIL
  6
CONTINUOUS
 62
     5
 10
5.0
 20
-80.0
 30
0.0
 11
5.0
 21
-93.0
 31
0.0
  0
LINE
  5
6D5
  8
DETAIL
  6
CONTINUOUS
 62
     5
 10
-8.320064999999996
 20
-80.0
 30
0.0
 11
-10.956924000000001
 21
-70.0
 31
0.0
  0
LINE
  5
6D6
  8
DETAIL
  6
CONTINUOUS
 62
     5
 10
-5.0
 20
-80.0
 30
0.0
 11
-5.0
 21
-93.0
 31
0.0
  0
LINE
  5
6D7
  8
DETAIL
  6
CONTINUOUS
 62
     5
 10
15.0
 20
-98.0
 30
0.0
 11
15.0
 21
-108.0
 31
0.0
  0
LINE
  5
6D8
  8
DETAIL
  6
CONTINUOUS
 62
     5
 10
-15.0
 20
-98.0
 30
0.0
 11
-15.0
 21
-108.0
 31
0.0
  0
ARC
  5
6D9
  8
DETAIL
  6
CONTINUOUS
 62
     5
 10
253.52235426189711
 20
214.6574548418171
 30
0.0
 40
368.4929737364954
 50
230.57809593521259
 51
257.50919649937629
  0
ARC
  5
6DA
  8
DETAIL
  6
CONTINUOUS
 62
     5
 10
400.67563250715023
 20
372.87131228509651
 30
0.0
 40
565.48224078467251
 50
231.55216286483719
 51
246.3489354008872
  0
ARC
  5
6DB
  8
DETAIL
  6
CONTINUOUS
 62
     5
 10
-132.951097
 20
367.94328400000001
 30
0.0
 40
508.97729800000002
 50
294.85107299999981
 51
300.63423
  0
LINE
  5
6DE
  8
DETAIL
  6
CONTINUOUS
 62
     5
 39
50.0
 10
-235.0
 20
-10.0
 30
0.0
 11
-235.0
 21
0.0
 31
0.0
  0
LINE
  5
6DF
  8
DETAIL
  6
CONTINUOUS
 62
     5
 39
50.0
 10
234.99999999999949
 20
-10.0
 30
0.0
 11
234.99999999999949
 21
0.0
 31
0.0
  0
LINE
  5
6E0
  8
OUTLINE
  6
CONTINUOUS
 62
     3
 39
50.0
 10
234.99999999999949
 20
-10.0
 30
0.0
 11
234.99999999999949
 21
0.0
 31
0.0
  0
LINE
  5
6E1
  8
OUTLINE
  6
CONTINUOUS
 62
     3
 39
50.0
 10
234.99999999999949
 20
0.0
 30
0.0
 11
-235.0
 21
0.0
 31
0.0
  0
LINE
  5
6E2
  8
OUTLINE
  6
CONTINUOUS
 62
     3
 39
50.0
 10
-235.0
 20
0.0
 30
0.0
 11
-235.0
 21
-10.0
 31
0.0
  0
LINE
  5
6E3
  8
OUTLINE
  6
CONTINUOUS
 62
     3
 39
50.0
 10
-235.0
 20
-10.0
 30
0.0
 11
234.99999999999949
 21
-10.0
 31
0.0
  0
LINE
  5
6E4
  8
SIZE
  6
CONTINUOUS
 62
    30
 10
-235.0
 20
20.0
 30
0.0
 11
-234.99999999999949
 21
293.167866751791
 31
0.0
  0
LINE
  5
6E5
  8
SIZE
  6
CONTINUOUS
 62
    30
 10
234.99999999999949
 20
20.000000000001322
 30
0.0
 11
234.99999999999949
 21
293.167866751791
 31
0.0
  0
LINE
  5
6E6
  8
SIZE
  6
CONTINUOUS
 62
    30
 10
-234.99999999999949
 20
273.16786675179111
 30
0.0
 11
234.99999999999949
 21
273.16786675179111
 31
0.0
  0
CIRCLE
  5
6E7
  8
SIZE
  6
CONTINUOUS
 62
    30
 39
50.0
 10
-234.99999999999949
 20
273.16786675179111
 30
0.0
 40
6.0
  0
CIRCLE
  5
6E8
  8
SIZE
  6
CONTINUOUS
 62
    30
 39
50.0
 10
234.99999999999949
 20
273.16786675179111
 30
0.0
 40
6.0
  0
TEXT
  5
6E9
  8
SIZE
  6
CONTINUOUS
 62
    30
 10
-74.057142857142864
 20
298.16786675179128
 30
0.0
 40
64.0
  1
470
 41
0.9
  0
TEXT
  5
6EA
  8
ETC
  6
CONTINUOUS
 62
    61
 10
583.47245054287146
 20
242.5556846012926
 30
0.0
 40
50.0
  1
EF-35DTB40A3
 41
0.9
  0
TEXT
  5
6EB
  8
ETC
  6
CONTINUOUS
 62
    61
 10
467.2626252302091
 20
423.78045171806963
 30
0.0
 40
64.0
  1
EF-35DTB40A3_6
 41
0.9
  0
TEXT
  5
6EC
  8
ETC
  6
CONTINUOUS
 62
    61
 10
463.97934723020921
 20
325.28018771806961
 30
0.0
 40
64.0
  1
産業扇
 41
0.9
  0
LINE
  5
6ED
  8
DETAIL
  6
CONTINUOUS
 62
     5
 10
64.499999999999986
 20
-193.0
 30
0.0
 11
-64.499999999999986
 21
-193.0
 31
0.0
  0
LINE
  5
6EE
  8
DETAIL
  6
CONTINUOUS
 62
     5
 39
50.0
 10
135.0
 20
-198.0
 30
0.0
 11
68.499999999999972
 21
-198.0
 31
0.0
  0
LINE
  5
6EF
  8
DETAIL
  6
CONTINUOUS
 62
     5
 39
50.0
 10
-135.0
 20
-198.0
 30
0.0
 11
-68.499999999999972
 21
-198.0
 31
0.0
  0
LINE
  5
6F0
  8
DETAIL
  6
CONTINUOUS
 62
     5
 39
50.0
 10
66.499999999999986
 20
-213.0
 30
0.0
 11
51.499999999999979
 21
-228.0
 31
0.0
  0
LINE
  5
6F1
  8
DETAIL
  6
CONTINUOUS
 62
     5
 39
50.0
 10
-66.499999999999986
 20
-213.0
 30
0.0
 11
-51.499999999999979
 21
-228.0
 31
0.0
  0
LINE
  5
6F2
  8
DETAIL
  6
CONTINUOUS
 62
     5
 39
50.0
 10
-66.499999999999986
 20
-195.0
 30
0.0
 11
-66.499999999999972
 21
-196.0
 31
0.0
  0
LINE
  5
6F3
  8
DETAIL
  6
CONTINUOUS
 62
     5
 39
50.0
 10
66.499999999999986
 20
-195.0
 30
0.0
 11
66.499999999999972
 21
-196.0
 31
0.0
  0
ARC
  5
6F4
  8
DETAIL
  6
CONTINUOUS
 62
     5
 39
50.0
 10
-64.499999999999986
 20
-195.0
 30
0.0
 40
2.0
 50
90.0
 51
180.0
  0
ARC
  5
6F5
  8
DETAIL
  6
CONTINUOUS
 62
     5
 39
50.0
 10
-68.499999999999972
 20
-196.0
 30
0.0
 40
2.0
 50
270.0
 51
0.0
  0
ARC
  5
6F6
  8
DETAIL
  6
CONTINUOUS
 62
     5
 39
50.0
 10
64.499999999999986
 20
-195.0
 30
0.0
 40
2.0
 50
0.0
 51
90.0
  0
ARC
  5
6F7
  8
DETAIL
  6
CONTINUOUS
 62
     5
 39
50.0
 10
68.499999999999972
 20
-196.0
 30
0.0
 40
2.0
 50
180.0
 51
270.0
  0
LINE
  5
6F8
  8
SIZE
  6
CONTINUOUS
 10
-66.499999999999986
 20
-233.0
 30
0.0
 11
-66.5
 21
-439.78597910978402
 31
0.0
  0
LINE
  5
6F9
  8
SIZE
  6
CONTINUOUS
 10
66.499999999999986
 20
-233.0
 30
0.0
 11
66.499999999999972
 21
-439.78597910978402
 31
0.0
  0
CIRCLE
  5
6FA
  8
SIZE
  6
CONTINUOUS
 62
    30
 39
50.0
 10
-66.5
 20
-418.50390199999993
 30
0.0
 40
6.0
  0
CIRCLE
  5
6FB
  8
SIZE
  6
CONTINUOUS
 62
    30
 39
50.0
 10
66.5
 20
-418.50390199999993
 30
0.0
 40
6.0
  0
LINE
  5
6FC
  8
OUTLINE
  6
CONTINUOUS
 62
     3
 39
50.0
 10
-66.499999999999972
 20
-195.0
 30
0.0
 11
-66.499999999999972
 21
-196.0
 31
0.0
  0
LINE
  5
6FD
  8
OUTLINE
  6
CONTINUOUS
 62
     3
 39
50.0
 10
66.499999999999972
 20
-195.0
 30
0.0
 11
66.499999999999972
 21
-196.0
 31
0.0
  0
LINE
  5
6FE
  8
OUTLINE
  6
CONTINUOUS
 62
     3
 39
50.0
 10
64.499999999999972
 20
-193.0
 30
0.0
 11
-64.499999999999972
 21
-193.0
 31
0.0
  0
LINE
  5
6FF
  8
OUTLINE
  6
CONTINUOUS
 62
     3
 39
50.0
 10
-78.000000000000014
 20
-163.0
 30
0.0
 11
79.319999999999979
 21
-163.0
 31
0.0
  0
LINE
  5
700
  8
OUTLINE
  6
CONTINUOUS
 62
     3
 39
50.0
 10
89.319999999999979
 20
-173.0
 30
0.0
 11
89.319999999999979
 21
-213.0
 31
0.0
  0
LINE
  5
701
  8
OUTLINE
  6
CONTINUOUS
 62
     3
 39
50.0
 10
89.319999999999979
 20
-213.0
 30
0.0
 11
-88.0
 21
-213.0
 31
0.0
  0
LINE
  5
702
  8
OUTLINE
  6
CONTINUOUS
 62
     3
 39
50.0
 10
-88.0
 20
-213.0
 30
0.0
 11
-88.000000000000014
 21
-173.0
 31
0.0
  0
LINE
  5
706
  8
OUTLINE
  6
CONTINUOUS
 62
     3
 39
50.0
 10
66.499999999999986
 20
-213.0
 30
0.0
 11
51.499999999999979
 21
-228.0
 31
0.0
  0
LINE
  5
707
  8
OUTLINE
  6
CONTINUOUS
 62
     3
 39
50.0
 10
51.499999999999979
 20
-228.0
 30
0.0
 11
-51.499999999999979
 21
-228.0
 31
0.0
  0
LINE
  5
708
  8
OUTLINE
  6
CONTINUOUS
 62
     3
 39
50.0
 10
-51.499999999999979
 20
-228.0
 30
0.0
 11
-66.499999999999986
 21
-213.0
 31
0.0
  0
ARC
  5
709
  8
OUTLINE
  6
CONTINUOUS
 62
     3
 39
50.0
 10
-64.499999999999972
 20
-195.0
 30
0.0
 40
2.0
 50
90.0
 51
180.00000000000071
  0
ARC
  5
70A
  8
OUTLINE
  6
CONTINUOUS
 62
     3
 39
50.0
 10
-68.499999999999972
 20
-196.0
 30
0.0
 40
2.0
 50
270.0
 51
0.0
  0
ARC
  5
70B
  8
OUTLINE
  6
CONTINUOUS
 62
     3
 39
50.0
 10
64.499999999999972
 20
-195.0
 30
0.0
 40
2.0
 50
359.99999999999909
 51
90.0
  0
ARC
  5
70C
  8
OUTLINE
  6
CONTINUOUS
 62
     3
 39
50.0
 10
68.499999999999972
 20
-196.0
 30
0.0
 40
2.0
 50
180.0
 51
270.0
  0
ARC
  5
70D
  8
OUTLINE
  6
CONTINUOUS
 62
     3
 39
50.0
 10
-78.000000000000014
 20
-173.0
 30
0.0
 40
10.0
 50
90.0
 51
180.0
  0
ARC
  5
70E
  8
OUTLINE
  6
CONTINUOUS
 62
     3
 39
50.0
 10
79.319999999999979
 20
-173.0
 30
0.0
 40
10.0
 50
0.0
 51
90.0
  0
ARC
  5
710
  8
DETAIL
  6
CONTINUOUS
 62
     5
 10
-130.0
 20
-123.0
 30
0.0
 40
50.0
 50
180.0
 51
270.0
  0
ARC
  5
711
  8
DETAIL
  6
CONTINUOUS
 62
     5
 10
130.0
 20
-123.0
 30
0.0
 40
50.0
 50
270.0
 51
0.0
  0
ARC
  5
713
  8
DETAIL
  6
CONTINUOUS
 62
     5
 39
50.0
 10
-135.0
 20
-133.0
 30
0.0
 40
65.0
 50
180.0
 51
270.0
  0
ARC
  5
714
  8
DETAIL
  6
CONTINUOUS
 62
     5
 39
50.0
 10
135.0
 20
-133.0
 30
0.0
 40
65.0
 50
270.0
 51
0.0
  0
LINE
  5
715
  8
OUTLINE
  6
CONTINUOUS
 62
     3
 39
50.0
 10
-200.0
 20
-20.0
 30
0.0
 11
-200.0
 21
-133.0
 31
0.0
  0
LINE
  5
716
  8
OUTLINE
  6
CONTINUOUS
 62
     3
 39
50.0
 10
-180.0
 20
-20.0
 30
0.0
 11
-180.0
 21
-123.0
 31
0.0
  0
LINE
  5
717
  8
OUTLINE
  6
CONTINUOUS
 62
     3
 39
50.0
 10
180.0
 20
-123.0
 30
0.0
 11
180.0
 21
-20.0
 31
0.0
  0
LINE
  5
718
  8
OUTLINE
  6
CONTINUOUS
 62
     3
 39
50.0
 10
200.0
 20
-133.0
 30
0.0
 11
200.0
 21
-20.0
 31
0.0
  0
LINE
  5
719
  8
OUTLINE
  6
CONTINUOUS
 62
     3
 39
50.0
 10
130.0
 20
-173.0
 30
0.0
 11
-130.0
 21
-173.0
 31
0.0
  0
LINE
  5
71A
  8
OUTLINE
  6
CONTINUOUS
 62
     3
 39
50.0
 10
-68.499999999999972
 20
-198.0
 30
0.0
 11
-135.0
 21
-198.0
 31
0.0
  0
LINE
  5
71B
  8
OUTLINE
  6
CONTINUOUS
 62
     3
 39
50.0
 10
68.499999999999972
 20
-198.0
 30
0.0
 11
135.0
 21
-198.0
 31
0.0
  0
ARC
  5
71C
  8
OUTLINE
  6
CONTINUOUS
 62
     3
 39
50.0
 10
-135.0
 20
-133.0
 30
0.0
 40
65.0
 50
180.0
 51
270.0
  0
ARC
  5
71D
  8
OUTLINE
  6
CONTINUOUS
 62
     3
 39
50.0
 10
135.0
 20
-133.0
 30
0.0
 40
65.0
 50
270.0
 51
0.0
  0
ARC
  5
71F
  8
OUTLINE
  6
CONTINUOUS
 62
     3
 39
50.0
 10
-130.0
 20
-123.0
 30
0.0
 40
50.0
 50
180.0
 51
270.0
  0
ARC
  5
720
  8
OUTLINE
  6
CONTINUOUS
 62
     3
 39
50.0
 10
130.0
 20
-123.0
 30
0.0
 40
50.0
 50
270.0
 51
0.0
  0
ENDSEC
  0
EOF
