  0
SECTION
  2
HEADER
  9
$ACADVER
  1
AC1009
  9
$DWGCODEPAGE
  3
dos932
  9
$INSBASE
 10
0.0
 20
0.0
 30
0.0
  9
$EXTMIN
 10
-499.86418007158858
 20
-659.4543342472225
 30
-0.0000000349181948
  9
$EXTMAX
 10
1152.4520991165789
 20
535.12574037900777
 30
0.0000000814935746
  9
$LIMMIN
 10
-2970.0
 20
-2100.0
  9
$LIMMAX
 10
2970.0
 20
2100.0
  9
$ORTHOMODE
 70
     1
  9
$REGENMODE
 70
     1
  9
$FILLMODE
 70
     1
  9
$QTEXTMODE
 70
     0
  9
$MIRRTEXT
 70
     0
  9
$LTSCALE
 40
20.0
  9
$ATTMODE
 70
     1
  9
$TEXTSIZE
 40
64.0
  9
$TRACEWID
 40
0.05
  9
$TEXTSTYLE
  7
STANDARD
  9
$CLAYER
  8
SIZE
  9
$CELTYPE
  6
CONTINUOUS
  9
$CECOLOR
 62
     7
  9
$DIMSCALE
 40
1.0
  9
$DIMASZ
 40
12.0
  9
$DIMEXO
 40
20.0
  9
$DIMDLI
 40
200.0
  9
$DIMRND
 40
0.0
  9
$DIMDLE
 40
0.0
  9
$DIMEXE
 40
20.0
  9
$DIMTP
 40
0.0
  9
$DIMTM
 40
0.0
  9
$DIMTXT
 40
64.0
  9
$DIMCEN
 40
0.09
  9
$DIMTSZ
 40
0.0
  9
$DIMTOL
 70
     0
  9
$DIMLIM
 70
     0
  9
$DIMTIH
 70
     0
  9
$DIMTOH
 70
     0
  9
$DIMSE1
 70
     0
  9
$DIMSE2
 70
     0
  9
$DIMTAD
 70
     1
  9
$DIMZIN
 70
     8
  9
$DIMBLK
  1

  9
$DIMASO
 70
     1
  9
$DIMSHO
 70
     0
  9
$DIMPOST
  1

  9
$DIMAPOST
  1

  9
$DIMALT
 70
     0
  9
$DIMALTD
 70
     2
  9
$DIMALTF
 40
25.399999999999999
  9
$DIMLFAC
 40
1.0
  9
$DIMTOFL
 70
     1
  9
$DIMTVP
 40
0.0
  9
$DIMTIX
 70
     1
  9
$DIMSOXD
 70
     0
  9
$DIMSAH
 70
     0
  9
$DIMBLK1
  1

  9
$DIMBLK2
  1

  9
$DIMSTYLE
  2
STANDARD
  9
$DIMCLRD
 70
     7
  9
$DIMCLRE
 70
     7
  9
$DIMCLRT
 70
     7
  9
$DIMTFAC
 40
1.0
  9
$DIMGAP
 40
25.0
  9
$LUNITS
 70
     2
  9
$LUPREC
 70
     4
  9
$SKETCHINC
 40
0.1
  9
$FILLETRAD
 40
3.0
  9
$AUNITS
 70
     1
  9
$AUPREC
 70
     3
  9
$MENU
  1
ACAD
  9
$ELEVATION
 40
0.0
  9
$PELEVATION
 40
0.0
  9
$THICKNESS
 40
0.0
  9
$LIMCHECK
 70
     0
  9
$CHAMFERA
 40
0.0
  9
$CHAMFERB
 40
0.0
  9
$SKPOLY
 70
     0
  9
$TDCREATE
 40
2453019.62301037
  9
$TDUPDATE
 40
2459389.496090069
  9
$TDINDWG
 40
1.7186039468
  9
$TDUSRTIMER
 40
1.7186039468
  9
$USRTIMER
 70
     1
  9
$ANGBASE
 50
0.0
  9
$ANGDIR
 70
     0
  9
$PDMODE
 70
     3
  9
$PDSIZE
 40
-2.0
  9
$PLINEWID
 40
0.0
  9
$SPLFRAME
 70
     0
  9
$SPLINETYPE
 70
     6
  9
$SPLINESEGS
 70
     8
  9
$SURFTAB1
 70
     6
  9
$SURFTAB2
 70
     6
  9
$SURFTYPE
 70
     6
  9
$SURFU
 70
     6
  9
$SURFV
 70
     6
  9
$UCSNAME
  2

  9
$UCSORG
 10
0.0
 20
0.0
 30
0.0
  9
$UCSXDIR
 10
1.0
 20
0.0
 30
0.0
  9
$UCSYDIR
 10
0.0
 20
1.0
 30
0.0
  9
$PUCSNAME
  2

  9
$PUCSORG
 10
0.0
 20
0.0
 30
0.0
  9
$PUCSXDIR
 10
1.0
 20
0.0
 30
0.0
  9
$PUCSYDIR
 10
0.0
 20
1.0
 30
0.0
  9
$USERI1
 70
     0
  9
$USERI2
 70
     0
  9
$USERI3
 70
     0
  9
$USERI4
 70
     0
  9
$USERI5
 70
     0
  9
$USERR1
 40
20.0
  9
$USERR2
 40
0.0
  9
$USERR3
 40
0.0
  9
$USERR4
 40
0.0
  9
$USERR5
 40
0.0
  9
$WORLDVIEW
 70
     1
  9
$SHADEDGE
 70
     3
  9
$SHADEDIF
 70
    70
  9
$TILEMODE
 70
     1
  9
$MAXACTVP
 70
    48
  9
$PINSBASE
 10
0.0
 20
0.0
 30
0.0
  9
$PLIMCHECK
 70
     0
  9
$PEXTMIN
 10
-100000000000000000000.0
 20
-100000000000000000000.0
 30
-100000000000000000000.0
  9
$PEXTMAX
 10
100000000000000000000.0
 20
100000000000000000000.0
 30
100000000000000000000.0
  9
$PLIMMIN
 10
0.0
 20
0.0
  9
$PLIMMAX
 10
12.0
 20
9.0
  9
$UNITMODE
 70
     0
  9
$VISRETAIN
 70
     0
  9
$PLINEGEN
 70
     0
  9
$PSLTSCALE
 70
     0
  9
$TREEDEPTH
 70
  3020
  9
$ATTDIA
 70
     0
  9
$ATTREQ
 70
     1
  9
$BLIPMODE
 70
     1
  9
$COORDS
 70
     1
  9
$DRAGMODE
 70
     2
  9
$OSMODE
 70
     0
  9
$HANDLING
 70
     0
  9
$HANDSEED
  5
FEC7
  0
ENDSEC
  0
SECTION
  2
TABLES
  0
TABLE
  2
LTYPE
 70
     2
  0
LTYPE
  2
CONTINUOUS
 70
     0
  3
実線
 72
    65
 73
     0
 40
0.0
  0
LTYPE
  2
DASHDOT
 70
     0
  3
____ _ ____ _ ____ _ ____ _ ____ _ ____ _ ____
 72
    65
 73
     4
 40
5.5
 49
4.0
 49
-0.6
 49
0.3
 49
-0.6
  0
ENDTAB
  0
TABLE
  2
LAYER
 70
    12
  0
LAYER
  2
0
 70
     0
 62
     7
  6
CONTINUOUS
  0
LAYER
  2
BASIS
 70
     0
 62
     6
  6
DASHDOT
  0
LAYER
  2
OUTLINE
 70
     0
 62
     3
  6
CONTINUOUS
  0
LAYER
  2
DETAIL
 70
     0
 62
     5
  6
CONTINUOUS
  0
LAYER
  2
SIZE
 70
     0
 62
    30
  6
CONTINUOUS
  0
LAYER
  2
ARRANGE
 70
     0
 62
     1
  6
CONTINUOUS
  0
LAYER
  2
DEFPOINTS
 70
     0
 62
     7
  6
CONTINUOUS
  0
LAYER
  2
ETC
 70
     0
 62
    61
  6
CONTINUOUS
  0
LAYER
  2
FIX
 70
     0
 62
    11
  6
CONTINUOUS
  0
LAYER
  2
NOTE
 70
     0
 62
     4
  6
CONTINUOUS
  0
LAYER
  2
SERVICESPACE
 70
    64
 62
     2
  6
DASHDOT
  0
LAYER
  2
SYMBOLLINE
 70
    64
 62
    15
  6
CONTINUOUS
  0
ENDTAB
  0
TABLE
  2
STYLE
 70
     1
  0
STYLE
  2
STANDARD
 70
     0
 40
64.0
 41
0.9
 50
0.0
 71
     0
 42
64.0
  3
SIMPLEX.shx
  4
BIGFONT.shx
  0
ENDTAB
  0
TABLE
  2
APPID
 70
    20
  0
APPID
  2
ACAD
 70
     0
  0
APPID
  2
AUTOCAD_POSTSCRIPT_FIGURE
 70
     0
  0
APPID
  2
ACAD_EXEMPT_FROM_CAD_STANDARDS
 70
     0
  0
APPID
  2
ACAD_PSEXT
 70
     0
  0
APPID
  2
ACAUTHENVIRON
 70
     0
  0
APPID
  2
GENIUS_GENOENT_13
 70
     0
  0
APPID
  2
GENIUS_GENCFG_13
 70
     0
  0
APPID
  2
GENIUS_GENCFG0_13
 70
     0
  0
APPID
  2
GENIUS_GENCFG1_13
 70
     0
  0
APPID
  2
GENIUS_GENCFG2_13
 70
     0
  0
APPID
  2
GENIUS_GENCFG3_13
 70
     0
  0
APPID
  2
GENIUS_GENCFG4_13
 70
     0
  0
APPID
  2
GENIUS_GEVCFG0_13
 70
     0
  0
APPID
  2
CONTENTBLOCKICON
 70
     0
  0
APPID
  2
CONTENTBLOCKDESCRIPTION
 70
     0
  0
APPID
  2
ACAD_NAV_VCDISPLAY
 70
     0
  0
APPID
  2
ACAD_MLEADERVER
 70
     0
  0
APPID
  2
ACDBDYNAMICBLOCKTRUENAME
 70
     0
  0
APPID
  2
ACDBDYNAMICBLOCKGUID
 70
     0
  0
APPID
  2
ACAD_DSTYLE_DIMRADIAL_EXTENSION
 70
     0
  0
ENDTAB
  0
TABLE
  2
DIMSTYLE
 70
     1
  0
DIMSTYLE
  2
STANDARD
 70
     0
  3

  4

  5
_ORIGIN
  6

  7

 40
1.0
 41
12.0
 42
20.0
 43
200.0
 44
20.0
 45
0.0
 46
0.0
 47
0.0
 48
0.0
140
64.0
141
0.09
142
0.0
143
25.399999999999999
144
1.0
145
0.0
146
1.0
147
25.0
 71
     0
 72
     0
 73
     0
 74
     0
 75
     0
 76
     0
 77
     1
 78
     8
170
     0
171
     2
172
     1
173
     0
174
     1
175
     0
176
     7
177
     7
178
     7
  0
ENDTAB
  0
TABLE
  2
VIEW
 70
     1
  0
VIEW
  2
ALL
 70
     0
 40
4282.6198079999986
 10
0.0
 20
41.309904000000003
 41
5940.0
 11
0.0
 21
0.0
 31
1.0
 12
0.0
 22
0.0
 32
0.0
 42
50.0
 43
0.0
 44
0.0
 50
0.0
 71
     0
  0
ENDTAB
  0
TABLE
  2
UCS
 70
     0
  0
ENDTAB
  0
TABLE
  2
VPORT
 70
     1
  0
VPORT
  2
*ACTIVE
 70
     0
 10
0.0
 20
0.0
 11
1.0
 21
1.0
 12
326.29395952249507
 22
-62.164296934107369
 13
0.0
 23
0.0
 14
1.0
 24
1.0
 15
0.0
 25
0.0
 16
0.0
 26
0.0
 36
1.0
 17
0.0
 27
0.0
 37
0.0
 40
937.88461005872091
 41
2.0172166427546632
 42
50.0
 43
0.0
 44
0.0
 50
0.0
 51
0.0
 71
     0
 72
  1000
 73
     1
 74
     3
 75
     0
 76
     0
 77
     0
 78
     0
  0
ENDTAB
  0
ENDSEC
  0
SECTION
  2
BLOCKS
  0
BLOCK
  8
0
  2
_ORIGIN
 70
     0
 10
0.0
 20
0.0
 30
0.0
  3
_ORIGIN
  1
_ORIGIN
  0
CIRCLE
  8
SIZE
  6
CONTINUOUS
 62
    30
 10
0.0
 20
0.0
 30
0.0
 40
0.5
  0
LINE
  8
SIZE
  6
CONTINUOUS
 62
    30
 10
0.0
 20
0.0
 30
0.0
 11
-1.0
 21
0.0
 31
0.0
  0
ENDBLK
  8
0
  0
ENDSEC
  0
SECTION
  2
ENTITIES
  0
TEXT
  8
ETC
  6
CONTINUOUS
 62
    61
 10
540.5666861448608
 20
470.98091722581472
 30
0.0
 40
64.0
  1
EF-40DSXC2_5
 41
0.9
  0
TEXT
  8
ETC
  6
CONTINUOUS
 62
    61
 10
536.38069214486131
 20
353.02560721098348
 30
0.0
 40
64.0
  1
有圧換気扇
 41
0.9
  0
TEXT
  8
ETC
  6
CONTINUOUS
 62
    61
 10
587.08209039341637
 20
244.87683432475819
 30
0.0
 40
40.0
  1
EF-40DSXC2
 50
0.0
 41
0.9
 51
0.0
  7
STANDARD
 71
     0
 11
0.0
 21
0.0
 31
0.0
210
0.0
220
0.0
230
1.0
  0
TEXT
  8
ETC
  6
CONTINUOUS
 62
    61
 10
587.08209039341637
 20
178.87683432475819
 30
0.0
 40
40.0
  1
EF-40DTXC2
 50
0.0
 41
0.9
 51
0.0
  7
STANDARD
 71
     0
 11
0.0
 21
0.0
 31
0.0
210
0.0
220
0.0
230
1.0
  0
TEXT
  8
ETC
  6
CONTINUOUS
 62
    61
 10
587.08209039341637
 20
112.87683432475819
 30
0.0
 40
40.0
  1
EF-40DSXC2-F
 50
0.0
 41
0.9
 51
0.0
  7
STANDARD
 71
     0
 11
0.0
 21
0.0
 31
0.0
210
0.0
220
0.0
230
1.0
  0
TEXT
  8
ETC
  6
CONTINUOUS
 62
    61
 10
587.08209039341637
 20
46.876834324758192
 30
0.0
 40
40.0
  1
EF-40DTXC2-F
 50
0.0
 41
0.9
 51
0.0
  7
STANDARD
 71
     0
 11
0.0
 21
0.0
 31
0.0
210
0.0
220
0.0
230
1.0
  0
LINE
  8
DETAIL
  6
CONTINUOUS
 62
     5
 10
5.0
 20
-260.0
 30
0.0
 11
0.0
 21
-260.0
 31
0.0
  0
LINE
  8
DETAIL
  6
CONTINUOUS
 62
     5
 10
10.0
 20
-214.1108008772226
 30
0.0
 11
12.99999999999636
 21
-214.1108008772226
 31
0.0
  0
LINE
  8
DETAIL
  6
CONTINUOUS
 62
     5
 10
16.799999999995631
 20
-204.3338653992225
 30
0.0
 11
13.200000000000729
 21
-204.3338653992225
 31
0.0
  0
LINE
  8
DETAIL
  6
CONTINUOUS
 62
     5
 10
16.999999999996358
 20
-199.3338653992225
 30
0.0
 11
12.99999999999636
 21
-199.3338653992225
 31
0.0
  0
LINE
  8
DETAIL
  6
CONTINUOUS
 62
     5
 10
16.0
 20
-197.89953209122271
 30
0.0
 11
133.49946229900161
 21
-197.89953209122271
 31
0.0
  0
LINE
  8
DETAIL
  6
CONTINUOUS
 62
     5
 10
16.0
 20
-195.9711692622225
 30
0.0
 11
133.49946229900161
 21
-195.9711692622225
 31
0.0
  0
LINE
  8
DETAIL
  6
CONTINUOUS
 62
     5
 10
16.799999999995631
 20
-180.46822435822239
 30
0.0
 11
13.200000000000729
 21
-180.46822435822239
 31
0.0
  0
LINE
  8
DETAIL
  6
CONTINUOUS
 62
     5
 10
16.999999999996358
 20
-176.82005818422249
 30
0.0
 11
133.49946229900161
 21
-176.82005818422249
 31
0.0
  0
LINE
  8
DETAIL
  6
CONTINUOUS
 62
     5
 10
16.999999999996358
 20
-175.46822435822239
 30
0.0
 11
12.99999999999636
 21
-175.46822435822239
 31
0.0
  0
LINE
  8
DETAIL
  6
CONTINUOUS
 62
     5
 10
16.799999999995631
 20
-170.46822435822239
 30
0.0
 11
13.200000000000729
 21
-170.46822435822239
 31
0.0
  0
LINE
  8
DETAIL
  6
CONTINUOUS
 62
     5
 10
10.0
 20
-160.6912888802226
 30
0.0
 11
12.99999999999636
 21
-160.6912888802226
 31
0.0
  0
LINE
  8
DETAIL
  6
CONTINUOUS
 62
     5
 10
224.59995660799899
 20
49.0
 30
0.0
 11
224.59995660799899
 21
-49.0
 31
0.0
  0
LINE
  8
DETAIL
  6
CONTINUOUS
 62
     5
 10
188.8867079539996
 20
74.86785931899999
 30
0.0
 11
191.77345929999859
 21
71.037637104000055
 31
0.0
  0
LINE
  8
DETAIL
  6
CONTINUOUS
 62
     5
 10
188.8867079539996
 20
63.292143648999968
 30
0.0
 11
191.77345929999859
 21
59.461921432999929
 31
0.0
  0
LINE
  8
DETAIL
  6
CONTINUOUS
 62
     5
 10
191.77345929999859
 20
-70.955137620000187
 30
0.0
 11
188.8867079539996
 21
-74.785359835999998
 31
0.0
  0
LINE
  8
DETAIL
  6
CONTINUOUS
 62
     5
 10
191.77345929999859
 20
-59.464470974000051
 30
0.0
 11
188.8867079539996
 21
-63.2946931890001
 31
0.0
  0
LINE
  8
DETAIL
  6
CONTINUOUS
 62
     5
 10
206.09995660799899
 20
-57.700000000000053
 30
0.0
 11
206.09995660799899
 21
-56.5
 31
0.0
  0
LINE
  8
DETAIL
  6
CONTINUOUS
 62
     5
 10
204.09995660799899
 20
-68.700000000000045
 30
0.0
 11
204.09995660799899
 21
-59.700000000000053
 31
0.0
  0
LINE
  8
DETAIL
  6
CONTINUOUS
 62
     5
 10
201.29574564900031
 20
-68.700000000000045
 30
0.0
 11
201.29574564900031
 21
-71.706321593999974
 31
0.0
  0
LINE
  8
DETAIL
  6
CONTINUOUS
 62
     5
 10
198.49995660799689
 20
-50.942087733000108
 30
0.0
 11
198.49995660799689
 21
-148.18876410822261
 31
0.0
  0
LINE
  8
DETAIL
  6
CONTINUOUS
 62
     5
 10
198.49995660799689
 20
50.942087733999983
 30
0.0
 11
198.49995660799689
 21
148.10626462622261
 31
0.0
  0
LINE
  8
DETAIL
  6
CONTINUOUS
 62
     5
 10
173.49995660799689
 20
-79.682006072000149
 30
0.0
 11
172.9999566080005
 21
-79.682006072000149
 31
0.0
  0
LINE
  8
DETAIL
  6
CONTINUOUS
 62
     5
 10
173.49995660799689
 20
-77.75364324300017
 30
0.0
 11
172.9999566080005
 21
-77.75364324300017
 31
0.0
  0
LINE
  8
DETAIL
  6
CONTINUOUS
 62
     5
 10
188.8867079539996
 20
-74.785359835999998
 30
0.0
 11
183.11320526199779
 21
-74.785359835999998
 31
0.0
  0
LINE
  8
DETAIL
  6
CONTINUOUS
 62
     5
 10
166.99995660799689
 20
-70.5
 30
0.0
 11
162.9999566080005
 21
-70.5
 31
0.0
  0
LINE
  8
DETAIL
  6
CONTINUOUS
 62
     5
 10
162.9999566080005
 20
-69.050000000000182
 30
0.0
 11
159.7999566079998
 21
-69.050000000000182
 31
0.0
  0
LINE
  8
DETAIL
  6
CONTINUOUS
 62
     5
 10
198.49995660799689
 20
-68.700000000000045
 30
0.0
 11
204.09982251499969
 21
-68.700000000000045
 31
0.0
  0
LINE
  8
DETAIL
  6
CONTINUOUS
 62
     5
 10
162.9999566080005
 20
-67.022437298000114
 30
0.0
 11
159.7999566079998
 21
-67.022437298000114
 31
0.0
  0
LINE
  8
DETAIL
  6
CONTINUOUS
 62
     5
 10
159.7999566079998
 20
-66.5
 30
0.0
 11
156.99995660799689
 21
-66.5
 31
0.0
  0
LINE
  8
DETAIL
  6
CONTINUOUS
 62
     5
 10
191.77345929999859
 20
71.037637104000055
 30
0.0
 11
191.77345929999859
 21
68.110756422999998
 31
0.0
  0
LINE
  8
DETAIL
  6
CONTINUOUS
 62
     5
 10
191.77345929999859
 20
59.461921432999929
 30
0.0
 11
191.77345929999859
 21
56.535040752999983
 31
0.0
  0
LINE
  8
DETAIL
  6
CONTINUOUS
 62
     5
 10
191.77345929999859
 20
-70.955137620000187
 30
0.0
 11
191.77345929999859
 21
-68.028256940000119
 31
0.0
  0
LINE
  8
DETAIL
  6
CONTINUOUS
 62
     5
 10
191.77345929999859
 20
-59.464470974000051
 30
0.0
 11
191.77345929999859
 21
-56.537590292999987
 31
0.0
  0
LINE
  8
DETAIL
  6
CONTINUOUS
 62
     5
 10
180.22645391599869
 20
71.037637104000055
 30
0.0
 11
180.22645391599869
 21
68.110756422999998
 31
0.0
  0
LINE
  8
DETAIL
  6
CONTINUOUS
 62
     5
 10
180.22645391699919
 20
59.461921432999929
 30
0.0
 11
180.22645391699919
 21
56.535040752999983
 31
0.0
  0
LINE
  8
DETAIL
  6
CONTINUOUS
 62
     5
 10
180.22645391599869
 20
-70.955137620000187
 30
0.0
 11
180.22645391599869
 21
-68.028256940000119
 31
0.0
  0
LINE
  8
DETAIL
  6
CONTINUOUS
 62
     5
 10
180.22645391599869
 20
-59.464470974000051
 30
0.0
 11
180.22645391599869
 21
-56.537590292999987
 31
0.0
  0
LINE
  8
DETAIL
  6
CONTINUOUS
 62
     5
 10
159.7999566079998
 20
-63.5
 30
0.0
 11
156.99995660799689
 21
-63.5
 31
0.0
  0
LINE
  8
DETAIL
  6
CONTINUOUS
 62
     5
 10
188.8867079539996
 20
-63.2946931890001
 30
0.0
 11
183.11320526199779
 21
-63.2946931890001
 31
0.0
  0
LINE
  8
DETAIL
  6
CONTINUOUS
 62
     5
 10
162.9999566080005
 20
-62.977562700999897
 30
0.0
 11
159.7999566079998
 21
-62.977562700999897
 31
0.0
  0
LINE
  8
DETAIL
  6
CONTINUOUS
 62
     5
 10
162.9999566080005
 20
-60.950000000000053
 30
0.0
 11
159.7999566079998
 21
-60.950000000000053
 31
0.0
  0
LINE
  8
DETAIL
  6
CONTINUOUS
 62
     5
 10
198.49995660799689
 20
-58.700000000000053
 30
0.0
 11
205.09995660799899
 21
-58.700000000000053
 31
0.0
  0
LINE
  8
DETAIL
  6
CONTINUOUS
 62
     5
 10
217.09995660799899
 20
-56.5
 30
0.0
 11
198.49995660799689
 21
-56.5
 31
0.0
  0
LINE
  8
DETAIL
  6
CONTINUOUS
 62
     5
 10
173.9999566080005
 20
-49.081681360999937
 30
0.0
 11
173.9999566080005
 21
-39.481681361000028
 31
0.0
  0
LINE
  8
DETAIL
  6
CONTINUOUS
 62
     5
 10
173.9999566080005
 20
39.481681362000018
 30
0.0
 11
173.9999566080005
 21
49.081681361999927
 31
0.0
  0
LINE
  8
DETAIL
  6
CONTINUOUS
 62
     5
 10
173.49995660799689
 20
-51.718977517999967
 30
0.0
 11
173.49995660799689
 21
-146.17790179622261
 31
0.0
  0
LINE
  8
DETAIL
  6
CONTINUOUS
 62
     5
 10
173.49995660799689
 20
51.801477001999963
 30
0.0
 11
173.49995660799689
 21
146.1779017972226
 31
0.0
  0
LINE
  8
DETAIL
  6
CONTINUOUS
 62
     5
 10
169.9999566080005
 20
-75.82528041400019
 30
0.0
 11
169.9999566080005
 21
75.825280413999963
 31
0.0
  0
LINE
  8
DETAIL
  6
CONTINUOUS
 62
     5
 10
166.99995660799689
 20
-75.82528041400019
 30
0.0
 11
166.99995660799689
 21
75.825280413999963
 31
0.0
  0
LINE
  8
DETAIL
  6
CONTINUOUS
 62
     5
 10
162.9999566080005
 20
-70.499877848000096
 30
0.0
 11
162.9999566080005
 21
70.499877847999983
 31
0.0
  0
LINE
  8
DETAIL
  6
CONTINUOUS
 62
     5
 10
195.4999566080005
 20
-49.420844189000043
 30
0.0
 11
176.4999566080005
 21
-49.420844189000043
 31
0.0
  0
LINE
  8
DETAIL
  6
CONTINUOUS
 62
     5
 10
173.7999566079998
 20
-49.281681360999983
 30
0.0
 11
170.19995660799759
 21
-49.281681360999983
 31
0.0
  0
LINE
  8
DETAIL
  6
CONTINUOUS
 62
     5
 10
162.9999566080005
 20
-49.281681360999983
 30
0.0
 11
157.9999566080005
 21
-49.281681360999983
 31
0.0
  0
LINE
  8
DETAIL
  6
CONTINUOUS
 62
     5
 10
173.9999566080005
 20
-48.643954403999942
 30
0.0
 11
195.4999566080005
 21
-48.643954403999942
 31
0.0
  0
LINE
  8
DETAIL
  6
CONTINUOUS
 62
     5
 10
157.9999566080005
 20
-47.281681360999983
 30
0.0
 11
155.99995660799689
 21
-47.281681360999983
 31
0.0
  0
LINE
  8
DETAIL
  6
CONTINUOUS
 62
     5
 10
173.9999566080005
 20
-44.281681360999983
 30
0.0
 11
169.9999566080005
 21
-44.281681360999983
 31
0.0
  0
LINE
  8
DETAIL
  6
CONTINUOUS
 62
     5
 10
162.9999566080005
 20
-44.281681360999983
 30
0.0
 11
157.9999566080005
 21
-44.281681360999983
 31
0.0
  0
LINE
  8
DETAIL
  6
CONTINUOUS
 62
     5
 10
157.9999566080005
 20
-41.281681360999983
 30
0.0
 11
155.99995660799689
 21
-41.281681360999983
 31
0.0
  0
LINE
  8
DETAIL
  6
CONTINUOUS
 62
     5
 10
173.7999566079998
 20
-39.28168136100021
 30
0.0
 11
170.19995660799759
 21
-39.28168136100021
 31
0.0
  0
LINE
  8
DETAIL
  6
CONTINUOUS
 62
     5
 10
162.9999566080005
 20
-39.28168136100021
 30
0.0
 11
157.9999566080005
 21
-39.28168136100021
 31
0.0
  0
LINE
  8
DETAIL
  6
CONTINUOUS
 62
     5
 10
159.7999566079998
 20
69.049999999999955
 30
0.0
 11
159.7999566079998
 21
60.950000000000053
 31
0.0
  0
LINE
  8
DETAIL
  6
CONTINUOUS
 62
     5
 10
159.7999566079998
 20
-60.950000000000053
 30
0.0
 11
159.7999566079998
 21
-69.050000000000182
 31
0.0
  0
LINE
  8
DETAIL
  6
CONTINUOUS
 62
     5
 10
157.9999566080005
 20
49.281681361999972
 30
0.0
 11
157.9999566080005
 21
39.281681361999972
 31
0.0
  0
LINE
  8
DETAIL
  6
CONTINUOUS
 62
     5
 10
157.9999566080005
 20
-39.28168136100021
 30
0.0
 11
157.9999566080005
 21
-49.281681360999983
 31
0.0
  0
LINE
  8
DETAIL
  6
CONTINUOUS
 62
     5
 10
156.99995660799689
 20
66.494698137
 30
0.0
 11
156.99995660799689
 21
63.505301863999883
 31
0.0
  0
LINE
  8
DETAIL
  6
CONTINUOUS
 62
     5
 10
156.99995660799689
 20
-63.505301863000113
 30
0.0
 11
156.99995660799689
 21
-66.494698135999897
 31
0.0
  0
LINE
  8
DETAIL
  6
CONTINUOUS
 62
     5
 10
155.99995660799689
 20
47.281681361999972
 30
0.0
 11
155.99995660799689
 21
41.281681361999972
 31
0.0
  0
LINE
  8
DETAIL
  6
CONTINUOUS
 62
     5
 10
155.99995660799689
 20
-41.281681360999983
 30
0.0
 11
155.99995660799689
 21
-47.281681360999983
 31
0.0
  0
LINE
  8
DETAIL
  6
CONTINUOUS
 62
     5
 10
183.11320526199779
 20
-63.2946931890001
 30
0.0
 11
180.22645391599869
 21
-59.464470974000051
 31
0.0
  0
LINE
  8
DETAIL
  6
CONTINUOUS
 62
     5
 10
183.11320526199779
 20
-74.785359835999998
 30
0.0
 11
180.22645391599869
 21
-70.955137620000187
 31
0.0
  0
LINE
  8
BASIS
  6
DASHDOT
 62
     6
 10
255.68036032199959
 20
0.0
 30
0.0
 11
-50.0
 21
0.0
 31
0.0
  0
LINE
  8
DETAIL
  6
CONTINUOUS
 62
     5
 10
180.22645391699919
 20
59.461921432999929
 30
0.0
 11
183.11320526199779
 21
63.292143648999968
 31
0.0
  0
LINE
  8
DETAIL
  6
CONTINUOUS
 62
     5
 10
180.22645391599869
 20
71.037637104000055
 30
0.0
 11
183.11320526199779
 21
74.86785931899999
 31
0.0
  0
LINE
  8
DETAIL
  6
CONTINUOUS
 62
     5
 10
97.083096350816049
 20
45.699999999999591
 30
0.0
 11
97.083096350816959
 21
12.65939893051655
 31
0.0
  0
LINE
  8
DETAIL
  6
CONTINUOUS
 62
     5
 10
97.083096350816049
 20
45.699999999999591
 30
0.0
 11
97.083096350816049
 21
-45.700000000000273
 31
0.0
  0
LINE
  8
DETAIL
  6
CONTINUOUS
 62
     5
 10
70.0
 20
176.8200581842226
 30
0.0
 11
70.0
 21
-176.82005818422249
 31
0.0
  0
LINE
  8
DETAIL
  6
CONTINUOUS
 62
     5
 10
68.80000000000291
 20
176.8200581842226
 30
0.0
 11
68.80000000000291
 21
-176.82005818422249
 31
0.0
  0
LINE
  8
DETAIL
  6
CONTINUOUS
 62
     5
 10
173.7999566079998
 20
39.281681361999972
 30
0.0
 11
170.19995660799759
 21
39.281681361999972
 31
0.0
  0
LINE
  8
DETAIL
  6
CONTINUOUS
 62
     5
 10
162.9999566080005
 20
39.281681361999972
 30
0.0
 11
157.9999566080005
 21
39.281681361999972
 31
0.0
  0
LINE
  8
DETAIL
  6
CONTINUOUS
 62
     5
 10
157.9999566080005
 20
41.281681361999972
 30
0.0
 11
155.99995660799689
 21
41.281681361999972
 31
0.0
  0
LINE
  8
DETAIL
  6
CONTINUOUS
 62
     5
 10
173.9999566080005
 20
44.281681361999972
 30
0.0
 11
169.9999566080005
 21
44.281681361999972
 31
0.0
  0
LINE
  8
DETAIL
  6
CONTINUOUS
 62
     5
 10
162.9999566080005
 20
44.281681361999972
 30
0.0
 11
157.9999566080005
 21
44.281681361999972
 31
0.0
  0
LINE
  8
DETAIL
  6
CONTINUOUS
 62
     5
 10
10.799999999999271
 20
38.425398163999937
 30
0.0
 11
10.0
 21
38.425398163999937
 31
0.0
  0
LINE
  8
DETAIL
  6
CONTINUOUS
 62
     5
 10
157.9999566080005
 20
47.281681361999972
 30
0.0
 11
155.99995660799689
 21
47.281681361999972
 31
0.0
  0
LINE
  8
DETAIL
  6
CONTINUOUS
 62
     5
 10
173.9999566080005
 20
48.643954405000038
 30
0.0
 11
195.4999566080005
 21
48.643954405000038
 31
0.0
  0
LINE
  8
DETAIL
  6
CONTINUOUS
 62
     5
 10
173.7999566079998
 20
49.281681361999972
 30
0.0
 11
170.19995660799759
 21
49.281681361999972
 31
0.0
  0
LINE
  8
DETAIL
  6
CONTINUOUS
 62
     5
 10
162.9999566080005
 20
49.281681361999972
 30
0.0
 11
157.9999566080005
 21
49.281681361999972
 31
0.0
  0
LINE
  8
DETAIL
  6
CONTINUOUS
 62
     5
 10
195.4999566080005
 20
49.503343673000018
 30
0.0
 11
176.4999566080005
 21
49.503343673000018
 31
0.0
  0
LINE
  8
DETAIL
  6
CONTINUOUS
 62
     5
 10
217.09995660799899
 20
56.5
 30
0.0
 11
198.49995660799689
 21
56.5
 31
0.0
  0
LINE
  8
DETAIL
  6
CONTINUOUS
 62
     5
 10
158.49995660799689
 20
56.200000000000053
 30
0.0
 11
107.5830963508197
 21
56.199999999999818
 31
0.0
  0
LINE
  8
DETAIL
  6
CONTINUOUS
 62
     5
 10
162.9999566080005
 20
60.950000000000053
 30
0.0
 11
159.7999566079998
 21
60.950000000000053
 31
0.0
  0
LINE
  8
DETAIL
  6
CONTINUOUS
 62
     5
 10
162.9999566080005
 20
62.977562702
 30
0.0
 11
159.7999566079998
 21
62.977562702
 31
0.0
  0
LINE
  8
DETAIL
  6
CONTINUOUS
 62
     5
 10
183.11320526199779
 20
63.292143648999968
 30
0.0
 11
188.8867079539996
 21
63.292143648999968
 31
0.0
  0
LINE
  8
DETAIL
  6
CONTINUOUS
 62
     5
 10
159.7999566079998
 20
63.5
 30
0.0
 11
156.99995660799689
 21
63.5
 31
0.0
  0
LINE
  8
DETAIL
  6
CONTINUOUS
 62
     5
 10
159.7999566079998
 20
66.5
 30
0.0
 11
156.99995660799689
 21
66.5
 31
0.0
  0
LINE
  8
DETAIL
  6
CONTINUOUS
 62
     5
 10
162.9999566080005
 20
67.022437298999989
 30
0.0
 11
159.7999566079998
 21
67.022437298999989
 31
0.0
  0
LINE
  8
DETAIL
  6
CONTINUOUS
 62
     5
 10
162.9999566080005
 20
69.049999999999955
 30
0.0
 11
159.7999566079998
 21
69.049999999999955
 31
0.0
  0
LINE
  8
DETAIL
  6
CONTINUOUS
 62
     5
 10
16.999999999996358
 20
-204.13386539922249
 30
0.0
 11
16.999999999996358
 21
-197.89953209122271
 31
0.0
  0
LINE
  8
DETAIL
  6
CONTINUOUS
 62
     5
 10
16.999999999996358
 20
-180.2682243582226
 30
0.0
 11
16.999999999996358
 21
-170.66822435822269
 31
0.0
  0
LINE
  8
DETAIL
  6
CONTINUOUS
 62
     5
 10
16.999999999996358
 20
197.89953209122271
 30
0.0
 11
16.999999999996358
 21
204.05136591722271
 31
0.0
  0
LINE
  8
DETAIL
  6
CONTINUOUS
 62
     5
 10
12.99999999999636
 20
-214.1108008772226
 30
0.0
 11
12.99999999999636
 21
-197.37791163622251
 31
0.0
  0
LINE
  8
DETAIL
  6
CONTINUOUS
 62
     5
 10
12.99999999999636
 20
-194.04280643322249
 30
0.0
 11
12.99999999999636
 21
-160.6912888802226
 31
0.0
  0
LINE
  8
DETAIL
  6
CONTINUOUS
 62
     5
 10
12.99999999999636
 20
199.82789492022269
 30
0.0
 11
12.99999999999636
 21
214.0283013952228
 31
0.0
  0
LINE
  8
DETAIL
  6
CONTINUOUS
 62
     5
 10
10.0
 20
-255.0
 30
0.0
 11
10.0
 21
255.0
 31
0.0
  0
LINE
  8
DETAIL
  6
CONTINUOUS
 62
     5
 10
166.99995660799689
 20
70.5
 30
0.0
 11
162.9999566080005
 21
70.5
 31
0.0
  0
LINE
  8
DETAIL
  6
CONTINUOUS
 62
     5
 10
183.11320526199779
 20
74.86785931899999
 30
0.0
 11
188.8867079539996
 21
74.86785931899999
 31
0.0
  0
LINE
  8
DETAIL
  6
CONTINUOUS
 62
     5
 10
173.49995660799689
 20
77.753643242999942
 30
0.0
 11
172.9999566080005
 21
77.753643242999942
 31
0.0
  0
LINE
  8
DETAIL
  6
CONTINUOUS
 62
     5
 10
173.49995660799689
 20
79.682006071999922
 30
0.0
 11
172.9999566080005
 21
79.682006071999922
 31
0.0
  0
LINE
  8
DETAIL
  6
CONTINUOUS
 62
     5
 10
0.0
 20
-260.0
 30
0.0
 11
0.0
 21
260.0
 31
0.0
  0
LINE
  8
DETAIL
  6
CONTINUOUS
 62
     5
 10
133.49946229900161
 20
176.8200581842226
 30
0.0
 11
16.0
 21
176.8200581842226
 31
0.0
  0
LINE
  8
DETAIL
  6
CONTINUOUS
 62
     5
 10
16.0
 20
195.9711692622227
 30
0.0
 11
133.49946229900161
 21
195.9711692622227
 31
0.0
  0
LINE
  8
DETAIL
  6
CONTINUOUS
 62
     5
 10
16.0
 20
197.89953209122271
 30
0.0
 11
133.49946229900161
 21
197.89953209122271
 31
0.0
  0
LINE
  8
DETAIL
  6
CONTINUOUS
 62
     5
 10
16.999999999996358
 20
199.25136591722281
 30
0.0
 11
13.36078133595038
 21
199.2515038600894
 31
0.0
  0
LINE
  8
DETAIL
  6
CONTINUOUS
 62
     5
 10
16.799999999995631
 20
204.25136591722281
 30
0.0
 11
13.200000000000729
 21
204.25136591722281
 31
0.0
  0
LINE
  8
DETAIL
  6
CONTINUOUS
 62
     5
 10
10.0
 20
214.0283013952228
 30
0.0
 11
12.99999999999636
 21
214.0283013952228
 31
0.0
  0
LINE
  8
DETAIL
  6
CONTINUOUS
 62
     5
 10
5.0
 20
260.0
 30
0.0
 11
0.0
 21
260.0
 31
0.0
  0
ARC
  8
DETAIL
  6
CONTINUOUS
 62
     5
 10
160.33997533500221
 20
-146.17713375022251
 30
0.0
 40
38.159981281
 50
357.10463971370262
 51
359.99884680710483
  0
ARC
  8
DETAIL
  6
CONTINUOUS
 62
     5
 10
217.09995660799899
 20
-49.0
 30
0.0
 40
7.5
 50
270.0
 51
0.0
  0
ARC
  8
DETAIL
  6
CONTINUOUS
 62
     5
 10
158.49995660799689
 20
-60.700000000000053
 30
0.0
 40
4.5
 50
0.0
 51
90.0
  0
ARC
  8
DETAIL
  6
CONTINUOUS
 62
     5
 10
205.09995660799899
 20
-57.700000000000053
 30
0.0
 40
1.0
 50
270.0
 51
0.0
  0
ARC
  8
DETAIL
  6
CONTINUOUS
 62
     5
 10
205.09995660799899
 20
-59.700000000000053
 30
0.0
 40
1.0
 50
90.0
 51
180.0
  0
ARC
  8
DETAIL
  6
CONTINUOUS
 62
     5
 10
173.7999566079998
 20
-39.481681361000028
 30
0.0
 40
0.2
 50
0.0
 51
89.999999999895778
  0
ARC
  8
DETAIL
  6
CONTINUOUS
 62
     5
 10
173.7999566079998
 20
-49.081681360999937
 30
0.0
 40
0.2
 50
270.00000000010431
 51
0.0
  0
ARC
  8
DETAIL
  6
CONTINUOUS
 62
     5
 10
170.19995660799759
 20
-49.081681360999937
 30
0.0
 40
0.2
 50
180.00000000010431
 51
270.00000000010431
  0
ARC
  8
DETAIL
  6
CONTINUOUS
 62
     5
 10
170.19995660799759
 20
-39.481681361000028
 30
0.0
 40
0.2
 50
89.999999999895778
 51
180.0
  0
ARC
  8
DETAIL
  6
CONTINUOUS
 62
     5
 10
5.0
 20
-255.0
 30
0.0
 40
5.0
 50
270.0
 51
0.0
  0
ARC
  8
DETAIL
  6
CONTINUOUS
 62
     5
 10
16.799999999995631
 20
-204.13386539922249
 30
0.0
 40
0.2
 50
270.00000000010431
 51
0.0
  0
ARC
  8
DETAIL
  6
CONTINUOUS
 62
     5
 10
13.200000000000729
 20
-204.13386539922249
 30
0.0
 40
0.2
 50
180.00000000010431
 51
270.00000000010431
  0
ARC
  8
DETAIL
  6
CONTINUOUS
 62
     5
 10
16.799999999995631
 20
-170.66822435822269
 30
0.0
 40
0.2
 50
0.0
 51
89.999999999895778
  0
ARC
  8
DETAIL
  6
CONTINUOUS
 62
     5
 10
16.799999999995631
 20
-180.2682243582226
 30
0.0
 40
0.2
 50
270.00000000010431
 51
0.0
  0
ARC
  8
DETAIL
  6
CONTINUOUS
 62
     5
 10
13.200000000000729
 20
-170.66822435822269
 30
0.0
 40
0.2
 50
89.999999999895778
 51
180.0
  0
ARC
  8
DETAIL
  6
CONTINUOUS
 62
     5
 10
13.200000000000729
 20
-180.2682243582226
 30
0.0
 40
0.2
 50
180.00000000010431
 51
270.00000000010431
  0
ARC
  8
DETAIL
  6
CONTINUOUS
 62
     5
 10
160.33997533500221
 20
146.17713375022279
 30
0.0
 40
38.159981281
 50
0.0011531929082553
 51
2.895360286297421
  0
ARC
  8
DETAIL
  6
CONTINUOUS
 62
     5
 10
107.5830963508197
 20
45.699999999999591
 30
0.0
 40
10.5
 50
90.0
 51
180.0
  0
ARC
  8
DETAIL
  6
CONTINUOUS
 62
     5
 10
217.09995660799899
 20
49.0
 30
0.0
 40
7.5
 50
0.0
 51
90.0
  0
ARC
  8
DETAIL
  6
CONTINUOUS
 62
     5
 10
5.0
 20
255.0
 30
0.0
 40
5.0
 50
0.0
 51
90.0
  0
ARC
  8
DETAIL
  6
CONTINUOUS
 62
     5
 10
158.49995660799689
 20
60.700000000000053
 30
0.0
 40
4.5
 50
270.0
 51
0.0
  0
ARC
  8
DETAIL
  6
CONTINUOUS
 62
     5
 10
13.200000000000729
 20
204.05136591722271
 30
0.0
 40
0.2
 50
89.999999999895778
 51
180.0
  0
ARC
  8
DETAIL
  6
CONTINUOUS
 62
     5
 10
173.7999566079998
 20
49.081681361999927
 30
0.0
 40
0.2
 50
0.0
 51
89.999999999895778
  0
ARC
  8
DETAIL
  6
CONTINUOUS
 62
     5
 10
173.7999566079998
 20
39.481681362000018
 30
0.0
 40
0.2
 50
270.00000000010431
 51
0.0
  0
ARC
  8
DETAIL
  6
CONTINUOUS
 62
     5
 10
170.19995660799759
 20
39.481681362000018
 30
0.0
 40
0.2
 50
180.00000000010431
 51
270.00000000010431
  0
ARC
  8
DETAIL
  6
CONTINUOUS
 62
     5
 10
170.19995660799759
 20
49.081681361999927
 30
0.0
 40
0.2
 50
89.999999999895778
 51
180.0
  0
ARC
  8
DETAIL
  6
CONTINUOUS
 62
     5
 10
16.799999999995631
 20
204.05136591722271
 30
0.0
 40
0.2
 50
0.0
 51
89.999999999895778
  0
LINE
  8
SIZE
  6
CONTINUOUS
 62
    30
 10
0.0000000000000012
 20
280.0
 30
0.0
 11
0.0000000000000064
 21
364.26461857284079
 31
0.0
  0
LINE
  8
SIZE
  6
CONTINUOUS
 62
    30
 10
10.0
 20
275.0
 30
0.0
 11
10.000000000000011
 21
364.26461857284079
 31
0.0
  0
LINE
  8
SIZE
  6
CONTINUOUS
 62
    30
 10
22.000000000000011
 20
344.26461857284079
 30
0.0
 11
34.000000000000007
 21
344.26461857284079
 31
0.0
  0
LINE
  8
SIZE
  6
CONTINUOUS
 62
    30
 10
-11.999999999999989
 20
344.26461857284079
 30
0.0
 11
-156.28571428571431
 21
344.26461857284079
 31
0.0
  0
LINE
  8
SIZE
  6
CONTINUOUS
 62
    30
 10
10.000000000000011
 20
344.26461857284079
 30
0.0
 11
0.0000000000000052
 21
344.26461857284079
 31
0.0
  0
CIRCLE
  8
SIZE
  6
CONTINUOUS
 62
    30
 10
10.000000000000011
 20
344.26461857284079
 30
0.0
 40
6.0
  0
LINE
  8
SIZE
  6
CONTINUOUS
 62
    30
 10
10.000000000000011
 20
344.26461857284079
 30
0.0
 11
22.000000000000011
 21
344.26461857284079
 31
0.0
  0
CIRCLE
  8
SIZE
  6
CONTINUOUS
 62
    30
 10
0.0000000000000052
 20
344.26461857284079
 30
0.0
 40
6.0
  0
LINE
  8
SIZE
  6
CONTINUOUS
 62
    30
 10
0.0000000000000052
 20
344.26461857284079
 30
0.0
 11
-11.999999999999995
 21
344.26461857284079
 31
0.0
  0
TEXT
  8
SIZE
  6
CONTINUOUS
 62
    30
 10
-138.52685714285712
 20
369.26461857284079
 30
0.0
 40
64.0
  1
10
 50
0.0
 41
0.9
 51
0.0
  7
STANDARD
 71
     0
 72
     1
 11
-90.142857142857125
 21
369.26461857284079
 31
0.0
210
0.0
220
0.0
230
1.0
  0
POINT
  8
DEFPOINTS
  6
CONTINUOUS
 62
    30
 10
0.0
 20
260.0
 30
0.0
  0
POINT
  8
DEFPOINTS
  6
CONTINUOUS
 62
    30
 10
10.0
 20
255.0
 30
0.0
  0
POINT
  8
DEFPOINTS
  6
CONTINUOUS
 62
    30
 10
10.000000000000011
 20
344.26461857284079
 30
0.0
  0
LINE
  8
SIZE
  6
CONTINUOUS
 62
    30
 10
224.59995660799899
 20
-69.0
 30
0.0
 11
224.59995660799899
 21
-659.36054067346504
 31
0.0
  0
LINE
  8
SIZE
  6
CONTINUOUS
 62
    30
 10
-0.0000000000000012
 20
-280.0
 30
0.0
 11
-0.0000000000000245
 21
-659.36054067346504
 31
0.0
  0
LINE
  8
SIZE
  6
CONTINUOUS
 62
    30
 10
212.59995660799899
 20
-639.36054067346504
 30
0.0
 11
11.99999999999998
 21
-639.36054067346504
 31
0.0
  0
CIRCLE
  8
SIZE
  6
CONTINUOUS
 62
    30
 10
224.59995660799899
 20
-639.36054067346504
 30
0.0
 40
6.0
  0
LINE
  8
SIZE
  6
CONTINUOUS
 62
    30
 10
224.59995660799899
 20
-639.36054067346504
 30
0.0
 11
212.59995660799899
 21
-639.36054067346504
 31
0.0
  0
CIRCLE
  8
SIZE
  6
CONTINUOUS
 62
    30
 10
-0.0000000000000232
 20
-639.36054067346504
 30
0.0
 40
6.0
  0
LINE
  8
SIZE
  6
CONTINUOUS
 62
    30
 10
-0.0000000000000232
 20
-639.36054067346504
 30
0.0
 11
11.999999999999977
 21
-639.36054067346504
 31
0.0
  0
TEXT
  8
SIZE
  6
CONTINUOUS
 62
    30
 10
31.947978303999491
 20
-614.36054067346504
 30
0.0
 40
64.0
  1
225
 50
0.0
 41
0.9
 51
0.0
  7
STANDARD
 71
     0
 72
     1
 11
112.2999783039995
 21
-614.36054067346504
 31
0.0
210
0.0
220
0.0
230
1.0
  0
POINT
  8
DEFPOINTS
  6
CONTINUOUS
 62
    30
 10
224.59995660799899
 20
-49.0
 30
0.0
  0
POINT
  8
DEFPOINTS
  6
CONTINUOUS
 62
    30
 10
0.0
 20
-260.0
 30
0.0
  0
POINT
  8
DEFPOINTS
  6
CONTINUOUS
 62
    30
 10
-0.0000000000000232
 20
-639.36054067346504
 30
0.0
  0
ARC
  8
DETAIL
  6
CONTINUOUS
 62
     5
 10
152.5161792627068
 20
-146.16844092743531
 30
0.0
 40
46.028137966857138
 50
301.23312697691358
 51
357.48429551092067
  0
ARC
  8
DETAIL
  6
CONTINUOUS
 62
     5
 10
134.34147085055881
 20
-120.322802755165
 30
0.0
 40
77.581298731593932
 50
269.37814287361812
 51
302.8130568605103
  0
LINE
  8
SIZE
  6
CONTINUOUS
 62
    30
 10
70.000000000200089
 20
-258.00000000350019
 30
0.0
 11
70.000000000200075
 21
-513.54479910150985
 31
0.0
  0
LINE
  8
SIZE
  6
CONTINUOUS
 62
    30
 10
-0.0000000000000012
 20
-280.0
 30
0.0
 11
-0.0000000000000155
 21
-513.54479910150985
 31
0.0
  0
LINE
  8
SIZE
  6
CONTINUOUS
 62
    30
 10
82.000000000200075
 20
-493.54479910150991
 30
0.0
 11
94.000000000200075
 21
-493.54479910150991
 31
0.0
  0
LINE
  8
SIZE
  6
CONTINUOUS
 62
    30
 10
-12.000000000000011
 20
-493.54479910150991
 30
0.0
 11
-167.2571428571429
 21
-493.54479910150991
 31
0.0
  0
LINE
  8
SIZE
  6
CONTINUOUS
 62
    30
 10
70.000000000200075
 20
-493.54479910150991
 30
0.0
 11
-0.0000000000000143
 21
-493.54479910150991
 31
0.0
  0
CIRCLE
  8
SIZE
  6
CONTINUOUS
 62
    30
 10
70.000000000200075
 20
-493.54479910150991
 30
0.0
 40
6.0
  0
LINE
  8
SIZE
  6
CONTINUOUS
 62
    30
 10
70.000000000200075
 20
-493.54479910150991
 30
0.0
 11
82.000000000200075
 21
-493.54479910150991
 31
0.0
  0
CIRCLE
  8
SIZE
  6
CONTINUOUS
 62
    30
 10
-0.0000000000000143
 20
-493.54479910150991
 30
0.0
 40
6.0
  0
LINE
  8
SIZE
  6
CONTINUOUS
 62
    30
 10
-0.0000000000000143
 20
-493.54479910150991
 30
0.0
 11
-12.000000000000014
 21
-493.54479910150991
 31
0.0
  0
TEXT
  8
SIZE
  6
CONTINUOUS
 62
    30
 10
-149.77257142857144
 20
-468.54479910150991
 30
0.0
 40
64.0
  1
70
 50
0.0
 41
0.9
 51
0.0
  7
STANDARD
 71
     0
 72
     1
 11
-95.628571428571433
 21
-468.54479910150991
 31
0.0
210
0.0
220
0.0
230
1.0
  0
POINT
  8
DEFPOINTS
  6
CONTINUOUS
 62
    30
 10
70.000000000200089
 20
-238.00000000350019
 30
0.0
  0
POINT
  8
DEFPOINTS
  6
CONTINUOUS
 62
    30
 10
0.0
 20
-260.0
 30
0.0
  0
POINT
  8
DEFPOINTS
  6
CONTINUOUS
 62
    30
 10
-0.0000000000000143
 20
-493.54479910150991
 30
0.0
  0
ARC
  8
DETAIL
  6
CONTINUOUS
 62
     5
 10
151.63583153389749
 20
-143.5799417929766
 30
0.0
 40
47.090205585602753
 50
300.56076995287799
 51
354.38334422906792
  0
ARC
  8
DETAIL
  6
CONTINUOUS
 62
     5
 10
134.28929107546989
 20
-118.0956498457483
 30
0.0
 40
77.879524612582131
 50
269.41891490161288
 51
302.01716722429592
  0
ARC
  8
DETAIL
  6
CONTINUOUS
 62
     5
 10
152.2133966748288
 20
145.99383994940851
 30
0.0
 40
46.334738247475073
 50
2.6130499518047881
 51
58.558679636789563
  0
ARC
  8
DETAIL
  6
CONTINUOUS
 62
     5
 10
133.8089984217477
 20
118.4774768694936
 30
0.0
 40
79.422658405864723
 50
57.585499277205429
 51
90.223300991101524
  0
ARC
  8
DETAIL
  6
CONTINUOUS
 62
     5
 10
151.7759830405821
 20
143.85561165136849
 30
0.0
 40
46.78157267749738
 50
2.84349636991421
 51
59.415369733978338
  0
ARC
  8
DETAIL
  6
CONTINUOUS
 62
     5
 10
133.7404279405109
 20
116.1453645963489
 30
0.0
 40
79.826168359721649
 50
58.390962872913008
 51
90.172955003601274
  0
ARC
  8
DETAIL
  6
CONTINUOUS
 62
     5
 10
172.24687450810509
 20
74.258059528695867
 30
0.0
 40
5.4759774245160129
 50
82.095364043229182
 51
163.36945037433409
  0
ARC
  8
DETAIL
  6
CONTINUOUS
 62
     5
 10
172.6234155581933
 20
75.041669971131114
 30
0.0
 40
2.7379887124529589
 50
82.095364046806637
 51
163.36945037081031
  0
ARC
  8
DETAIL
  6
CONTINUOUS
 62
     5
 10
172.24687450810509
 20
-74.258059528695867
 30
0.0
 40
5.4759774245160129
 50
196.63054962566591
 51
277.90463595677079
  0
ARC
  8
DETAIL
  6
CONTINUOUS
 62
     5
 10
172.6234155581933
 20
-75.041669971131114
 30
0.0
 40
2.7379887124529589
 50
196.63054962918969
 51
277.90463595319329
  0
ARC
  8
DETAIL
  6
CONTINUOUS
 62
     5
 10
15.453654601190459
 20
-192.1539603361434
 30
0.0
 40
5.7714892434764504
 50
199.10327270360321
 51
275.43191287884531
  0
ARC
  8
DETAIL
  6
CONTINUOUS
 62
     5
 10
16.11538331351403
 20
-192.49389753728971
 30
0.0
 40
3.4791855308451418
 50
206.43568478611911
 51
268.09950079645353
  0
ARC
  8
DETAIL
  6
CONTINUOUS
 62
     5
 10
15.453654601190459
 20
201.7167410173
 30
0.0
 40
5.7714892434764504
 50
199.10327270360321
 51
275.43191287884531
  0
ARC
  8
DETAIL
  6
CONTINUOUS
 62
     5
 10
16.11538331351403
 20
201.37680381615371
 30
0.0
 40
3.4791855308451418
 50
206.43568478611911
 51
268.09950079645353
  0
ARC
  8
DETAIL
  6
CONTINUOUS
 62
     5
 10
134.04885089319399
 20
136.1076874419812
 30
0.0
 40
40.716077405382038
 50
14.31943623874368
 51
90.77312464779699
  0
ARC
  8
DETAIL
  6
CONTINUOUS
 62
     5
 10
134.04885089319399
 20
-136.19018692498091
 30
0.0
 40
40.716077405382038
 50
269.22687535220302
 51
345.68056376125628
  0
ARC
  8
DETAIL
  6
CONTINUOUS
 62
     5
 10
16.310221401718991
 20
183.89821131938069
 30
0.0
 40
7.0849480677583792
 50
207.04473981126591
 51
267.49044575760291
  0
ARC
  8
DETAIL
  6
CONTINUOUS
 62
     5
 10
195.5145354756678
 20
-51.732100642670503
 30
0.0
 40
3.0881806512569732
 50
14.82207455153134
 51
90.27048634268769
  0
ARC
  8
DETAIL
  6
CONTINUOUS
 62
     5
 10
195.3944588851291
 20
-52.665739284263282
 30
0.0
 40
3.2466096083136091
 50
16.954699942784181
 51
88.137860951568499
  0
ARC
  8
DETAIL
  6
CONTINUOUS
 62
     5
 10
195.5145354756678
 20
51.73210064267073
 30
0.0
 40
3.0881806512569732
 50
269.72951365731228
 51
345.17792544846873
  0
ARC
  8
DETAIL
  6
CONTINUOUS
 62
     5
 10
195.57512284136371
 20
52.540405948721173
 30
0.0
 40
3.0379923023658701
 50
268.58223884974939
 51
344.31280484943198
  0
ARC
  8
DETAIL
  6
CONTINUOUS
 62
     5
 10
176.21779296977729
 20
52.242182801628928
 30
0.0
 40
2.7533354483688122
 50
189.21052489860261
 51
275.88203599582403
  0
ARC
  8
DETAIL
  6
CONTINUOUS
 62
     5
 10
176.36328281903661
 20
-52.329182211763957
 30
0.0
 40
2.9115476604787638
 50
87.309434368533886
 51
169.5576789713339
  0
ARC
  8
DETAIL
  6
CONTINUOUS
 62
     5
 10
178.40896354015879
 20
-70.192335644838295
 30
0.0
 40
22.936803368208238
 50
331.15501977156708
 51
356.21533491453653
  0
LINE
  8
DETAIL
  6
CONTINUOUS
 62
     5
 10
191.77345929999859
 20
-68.028256940000119
 30
0.0
 11
188.8867079539996
 21
-64.198034724000081
 31
0.0
  0
LINE
  8
DETAIL
  6
CONTINUOUS
 62
     5
 10
188.8867079539996
 20
-64.198034724000081
 30
0.0
 11
183.11320526199779
 21
-64.198034724000081
 31
0.0
  0
LINE
  8
DETAIL
  6
CONTINUOUS
 62
     5
 10
183.11320526199779
 20
-64.198034724000081
 30
0.0
 11
180.22645391599869
 21
-68.028256940000119
 31
0.0
  0
LINE
  8
DETAIL
  6
CONTINUOUS
 62
     5
 10
191.77345929999859
 20
-56.537590292999987
 30
0.0
 11
188.8867079539996
 21
-52.707368077000183
 31
0.0
  0
LINE
  8
DETAIL
  6
CONTINUOUS
 62
     5
 10
188.8867079539996
 20
-52.707368077000183
 30
0.0
 11
183.11320526199779
 21
-52.707368077000183
 31
0.0
  0
LINE
  8
DETAIL
  6
CONTINUOUS
 62
     5
 10
183.11320526199779
 20
-52.707368077000183
 30
0.0
 11
180.22645391599869
 21
-56.537590292999987
 31
0.0
  0
LINE
  8
DETAIL
  6
CONTINUOUS
 62
     5
 10
191.77345929999859
 20
68.110756422999998
 30
0.0
 11
188.8867079539996
 21
64.280534207999949
 31
0.0
  0
LINE
  8
DETAIL
  6
CONTINUOUS
 62
     5
 10
188.8867079539996
 20
64.280534207999949
 30
0.0
 11
183.11320526199779
 21
64.280534207999949
 31
0.0
  0
LINE
  8
DETAIL
  6
CONTINUOUS
 62
     5
 10
183.11320526199779
 20
64.280534207999949
 30
0.0
 11
180.22645391599869
 21
68.110756422999998
 31
0.0
  0
LINE
  8
DETAIL
  6
CONTINUOUS
 62
     5
 10
191.77345929999859
 20
56.535040752999983
 30
0.0
 11
188.8867079539996
 21
52.704818537999927
 31
0.0
  0
LINE
  8
DETAIL
  6
CONTINUOUS
 62
     5
 10
188.8867079539996
 20
52.704818537999927
 30
0.0
 11
183.11320526199779
 21
52.704818537999927
 31
0.0
  0
LINE
  8
DETAIL
  6
CONTINUOUS
 62
     5
 10
183.11320526199779
 20
52.704818537999927
 30
0.0
 11
180.22645391599869
 21
56.535040752999983
 31
0.0
  0
LINE
  8
SIZE
  6
CONTINUOUS
 62
    30
 10
-20.0
 20
260.00000000000011
 30
0.0
 11
-230.51318477596871
 21
260.00000000000011
 31
0.0
  0
LINE
  8
SIZE
  6
CONTINUOUS
 62
    30
 10
-20.0
 20
-260.00000000000011
 30
0.0
 11
-230.5131847759686
 21
-260.00000000000023
 31
0.0
  0
LINE
  8
SIZE
  6
CONTINUOUS
 62
    30
 10
-210.51318477596871
 20
248.00000000000011
 30
0.0
 11
-210.5131847759686
 21
-248.0000000000002
 31
0.0
  0
CIRCLE
  8
SIZE
  6
CONTINUOUS
 62
    30
 10
-210.51318477596871
 20
260.00000000000011
 30
0.0
 40
6.0
  0
LINE
  8
SIZE
  6
CONTINUOUS
 62
    30
 10
-210.51318477596871
 20
260.00000000000011
 30
0.0
 11
-210.51318477596871
 21
248.00000000000011
 31
0.0
  0
CIRCLE
  8
SIZE
  6
CONTINUOUS
 62
    30
 10
-210.5131847759686
 20
-260.00000000000023
 30
0.0
 40
6.0
  0
LINE
  8
SIZE
  6
CONTINUOUS
 62
    30
 10
-210.5131847759686
 20
-260.00000000000023
 30
0.0
 11
-210.5131847759686
 21
-248.00000000000023
 31
0.0
  0
TEXT
  8
SIZE
  6
CONTINUOUS
 62
    30
 10
-235.51318477596863
 20
-80.927999999999983
 30
0.0
 40
64.0
  1
520
 50
90.0
 41
0.9
 51
0.0
  7
STANDARD
 71
     0
 72
     1
 11
-235.51318477596863
 21
0.0000000000000179
 31
0.0
210
0.0
220
0.0
230
1.0
  0
POINT
  8
DEFPOINTS
  6
CONTINUOUS
 62
    30
 10
0.0
 20
260.00000000000011
 30
0.0
  0
POINT
  8
DEFPOINTS
  6
CONTINUOUS
 62
    30
 10
0.0
 20
-260.00000000000011
 30
0.0
  0
POINT
  8
DEFPOINTS
  6
CONTINUOUS
 62
    30
 10
-210.5131847759686
 20
-260.00000000000023
 30
0.0
  0
LINE
  8
SIZE
  6
CONTINUOUS
 62
    30
 10
90.000000000200117
 20
-238.0000000035003
 30
0.0
 11
496.83495315013198
 21
-238.00000000350019
 31
0.0
  0
LINE
  8
SIZE
  6
CONTINUOUS
 62
    30
 10
90.000000000201936
 20
237.9999999966
 30
0.0
 11
496.83495315013192
 21
237.9999999966
 31
0.0
  0
LINE
  8
SIZE
  6
CONTINUOUS
 62
    30
 10
476.83495315013198
 20
-226.00000000350019
 30
0.0
 11
476.83495315013192
 21
225.9999999966
 31
0.0
  0
CIRCLE
  8
SIZE
  6
CONTINUOUS
 62
    30
 10
476.83495315013198
 20
-238.00000000350019
 30
0.0
 40
6.0
  0
LINE
  8
SIZE
  6
CONTINUOUS
 62
    30
 10
476.83495315013198
 20
-238.00000000350019
 30
0.0
 11
476.83495315013198
 21
-226.00000000350019
 31
0.0
  0
CIRCLE
  8
SIZE
  6
CONTINUOUS
 62
    30
 10
476.83495315013192
 20
237.9999999966
 30
0.0
 40
6.0
  0
LINE
  8
SIZE
  6
CONTINUOUS
 62
    30
 10
476.83495315013192
 20
237.9999999966
 30
0.0
 11
476.83495315013192
 21
225.9999999966
 31
0.0
  0
TEXT
  8
SIZE
  6
CONTINUOUS
 62
    30
 10
451.83495315013192
 20
-115.48800000345025
 30
0.0
 40
64.0
  1
φ476
 50
90.0
 41
0.9
 51
0.0
  7
STANDARD
 71
     0
 72
     1
 11
451.83495315013192
 21
-0.0000000034502492
 31
0.0
210
0.0
220
0.0
230
1.0
  0
POINT
  8
DEFPOINTS
  6
CONTINUOUS
 62
    30
 10
70.000000000200117
 20
-238.0000000035003
 30
0.0
  0
POINT
  8
DEFPOINTS
  6
CONTINUOUS
 62
    30
 10
70.000000000201936
 20
237.9999999966
 30
0.0
  0
POINT
  8
DEFPOINTS
  6
CONTINUOUS
 62
    30
 10
476.83495315013192
 20
237.9999999966
 30
0.0
  0
LINE
  8
BASIS
  6
DASHDOT
 62
     6
 10
-20.73928719599644
 20
-230.0
 30
0.0
 11
20.739287195003271
 21
-230.0
 31
0.0
  0
LINE
  8
BASIS
  6
DASHDOT
 62
     6
 10
0.0
 20
249.76906066999999
 30
0.0
 11
0.0
 21
210.23093933099989
 31
0.0
  0
LINE
  8
BASIS
  6
DASHDOT
 62
     6
 10
0.0
 20
-184.11519277022259
 30
0.0
 11
0.0
 21
-250.73928719500009
 31
0.0
  0
LINE
  8
BASIS
  6
DASHDOT
 62
     6
 10
-19.769060669998002
 20
230.0
 30
0.0
 11
19.769060669001188
 21
230.0
 31
0.0
  0
CIRCLE
  8
FIX
  6
CONTINUOUS
 62
    11
 10
0.0
 20
230.0
 30
0.0
 40
7.5
  0
CIRCLE
  8
FIX
  6
CONTINUOUS
 62
    11
 10
0.0
 20
-230.0
 30
0.0
 40
7.5
  0
LINE
  8
SIZE
  6
CONTINUOUS
 62
    30
 10
-39.769060669998012
 20
230.00000000000011
 30
0.0
 11
-111.2947337584439
 21
230.00000000000011
 31
0.0
  0
LINE
  8
SIZE
  6
CONTINUOUS
 62
    30
 10
-40.739287195996447
 20
-230.00000000000011
 30
0.0
 11
-111.2947337584438
 21
-230.00000000000011
 31
0.0
  0
LINE
  8
SIZE
  6
CONTINUOUS
 62
    30
 10
-91.294733758443854
 20
218.00000000000011
 30
0.0
 11
-91.294733758443769
 21
-218.00000000000011
 31
0.0
  0
CIRCLE
  8
SIZE
  6
CONTINUOUS
 62
    30
 10
-91.294733758443869
 20
230.00000000000011
 30
0.0
 40
6.0
  0
LINE
  8
SIZE
  6
CONTINUOUS
 62
    30
 10
-91.294733758443869
 20
230.00000000000011
 30
0.0
 11
-91.294733758443869
 21
218.00000000000011
 31
0.0
  0
CIRCLE
  8
SIZE
  6
CONTINUOUS
 62
    30
 10
-91.294733758443755
 20
-230.00000000000011
 30
0.0
 40
6.0
  0
LINE
  8
SIZE
  6
CONTINUOUS
 62
    30
 10
-91.294733758443755
 20
-230.00000000000011
 30
0.0
 11
-91.294733758443755
 21
-218.00000000000011
 31
0.0
  0
TEXT
  8
SIZE
  6
CONTINUOUS
 62
    30
 10
-116.29473375844381
 20
-81.503999999999976
 30
0.0
 40
64.0
  1
460
 50
90.0
 41
0.9
 51
0.0
  7
STANDARD
 71
     0
 72
     1
 11
-116.29473375844381
 21
0.0000000000000391
 31
0.0
210
0.0
220
0.0
230
1.0
  0
POINT
  8
DEFPOINTS
  6
CONTINUOUS
 62
    30
 10
-19.769060669998009
 20
230.00000000000011
 30
0.0
  0
POINT
  8
DEFPOINTS
  6
CONTINUOUS
 62
    30
 10
-20.73928719599645
 20
-230.00000000000011
 30
0.0
  0
POINT
  8
DEFPOINTS
  6
CONTINUOUS
 62
    30
 10
-91.294733758443755
 20
-230.00000000000011
 30
0.0
  0
POINT
  8
ARRANGE
  6
CONTINUOUS
 62
     1
 10
0.0
 20
0.0
 30
0.0
 50
180.0
  0
LINE
  8
SIZE
  6
CONTINUOUS
 62
    30
 10
237.09995660799919
 20
56.500000000000028
 30
0.0
 11
362.10973669254878
 21
56.50000000000005
 31
0.0
  0
LINE
  8
SIZE
  6
CONTINUOUS
 62
    30
 10
237.09995660799919
 20
-56.500000000000028
 30
0.0
 11
362.10973669254878
 21
-56.500000000000007
 31
0.0
  0
LINE
  8
SIZE
  6
CONTINUOUS
 62
    30
 10
342.10973669254878
 20
-44.5
 30
0.0
 11
342.10973669254878
 21
44.500000000000043
 31
0.0
  0
LINE
  8
SIZE
  6
CONTINUOUS
 62
    30
 10
342.10973669254878
 20
56.50000000000005
 30
0.0
 11
342.10973669254872
 21
458.00528713176521
 31
0.0
  0
CIRCLE
  8
SIZE
  6
CONTINUOUS
 62
    30
 10
342.10973669254878
 20
-56.500000000000007
 30
0.0
 40
6.0
  0
LINE
  8
SIZE
  6
CONTINUOUS
 62
    30
 10
342.10973669254878
 20
-56.500000000000007
 30
0.0
 11
342.10973669254878
 21
-44.500000000000007
 31
0.0
  0
CIRCLE
  8
SIZE
  6
CONTINUOUS
 62
    30
 10
342.10973669254878
 20
56.50000000000005
 30
0.0
 40
6.0
  0
LINE
  8
SIZE
  6
CONTINUOUS
 62
    30
 10
342.10973669254878
 20
56.50000000000005
 30
0.0
 11
342.10973669254878
 21
44.50000000000005
 31
0.0
  0
TEXT
  8
SIZE
  6
CONTINUOUS
 62
    30
 10
317.10973669254872
 20
240.47042998890788
 30
0.0
 40
64.0
  1
φ113
 50
90.0
 41
0.9
 51
0.0
  7
STANDARD
 71
     0
 72
     1
 11
317.10973669254872
 21
343.86242998890788
 31
0.0
210
0.0
220
0.0
230
1.0
  0
POINT
  8
DEFPOINTS
  6
CONTINUOUS
 62
    30
 10
217.09995660799919
 20
56.500000000000028
 30
0.0
  0
POINT
  8
DEFPOINTS
  6
CONTINUOUS
 62
    30
 10
217.09995660799919
 20
-56.500000000000028
 30
0.0
  0
POINT
  8
DEFPOINTS
  6
CONTINUOUS
 62
    30
 10
342.10973669254878
 20
-56.500000000000007
 30
0.0
  0
CIRCLE
  8
ARRANGE
  6
CONTINUOUS
 62
     1
 10
0.0
 20
0.0
 30
0.0
 40
40.0
  0
LINE
  8
DETAIL
  6
CONTINUOUS
 62
     5
 10
158.49995660799689
 20
-56.199999999999818
 30
0.0
 11
107.5830963508197
 21
-56.200000000000273
 31
0.0
  0
ARC
  8
DETAIL
  6
CONTINUOUS
 62
     5
 10
107.5830963508197
 20
-45.700000000000273
 30
0.0
 40
10.5
 50
180.0
 51
270.0
  0
ARC
  8
OUTLINE
  6
CONTINUOUS
 62
     3
 10
152.21339667482891
 20
145.99383994940845
 30
0.0
 40
46.334738247475265
 50
2.6130499518022816
 51
58.558679636793329
  0
ARC
  8
OUTLINE
  6
CONTINUOUS
 62
     3
 10
133.80899842174773
 20
118.47747686949297
 30
0.0
 40
79.42265840586532
 50
57.5854992772081
 51
90.223300991093652
  0
LINE
  8
OUTLINE
  6
CONTINUOUS
 62
     3
 10
133.4994622990034
 20
197.89953209122271
 30
0.0
 11
70.0
 21
197.89953209122271
 31
0.0
  0
LINE
  8
OUTLINE
  6
CONTINUOUS
 62
     3
 10
70.0
 20
197.89953209122271
 30
0.0
 11
70.000000000201908
 21
237.99999999659991
 31
0.0
  0
LINE
  8
OUTLINE
  6
CONTINUOUS
 62
     3
 10
70.000000000201908
 20
237.99999999659991
 30
0.0
 11
68.80000000020209
 21
237.99999999659991
 31
0.0
  0
LINE
  8
OUTLINE
  6
CONTINUOUS
 62
     3
 10
68.80000000020209
 20
237.99999999659991
 30
0.0
 11
68.80000000020209
 21
237.89999999669999
 31
0.0
  0
ARC
  8
OUTLINE
  6
CONTINUOUS
 62
     3
 10
34.60000000020225
 20
237.89999999669973
 30
0.0
 40
34.199999999999839
 50
270.0
 51
0.0
  0
LINE
  8
OUTLINE
  6
CONTINUOUS
 62
     3
 10
34.600000000202272
 20
203.69999999669989
 30
0.0
 11
25.00000000020373
 21
203.69999999669989
 31
0.0
  0
ARC
  8
OUTLINE
  6
CONTINUOUS
 62
     3
 10
25.000000000202125
 20
218.6999999966956
 30
0.0
 40
14.99999999999571
 50
216.86989764451801
 51
270.0
  0
LINE
  8
OUTLINE
  6
CONTINUOUS
 62
     3
 10
12.99999999999727
 20
209.69999999697589
 30
0.0
 11
12.99999999999636
 21
214.0283013952228
 31
0.0
  0
LINE
  8
OUTLINE
  6
CONTINUOUS
 62
     3
 10
12.99999999999636
 20
214.0283013952228
 30
0.0
 11
10.0
 21
214.0283013952228
 31
0.0
  0
LINE
  8
OUTLINE
  6
CONTINUOUS
 62
     3
 10
10.0
 20
214.0283013952228
 30
0.0
 11
10.0
 21
255.0
 31
0.0
  0
ARC
  8
OUTLINE
  6
CONTINUOUS
 62
     3
 10
5.0000000000000977
 20
255.00000000000009
 30
0.0
 40
4.9999999999999023
 50
0.0
 51
90.0
  0
LINE
  8
OUTLINE
  6
CONTINUOUS
 62
     3
 10
5.0
 20
260.0
 30
0.0
 11
0.0
 21
260.0
 31
0.0
  0
LINE
  8
OUTLINE
  6
CONTINUOUS
 62
     3
 10
0.0
 20
260.0
 30
0.0
 11
0.0
 21
-260.0
 31
0.0
  0
LINE
  8
OUTLINE
  6
CONTINUOUS
 62
     3
 10
0.0
 20
-260.0
 30
0.0
 11
5.0
 21
-260.0
 31
0.0
  0
ARC
  8
OUTLINE
  6
CONTINUOUS
 62
     3
 10
5.0000000000000977
 20
-255.00000000000009
 30
0.0
 40
4.9999999999999023
 50
270.0
 51
0.0
  0
LINE
  8
OUTLINE
  6
CONTINUOUS
 62
     3
 10
10.0
 20
-255.0
 30
0.0
 11
10.0
 21
-214.11080087722229
 31
0.0
  0
LINE
  8
OUTLINE
  6
CONTINUOUS
 62
     3
 10
10.0
 20
-214.11080087722229
 30
0.0
 11
12.99999999999636
 21
-214.11080087722229
 31
0.0
  0
LINE
  8
OUTLINE
  6
CONTINUOUS
 62
     3
 10
12.99999999999636
 20
-214.11080087722229
 30
0.0
 11
12.99999999999636
 21
-209.699999996976
 31
0.0
  0
ARC
  8
OUTLINE
  6
CONTINUOUS
 62
     3
 10
25.000000000205389
 20
-218.69999999670378
 30
0.0
 40
15.000000000003888
 50
90.0
 51
143.13010235546687
  0
LINE
  8
OUTLINE
  6
CONTINUOUS
 62
     3
 10
25.00000000020373
 20
-203.69999999669989
 30
0.0
 11
34.600000000202272
 21
-203.70000000329989
 31
0.0
  0
ARC
  8
OUTLINE
  6
CONTINUOUS
 62
     3
 10
34.600000000202037
 20
-237.90000000329994
 30
0.0
 40
34.200000000000038
 50
0.0
 51
90.0
  0
LINE
  8
OUTLINE
  6
CONTINUOUS
 62
     3
 10
68.80000000020209
 20
-237.90000000330019
 30
0.0
 11
68.800000000202999
 21
-238.00000000350019
 31
0.0
  0
LINE
  8
OUTLINE
  6
CONTINUOUS
 62
     3
 10
68.800000000202999
 20
-238.00000000350019
 30
0.0
 11
70.000000000200089
 21
-238.00000000350019
 31
0.0
  0
LINE
  8
OUTLINE
  6
CONTINUOUS
 62
     3
 10
70.000000000200089
 20
-238.00000000350019
 30
0.0
 11
70.0
 21
-197.89953209122251
 31
0.0
  0
LINE
  8
OUTLINE
  6
CONTINUOUS
 62
     3
 10
70.0
 20
-197.89953209122251
 30
0.0
 11
133.49946229901161
 21
-197.89953209122251
 31
0.0
  0
ARC
  8
OUTLINE
  6
CONTINUOUS
 62
     3
 10
134.34147085055838
 20
-120.32280275516371
 30
0.0
 40
77.581298731595126
 50
269.37814287359924
 51
302.81305686050564
  0
ARC
  8
OUTLINE
  6
CONTINUOUS
 62
     3
 10
152.51617926270734
 20
-146.16844092743537
 30
0.0
 40
46.028137966856661
 50
301.23312697691244
 51
357.48429551092102
  0
LINE
  8
OUTLINE
  6
CONTINUOUS
 62
     3
 10
198.49995660799689
 20
-148.18876410822281
 30
0.0
 11
198.49995660799689
 21
-81.25800084399998
 31
0.0
  0
ARC
  8
OUTLINE
  6
CONTINUOUS
 62
     3
 10
178.40896354015771
 20
-70.192335644838465
 30
0.0
 40
22.936803368209276
 50
331.15501977159602
 51
356.21533491453647
  0
LINE
  8
OUTLINE
  6
CONTINUOUS
 62
     3
 10
201.29574564900031
 20
-71.706321593999974
 30
0.0
 11
201.29574564900031
 21
-68.700000000000045
 31
0.0
  0
LINE
  8
OUTLINE
  6
CONTINUOUS
 62
     3
 10
201.29574564900031
 20
-68.700000000000045
 30
0.0
 11
204.09995660799899
 21
-68.700000000000045
 31
0.0
  0
LINE
  8
OUTLINE
  6
CONTINUOUS
 62
     3
 10
204.09995660799899
 20
-68.700000000000045
 30
0.0
 11
204.09995660799899
 21
-59.700000000000053
 31
0.0
  0
ARC
  8
OUTLINE
  6
CONTINUOUS
 62
     3
 10
205.09995660799896
 20
-59.700000000000031
 30
0.0
 40
0.9999999999999804
 50
90.0
 51
180.0
  0
ARC
  8
OUTLINE
  6
CONTINUOUS
 62
     3
 10
205.09995660799902
 20
-57.700000000000074
 30
0.0
 40
0.9999999999999804
 50
270.0
 51
0.0
  0
LINE
  8
OUTLINE
  6
CONTINUOUS
 62
     3
 10
206.09995660799899
 20
-57.700000000000053
 30
0.0
 11
206.09995660799899
 21
-56.5
 31
0.0
  0
LINE
  8
OUTLINE
  6
CONTINUOUS
 62
     3
 10
206.09995660799899
 20
-56.5
 30
0.0
 11
217.09995660799899
 21
-56.5
 31
0.0
  0
ARC
  8
OUTLINE
  6
CONTINUOUS
 62
     3
 10
217.09995660799893
 20
-48.99999999999995
 30
0.0
 40
7.500000000000048
 50
270.0
 51
0.0
  0
LINE
  8
OUTLINE
  6
CONTINUOUS
 62
     3
 10
224.59995660799899
 20
-49.0
 30
0.0
 11
224.59995660799899
 21
49.0
 31
0.0
  0
ARC
  8
OUTLINE
  6
CONTINUOUS
 62
     3
 10
217.09995660799893
 20
48.99999999999995
 30
0.0
 40
7.500000000000048
 50
0.0
 51
90.0
  0
LINE
  8
OUTLINE
  6
CONTINUOUS
 62
     3
 10
217.09995660799899
 20
56.5
 30
0.0
 11
198.49995660799689
 21
56.5
 31
0.0
  0
LINE
  8
OUTLINE
  6
CONTINUOUS
 62
     3
 10
198.49995660799689
 20
56.5
 30
0.0
 11
198.4999566079978
 21
148.10626462622261
 31
0.0
  0
LINE
  8
DETAIL
  6
CONTINUOUS
 62
     5
 10
70.783096350816777
 20
-15.95831938710012
 30
0.0
 11
70.783096350816777
 21
16.04081887009988
 31
0.0
  0
LINE
  8
DETAIL
  6
CONTINUOUS
 62
     5
 10
73.183096350816413
 20
13.04121301789996
 30
0.0
 11
73.183096350816413
 21
-12.9587135349002
 31
0.0
  0
LINE
  8
DETAIL
  6
CONTINUOUS
 62
     5
 10
75.683096350816413
 20
-14.48949704050005
 30
0.0
 11
76.217434592816062
 21
-20.597011094300111
 31
0.0
  0
LINE
  8
DETAIL
  6
CONTINUOUS
 62
     5
 10
75.683096350816413
 20
14.57179240310006
 30
0.0
 11
75.683096350816413
 21
-14.48929292010007
 31
0.0
  0
LINE
  8
DETAIL
  6
CONTINUOUS
 62
     5
 10
90.183096350817323
 20
7.3130859703510396
 30
0.0
 11
90.183096350816413
 21
-25.966215331700141
 31
0.0
  0
LINE
  8
DETAIL
  6
CONTINUOUS
 62
     5
 10
90.183096350816413
 20
-25.96638993690021
 30
0.0
 11
80.762629369617571
 21
-25.142205871100028
 31
0.0
  0
LINE
  8
DETAIL
  6
CONTINUOUS
 62
     5
 10
93.079995417616374
 20
-11.6930607523002
 30
0.0
 11
92.041489514016575
 21
-12.73155165850017
 31
0.0
  0
LINE
  8
DETAIL
  6
CONTINUOUS
 62
     5
 10
70.783096350816777
 20
-15.95875026190015
 30
0.0
 11
70.0
 21
-15.95875026190015
 31
0.0
  0
LINE
  8
DETAIL
  6
CONTINUOUS
 62
     5
 10
90.768706498416577
 20
-13.258750261900101
 30
0.0
 11
90.183096350816413
 21
-13.258750261900101
 31
0.0
  0
LINE
  8
DETAIL
  6
CONTINUOUS
 62
     5
 10
73.183096350816413
 20
-12.95875026190015
 30
0.0
 11
75.683096350816413
 21
-12.95875026190015
 31
0.0
  0
LINE
  8
DETAIL
  6
CONTINUOUS
 62
     5
 10
97.083096350816049
 20
-11.45875026190015
 30
0.0
 11
93.645676757816545
 21
-11.45875026190015
 31
0.0
  0
LINE
  8
DETAIL
  6
CONTINUOUS
 62
     5
 10
73.183096350816413
 20
-9.9587502619001498
 30
0.0
 11
70.783096350816777
 21
-9.9587502619001498
 31
0.0
  0
ARC
  8
DETAIL
  6
CONTINUOUS
 62
     5
 10
81.198408083417235
 20
-20.16123238050022
 30
0.0
 40
5.0
 50
184.99999999999949
 51
265.00000000002638
  0
ARC
  8
DETAIL
  6
CONTINUOUS
 62
     5
 10
90.768706498416577
 20
-11.45875026190015
 30
0.0
 40
1.8
 50
270.0
 51
314.99958628181389
  0
ARC
  8
DETAIL
  6
CONTINUOUS
 62
     5
 10
93.645676757816545
 20
-12.258750261900101
 30
0.0
 40
0.8
 50
90.0
 51
134.99958628181389
  0
LINE
  8
DETAIL
  6
CONTINUOUS
 62
     5
 10
75.683096350816413
 20
14.571996523500051
 30
0.0
 11
76.217434592816062
 21
20.67951057729988
 31
0.0
  0
LINE
  8
DETAIL
  6
CONTINUOUS
 62
     5
 10
85.250736940311981
 20
25.61736388713712
 30
0.0
 11
80.762629369617571
 21
25.224705354100021
 31
0.0
  0
LINE
  8
DETAIL
  6
CONTINUOUS
 62
     5
 10
93.079995417616374
 20
11.77556023529996
 30
0.0
 11
92.467581154298387
 21
12.387965654544811
 31
0.0
  0
LINE
  8
DETAIL
  6
CONTINUOUS
 62
     5
 10
70.783096350816777
 20
16.041249744899911
 30
0.0
 11
70.0
 21
16.041249744899911
 31
0.0
  0
LINE
  8
DETAIL
  6
CONTINUOUS
 62
     5
 10
73.183096350816413
 20
13.041249744899909
 30
0.0
 11
75.683096350816413
 21
13.041249744899909
 31
0.0
  0
LINE
  8
DETAIL
  6
CONTINUOUS
 62
     5
 10
97.083096350816049
 20
11.541249744899909
 30
0.0
 11
93.645676757816545
 21
11.541249744899909
 31
0.0
  0
LINE
  8
DETAIL
  6
CONTINUOUS
 62
     5
 10
73.183096350816413
 20
10.041249744899909
 30
0.0
 11
70.783096350816777
 21
10.041249744899909
 31
0.0
  0
ARC
  8
DETAIL
  6
CONTINUOUS
 62
     5
 10
81.198408083417235
 20
20.243731863499988
 30
0.0
 40
5.0
 50
94.999999999973639
 51
175.00000000000051
  0
ARC
  8
DETAIL
  6
CONTINUOUS
 62
     5
 10
93.645676757816545
 20
12.3412497449001
 30
0.0
 40
0.8
 50
225.00041371818611
 51
270.0
  0
LINE
  8
DETAIL
  6
CONTINUOUS
 62
     5
 10
70.000000000200089
 20
-238.00000000350019
 30
0.0
 11
70.000000000200089
 21
-197.89953209122271
 31
0.0
  0
LINE
  8
DETAIL
  6
CONTINUOUS
 62
     5
 10
70.000000000200089
 20
197.89953209122271
 30
0.0
 11
70.000000000200089
 21
237.99999999659991
 31
0.0
  0
LINE
  8
DETAIL
  6
CONTINUOUS
 62
     5
 10
70.000000000200089
 20
-238.00000000350019
 30
0.0
 11
68.800000000202999
 21
-238.00000000350019
 31
0.0
  0
LINE
  8
DETAIL
  6
CONTINUOUS
 62
     5
 10
68.800000000202999
 20
237.99999999659991
 30
0.0
 11
68.800000000202999
 21
237.89999999669999
 31
0.0
  0
LINE
  8
DETAIL
  6
CONTINUOUS
 62
     5
 10
70.000000000200089
 20
199.99998218309989
 30
0.0
 11
70.000000000200089
 21
237.99999999659991
 31
0.0
  0
LINE
  8
DETAIL
  6
CONTINUOUS
 62
     5
 10
68.800000000202999
 20
237.99999999659991
 30
0.0
 11
70.000000000200089
 21
237.99999999659991
 31
0.0
  0
ARC
  8
DETAIL
  6
CONTINUOUS
 62
     5
 10
34.600000000202272
 20
237.89999999669999
 30
0.0
 40
34.200000000000003
 50
270.0
 51
0.0
  0
ARC
  8
DETAIL
  6
CONTINUOUS
 62
     5
 10
34.600000000202272
 20
-237.90000000330019
 30
0.0
 40
34.200000000000003
 50
0.0
 51
90.0
  0
ARC
  8
DETAIL
  6
CONTINUOUS
 62
     5
 10
25.00000000020373
 20
218.69999999669989
 30
0.0
 40
15.0
 50
216.86989764452039
 51
270.0
  0
LINE
  8
DETAIL
  6
CONTINUOUS
 62
     5
 10
34.600000000202272
 20
203.69999999669989
 30
0.0
 11
25.00000000020373
 21
203.69999999669989
 31
0.0
  0
ARC
  8
DETAIL
  6
CONTINUOUS
 62
     5
 10
25.00000000020373
 20
-218.69999999669989
 30
0.0
 40
15.0
 50
90.0
 51
143.13010235547961
  0
LINE
  8
DETAIL
  6
CONTINUOUS
 62
     5
 10
34.600000000202272
 20
-203.69999999669989
 30
0.0
 11
25.00000000020373
 21
-203.69999999669989
 31
0.0
  0
LINE
  8
DETAIL
  6
CONTINUOUS
 62
     5
 10
68.799997426227492
 20
-237.8999943479175
 30
0.0
 11
68.799997426227492
 21
-237.99999434781739
 31
0.0
  0
ARC
  8
DETAIL
  6
CONTINUOUS
 62
     5
 10
392.36030951529392
 20
15.84477780977886
 30
0.0
 40
352.98787865972969
 50
204.04392523601339
 51
213.0801347000253
  0
ARC
  8
DETAIL
  6
CONTINUOUS
 62
     5
 10
20.00820638536425
 20
0.2044272246903347
 30
0.0
 40
70.017177485405398
 50
6.5126537251335881
 51
44.439245247976139
  0
ARC
  8
DETAIL
  6
CONTINUOUS
 62
     5
 10
-292.22608755866349
 20
6.4401905058853117
 30
0.0
 40
384.739645444887
 50
0.3079754090581201
 51
19.697771577759319
  0
ARC
  8
DETAIL
  6
CONTINUOUS
 62
     5
 10
-706.20049738774287
 20
335.26410596989598
 30
0.0
 40
816.41065613328499
 50
343.95689786273158
 51
348.19434915693381
  0
ARC
  8
DETAIL
  6
CONTINUOUS
 62
     5
 10
93.423472942355147
 20
168.00304588489641
 30
0.0
 40
0.534450800618944
 50
332.29870667038108
 51
154.5711909704676
  0
ARC
  8
DETAIL
  6
CONTINUOUS
 62
     5
 10
-592.68953740236429
 20
263.90662682901689
 30
0.0
 40
693.28625248233902
 50
346.32840033709942
 51
352.02793765513451
  0
ARC
  8
DETAIL
  6
CONTINUOUS
 62
     5
 10
91.012109814038013
 20
8.5592927376728767
 30
0.0
 40
1.4967613801538939
 50
196.03062630727189
 51
358.04484330126218
  0
TEXT
  8
NOTE
  6
CONTINUOUS
 62
     4
 10
-509.62982841409189
 20
-359.02498741333602
 30
0.0
 40
64.0
  1
4-15×15
 50
0.0
 41
0.9
 51
0.0
  7
STANDARD
 71
     0
 72
     2
 11
-123.13382841409189
 21
-359.02498741333602
 31
0.0
210
0.0
220
0.0
230
1.0
  0
LINE
  8
NOTE
  6
CONTINUOUS
 62
     4
 10
-123.04382841409191
 20
-371.82498741333598
 30
0.0
 11
-501.64811412837759
 21
-371.82498741333598
 31
0.0
  0
LINE
  8
NOTE
  6
CONTINUOUS
 62
     4
 10
-24.137015983854862
 20
-249.54538159374576
 30
0.0
 11
0.0
 21
-230.0
 31
0.0
  0
LINE
  8
NOTE
  6
CONTINUOUS
 62
     4
 10
0.0
 20
-230.0
 30
0.0
 11
-11.130534522390629
 21
-258.99532175189421
 31
0.0
  0
LINE
  8
NOTE
  6
CONTINUOUS
 62
     4
 10
0.0
 20
-230.0
 30
0.0
 11
-35.267550506245492
 21
-278.54070334564
 31
0.0
  0
LINE
  8
NOTE
  6
CONTINUOUS
 62
     4
 10
-35.267550506245499
 20
-278.54070334563988
 30
0.0
 11
-103.04382841409191
 21
-371.82498741333598
 31
0.0
  0
LINE
  8
NOTE
  6
CONTINUOUS
 62
     4
 10
-103.04382841409191
 20
-371.82498741333598
 30
0.0
 11
-123.04382841409191
 21
-371.82498741333598
 31
0.0
  0
TEXT
  8
NOTE
  6
CONTINUOUS
 62
     4
 10
255.38966717761099
 20
-357.97404976126649
 30
0.0
 40
64.0
  1
EL
 50
0.0
 41
0.9
 51
0.0
  7
STANDARD
 71
     0
 11
0.0
 21
0.0
 31
0.0
210
0.0
220
0.0
230
1.0
  0
LINE
  8
NOTE
  6
CONTINUOUS
 62
     4
 10
255.2996671776109
 20
-370.7740497612665
 30
0.0
 11
340.41823860618229
 21
-370.7740497612665
 31
0.0
  0
LINE
  8
NOTE
  6
CONTINUOUS
 62
     4
 10
52.084099749542929
 20
-223.56904198535483
 30
0.0
 11
34.600000000197717
 21
-197.89953209122271
 31
0.0
  0
LINE
  8
NOTE
  6
CONTINUOUS
 62
     4
 10
34.600000000197717
 20
-197.89953209122271
 30
0.0
 11
62.576449818722672
 21
-211.38788772864402
 31
0.0
  0
LINE
  8
NOTE
  6
CONTINUOUS
 62
     4
 10
34.600000000197717
 20
-197.89953209122271
 30
0.0
 11
80.060549568067884
 21
-237.05739762277614
 31
0.0
  0
LINE
  8
NOTE
  6
CONTINUOUS
 62
     4
 10
80.060549568067884
 20
-237.05739762277611
 30
0.0
 11
235.2996671776109
 21
-370.7740497612665
 31
0.0
  0
LINE
  8
NOTE
  6
CONTINUOUS
 62
     4
 10
235.2996671776109
 20
-370.7740497612665
 30
0.0
 11
255.2996671776109
 21
-370.7740497612665
 31
0.0
  0
ENDSEC
  0
EOF
