  0
SECTION
  2
HEADER
  9
$ACADVER
  1
AC1009
  9
$DWGCODEPAGE
  3
ansi_932
  9
$INSBASE
 10
0.0
 20
0.0
 30
0.0
  9
$EXTMIN
 10
-893.4190918983484
 20
-388.1572739999999
 30
0.0
  9
$EXTMAX
 10
1096.481118783059
 20
664.8618587766467
 30
0.0
  9
$LIMMIN
 10
-2970.0
 20
-2100.0
  9
$LIMMAX
 10
2970.0
 20
2100.0
  9
$ORTHOMODE
 70
     1
  9
$REGENMODE
 70
     1
  9
$FILLMODE
 70
     1
  9
$QTEXTMODE
 70
     0
  9
$MIRRTEXT
 70
     0
  9
$DRAGMODE
 70
     2
  9
$LTSCALE
 40
20.0
  9
$OSMODE
 70
    37
  9
$ATTMODE
 70
     1
  9
$TEXTSIZE
 40
64.0
  9
$TRACEWID
 40
0.05
  9
$TEXTSTYLE
  7
STANDARD
  9
$CLAYER
  8
OUTLINE
  9
$CELTYPE
  6
CONTINUOUS
  9
$CECOLOR
 62
     3
  9
$DIMSCALE
 40
1.0
  9
$DIMASZ
 40
2.0
  9
$DIMEXO
 40
20.0
  9
$DIMDLI
 40
200.0
  9
$DIMRND
 40
0.0
  9
$DIMDLE
 40
0.0
  9
$DIMEXE
 40
30.0
  9
$DIMTP
 40
0.0
  9
$DIMTM
 40
0.0
  9
$DIMTXT
 40
64.0
  9
$DIMCEN
 40
0.09
  9
$DIMTSZ
 40
0.0
  9
$DIMTOL
 70
     0
  9
$DIMLIM
 70
     0
  9
$DIMTIH
 70
     0
  9
$DIMTOH
 70
     0
  9
$DIMSE1
 70
     0
  9
$DIMSE2
 70
     0
  9
$DIMTAD
 70
     1
  9
$DIMZIN
 70
     8
  9
$DIMBLK
  1
DOT1
  9
$DIMASO
 70
     1
  9
$DIMSHO
 70
     0
  9
$DIMPOST
  1

  9
$DIMAPOST
  1

  9
$DIMALT
 70
     0
  9
$DIMALTD
 70
     2
  9
$DIMALTF
 40
25.4
  9
$DIMLFAC
 40
1.0
  9
$DIMTOFL
 70
     1
  9
$DIMTVP
 40
0.0
  9
$DIMTIX
 70
     1
  9
$DIMSOXD
 70
     0
  9
$DIMSAH
 70
     0
  9
$DIMBLK1
  1

  9
$DIMBLK2
  1

  9
$DIMSTYLE
  2
STANDARD
  9
$DIMCLRD
 70
     7
  9
$DIMCLRE
 70
     7
  9
$DIMCLRT
 70
     7
  9
$DIMTFAC
 40
1.0
  9
$DIMGAP
 40
20.0
  9
$LUNITS
 70
     2
  9
$LUPREC
 70
     4
  9
$SKETCHINC
 40
0.1
  9
$FILLETRAD
 40
70.0
  9
$AUNITS
 70
     1
  9
$AUPREC
 70
     3
  9
$MENU
  1
ACAD
  9
$ELEVATION
 40
0.0
  9
$PELEVATION
 40
0.0
  9
$THICKNESS
 40
0.0
  9
$LIMCHECK
 70
     1
  9
$CHAMFERA
 40
0.0
  9
$CHAMFERB
 40
0.0
  9
$SKPOLY
 70
     0
  9
$TDCREATE
 40
2451325.668124988
  9
$TDUPDATE
 40
2457485.553096389
  9
$TDINDWG
 40
0.0525468056
  9
$TDUSRTIMER
 40
0.0525466204
  9
$USRTIMER
 70
     1
  9
$ANGBASE
 50
0.0
  9
$ANGDIR
 70
     0
  9
$PDMODE
 70
     3
  9
$PDSIZE
 40
-2.0
  9
$PLINEWID
 40
0.0
  9
$COORDS
 70
     1
  9
$SPLFRAME
 70
     0
  9
$SPLINETYPE
 70
     6
  9
$SPLINESEGS
 70
     8
  9
$ATTDIA
 70
     0
  9
$ATTREQ
 70
     1
  9
$HANDLING
 70
     1
  9
$HANDSEED
  5
873
  9
$SURFTAB1
 70
     6
  9
$SURFTAB2
 70
     6
  9
$SURFTYPE
 70
     6
  9
$SURFU
 70
     6
  9
$SURFV
 70
     6
  9
$UCSNAME
  2

  9
$UCSORG
 10
0.0
 20
0.0
 30
0.0
  9
$UCSXDIR
 10
1.0
 20
0.0
 30
0.0
  9
$UCSYDIR
 10
0.0
 20
1.0
 30
0.0
  9
$PUCSNAME
  2

  9
$PUCSORG
 10
0.0
 20
0.0
 30
0.0
  9
$PUCSXDIR
 10
1.0
 20
0.0
 30
0.0
  9
$PUCSYDIR
 10
0.0
 20
1.0
 30
0.0
  9
$USERI1
 70
     0
  9
$USERI2
 70
     0
  9
$USERI3
 70
     0
  9
$USERI4
 70
     0
  9
$USERI5
 70
     0
  9
$USERR1
 40
20.0
  9
$USERR2
 40
0.0
  9
$USERR3
 40
0.0
  9
$USERR4
 40
0.0
  9
$USERR5
 40
0.0
  9
$WORLDVIEW
 70
     1
  9
$SHADEDGE
 70
     3
  9
$SHADEDIF
 70
    70
  9
$TILEMODE
 70
     1
  9
$MAXACTVP
 70
    48
  9
$PLIMCHECK
 70
     0
  9
$PEXTMIN
 10
-1.000000000000000E+20
 20
-1.000000000000000E+20
 30
-1.000000000000000E+20
  9
$PEXTMAX
 10
1.000000000000000E+20
 20
1.000000000000000E+20
 30
1.000000000000000E+20
  9
$PLIMMIN
 10
0.0
 20
0.0
  9
$PLIMMAX
 10
12.0
 20
9.0
  9
$UNITMODE
 70
     0
  9
$VISRETAIN
 70
     0
  9
$PLINEGEN
 70
     0
  9
$PSLTSCALE
 70
     0
  0
ENDSEC
  0
SECTION
  2
TABLES
  0
TABLE
  2
VPORT
 70
     1
  0
VPORT
  2
*ACTIVE
 70
     0
 10
0.0
 20
0.0
 11
1.0
 21
1.0
 12
93.43973393652959
 22
139.4440045558699
 13
0.0
 23
0.0
 14
400.0
 24
400.0
 15
400.0
 25
400.0
 16
0.0
 26
0.0
 36
1.0
 17
0.0
 27
0.0
 37
0.0
 40
1479.72889262265
 41
1.493654822335025
 42
50.0
 43
0.0
 44
0.0
 50
0.0
 51
0.0
 71
     0
 72
  1000
 73
     1
 74
     0
 75
     0
 76
     0
 77
     0
 78
     0
  0
ENDTAB
  0
TABLE
  2
LTYPE
 70
     3
  0
LTYPE
  2
CONTINUOUS
 70
     0
  3
実線
 72
    65
 73
     0
 40
0.0
  0
LTYPE
  2
DASHDOT
 70
     0
  3
____ _ ____ _ ____ _ ____ _ ____ _ ____ _ ____
 72
    65
 73
     4
 40
5.5
 49
4.0
 49
-0.6
 49
0.3
 49
-0.6
  0
LTYPE
  2
DASHED
 70
     0
  3
_ _ _ _ _ _ _ _ _ _ _ _ _ _ _ _ _ _ _ _ _ _ _
 72
    65
 73
     2
 40
1.999999999999999
 49
1.199999999999999
 49
-0.8
  0
ENDTAB
  0
TABLE
  2
LAYER
 70
    12
  0
LAYER
  2
0
 70
     0
 62
     7
  6
CONTINUOUS
  0
LAYER
  2
OUTLINE
 70
     0
 62
     3
  6
CONTINUOUS
  0
LAYER
  2
SIZE
 70
     0
 62
    30
  6
CONTINUOUS
  0
LAYER
  2
DETAIL
 70
     0
 62
     5
  6
CONTINUOUS
  0
LAYER
  2
BASIS
 70
     0
 62
     6
  6
DASHDOT
  0
LAYER
  2
NOTE
 70
     0
 62
     4
  6
CONTINUOUS
  0
LAYER
  2
DEFPOINTS
 70
     0
 62
     7
  6
CONTINUOUS
  0
LAYER
  2
ARRANGE
 70
     0
 62
     1
  6
CONTINUOUS
  0
LAYER
  2
FIX
 70
     0
 62
    11
  6
CONTINUOUS
  0
LAYER
  2
ETC
 70
     0
 62
    61
  6
CONTINUOUS
  0
LAYER
  2
SERVICESPACE
 70
     0
 62
     2
  6
DASHDOT
  0
LAYER
  2
SYMBOLLINE
 70
     0
 62
    15
  6
CONTINUOUS
  0
ENDTAB
  0
TABLE
  2
STYLE
 70
     1
  0
STYLE
  2
STANDARD
 70
     0
 40
0.0
 41
0.9
 50
0.0
 71
     0
 42
64.0
  3
SIMPLEX
  4
BIGFONT
  0
ENDTAB
  0
TABLE
  2
VIEW
 70
     1
  0
VIEW
  2
ALL
 70
     0
 40
4508.020851
 10
0.0
 20
41.30990399999999
 41
6252.631578999999
 11
0.0
 21
0.0
 31
1.0
 12
0.0
 22
0.0
 32
0.0
 42
50.0
 43
0.0
 44
0.0
 50
0.0
 71
     0
  0
ENDTAB
  0
TABLE
  2
UCS
 70
     0
  0
ENDTAB
  0
TABLE
  2
APPID
 70
     1
  0
APPID
  2
ACAD
 70
     0
  0
ENDTAB
  0
TABLE
  2
DIMSTYLE
 70
     1
  0
DIMSTYLE
  2
STANDARD
 70
     0
  3

  4

  5

  6

  7

 40
1.0
 41
0.18
 42
0.0625
 43
0.38
 44
0.18
 45
0.0
 46
0.0
 47
0.0
 48
0.0
140
0.18
141
0.09
142
0.0
143
25.4
144
1.0
145
0.0
146
1.0
147
0.09
 71
     0
 72
     0
 73
     1
 74
     1
 75
     0
 76
     0
 77
     0
 78
     0
170
     0
171
     2
172
     0
173
     0
174
     0
175
     0
176
     7
177
     7
178
     7
  0
ENDTAB
  0
ENDSEC
  0
SECTION
  2
BLOCKS
  0
BLOCK
  8
0
  2
$MODEL_SPACE
 70
     0
 10
0.0
 20
0.0
 30
0.0
  3
$MODEL_SPACE
  1

  0
ENDBLK
  5
635
  8
0
  0
BLOCK
 67
     1
  8
0
  2
$PAPER_SPACE
 70
     0
 10
0.0
 20
0.0
 30
0.0
  3
$PAPER_SPACE
  1

  0
ENDBLK
  5
631
 67
     1
  8
0
  0
BLOCK
  8
0
  2
DOT1
 70
     0
 10
0.0
 20
0.0
 30
0.0
  3
DOT1
  1

  0
CIRCLE
  5
651
  8
SIZE
  6
CONTINUOUS
 62
     7
 10
0.0
 20
0.0
 30
0.0
 40
3.0
  0
ENDBLK
  5
652
  8
0
  0
ENDSEC
  0
SECTION
  2
ENTITIES
  0
LINE
  5
653
  8
BASIS
  6
DASHDOT
 62
     6
 10
-54.26140099999983
 20
0.0
 30
0.0
 11
292.00963191388
 21
0.0
 31
0.0
  0
TEXT
  5
654
  8
NOTE
  6
CONTINUOUS
 62
     4
 10
-827.0705280000002
 20
-363.0577249999999
 30
0.0
 40
64.0
  1
4ヶ所×15×15取付穴
 41
0.9
  0
LINE
  5
655
  8
NOTE
  6
CONTINUOUS
 62
     4
 10
-95.33196899999993
 20
-388.1572739999999
 30
0.0
 11
-840.886526
 21
-388.1572739999999
 31
0.0
  0
LINE
  5
656
  8
NOTE
  6
CONTINUOUS
 62
     4
 10
-5.762745999999986
 20
-234.8000789999999
 30
0.0
 11
-95.33196899999993
 21
-388.1572739999999
 31
0.0
  0
LINE
  5
657
  8
NOTE
  6
CONTINUOUS
 62
     4
 10
-34.569032
 20
-262.552518
 30
0.0
 11
-5.762745999999986
 21
-234.8000789999999
 31
0.0
  0
LINE
  5
658
  8
NOTE
  6
CONTINUOUS
 62
     4
 10
-5.762745999999986
 20
-234.8000789999999
 30
0.0
 11
-16.83350100000001
 21
-273.2375399999999
 31
0.0
  0
CIRCLE
  5
659
  8
ARRANGE
  6
CONTINUOUS
 62
     1
 10
0.0
 20
0.0
 30
0.0
 40
40.0
  0
LINE
  5
65A
  8
NOTE
  6
CONTINUOUS
 62
     4
 10
20.591380747107
 20
-238.986049
 30
0.0
 11
18.99995800000001
 21
-200.0923779999999
 31
0.0
  0
LINE
  5
65B
  8
NOTE
  6
CONTINUOUS
 62
     4
 10
18.99995800000001
 20
-200.0923779999999
 30
0.0
 11
46.53763800000002
 21
-229.1040339999999
 31
0.0
  0
LINE
  5
65C
  8
NOTE
  6
CONTINUOUS
 62
     4
 10
18.99995800000001
 20
-200.0923779999999
 30
0.0
 11
78.11510600000001
 21
-348.254076
 31
0.0
  0
LINE
  5
65D
  8
NOTE
  6
CONTINUOUS
 62
     4
 10
38.99995800000001
 20
-200.0923779999999
 30
0.0
 11
-1.000042000000008
 21
-200.0923779999999
 31
0.0
  0
LINE
  5
65E
  8
NOTE
  6
CONTINUOUS
 62
     4
 10
18.99995800000001
 20
-180.0923779999999
 30
0.0
 11
18.99995800000001
 21
-220.0923779999999
 31
0.0
  0
TEXT
  5
65F
  8
NOTE
  6
CONTINUOUS
 62
     4
 10
94.36676499999999
 20
-323.1545269999999
 30
0.0
 40
64.0
  1
EL
 41
0.9
  0
LINE
  5
660
  8
NOTE
  6
CONTINUOUS
 62
     4
 10
195.7311309999998
 20
-348.254076
 30
0.0
 11
78.11510600000001
 21
-348.254076
 31
0.0
  0
ARC
  5
661
  8
DETAIL
  6
CONTINUOUS
 62
     5
 10
89.99989599999998
 20
-107.8496919999999
 30
0.0
 40
87.999965
 50
270.0
 51
0.0000369990471027
  0
ARC
  5
662
  8
DETAIL
  6
CONTINUOUS
 62
     5
 10
87.99991999999997
 20
-110.0923899999999
 30
0.0
 40
89.999964
 50
270.0
 51
0.0000370088964432
  0
LINE
  5
663
  8
DETAIL
  6
CONTINUOUS
 62
     5
 10
10.00006500000002
 20
-0.000081
 30
0.0
 11
10.00006500000002
 21
-251.9999789999999
 31
0.0
  0
LINE
  5
664
  8
DETAIL
  6
CONTINUOUS
 62
     5
 10
18.99995800000001
 20
-146.3521639999999
 30
0.0
 11
18.99995800000001
 21
-207.099935
 31
0.0
  0
ARC
  5
665
  8
DETAIL
  6
CONTINUOUS
 62
     5
 10
1.999793000000032
 20
-251.9999789999999
 30
0.0
 40
7.999997999999999
 50
270.0
 51
359.9999829886806
  0
ARC
  5
666
  8
DETAIL
  6
CONTINUOUS
 62
     5
 10
33.39986100000002
 20
-239.09999
 30
0.0
 40
34.999974
 50
1.800966999999799
 51
90.0
  0
LINE
  5
667
  8
DETAIL
  6
CONTINUOUS
 62
     5
 10
95.75639399999999
 20
-195.849679
 30
0.0
 11
18.99995800000001
 21
-195.849679
 31
0.0
  0
LINE
  5
668
  8
DETAIL
  6
CONTINUOUS
 62
     5
 10
70.00008600000001
 20
-200.092354
 30
0.0
 11
18.99995800000001
 21
-200.092354
 31
0.0
  0
LINE
  5
669
  8
DETAIL
  6
CONTINUOUS
 62
     5
 10
68.40017799999997
 20
-238.000024
 30
0.0
 11
68.40017799999997
 21
-200.092354
 31
0.0
  0
LINE
  5
66A
  8
DETAIL
  6
CONTINUOUS
 62
     5
 10
53.30008800000002
 20
-200.092354
 30
0.0
 11
87.99991999999997
 21
-200.092354
 31
0.0
  0
LINE
  5
66B
  8
DETAIL
  6
CONTINUOUS
 62
     5
 10
18.99995800000001
 20
-207.099935
 30
0.0
 11
18.99995800000001
 21
-226.962323
 31
0.0
  0
LINE
  5
66C
  8
DETAIL
  6
CONTINUOUS
 62
     5
 10
10.00006500000002
 20
-226.962323
 30
0.0
 11
18.99995800000001
 21
-226.962323
 31
0.0
  0
LINE
  5
66D
  8
DETAIL
  6
CONTINUOUS
 62
     5
 10
28.39992000000002
 20
-204.1000159999999
 30
0.0
 11
33.39986100000002
 21
-204.1000159999999
 31
0.0
  0
LINE
  5
66E
  8
DETAIL
  6
CONTINUOUS
 62
     5
 10
28.39992000000002
 20
-207.2099489999999
 30
0.0
 11
25.24988400000002
 21
-207.2099489999999
 31
0.0
  0
LINE
  5
66F
  8
DETAIL
  6
CONTINUOUS
 62
     5
 10
28.39992000000002
 20
-208.0849839999999
 30
0.0
 11
25.24988400000002
 21
-208.0849839999999
 31
0.0
  0
LINE
  5
670
  8
DETAIL
  6
CONTINUOUS
 62
     5
 10
18.99959200000002
 20
-211.5224659999999
 30
0.0
 11
23.62472000000003
 21
-211.5224659999999
 31
0.0
  0
LINE
  5
671
  8
DETAIL
  6
CONTINUOUS
 62
     5
 10
18.99959200000002
 20
-207.772442
 30
0.0
 11
23.62472000000003
 21
-207.772442
 31
0.0
  0
ARC
  5
672
  8
DETAIL
  6
CONTINUOUS
 62
     5
 10
23.62472000000003
 20
-209.397446
 30
0.0
 40
1.624999
 50
359.9999279939232
 51
90.0
  0
ARC
  5
673
  8
DETAIL
  6
CONTINUOUS
 62
     5
 10
23.62472000000003
 20
-209.8974399999999
 30
0.0
 40
1.624999
 50
270.0
 51
359.9999279939232
  0
LINE
  5
674
  8
DETAIL
  6
CONTINUOUS
 62
     5
 10
25.24988400000002
 20
-209.8974399999999
 30
0.0
 11
25.24988400000002
 21
-200.092354
 31
0.0
  0
LINE
  5
675
  8
DETAIL
  6
CONTINUOUS
 62
     5
 10
28.39992000000002
 20
-208.0849839999999
 30
0.0
 11
28.39992000000002
 21
-204.1000159999999
 31
0.0
  0
ARC
  5
676
  8
DETAIL
  6
CONTINUOUS
 62
     5
 10
20.77372900000001
 20
-204.3197699999999
 30
0.0
 40
4.465146999999999
 50
309.5487080000001
 51
359.8050760000018
  0
LINE
  5
677
  8
DETAIL
  6
DASHED
 62
     5
 10
28.39992000000002
 20
-201.459948
 30
0.0
 11
25.24988400000002
 21
-201.459948
 31
0.0
  0
LINE
  5
678
  8
DETAIL
  6
CONTINUOUS
 62
     5
 10
28.39992000000002
 20
-200.5849589999999
 30
0.0
 11
25.24988400000002
 21
-200.5849589999999
 31
0.0
  0
LINE
  5
679
  8
DETAIL
  6
CONTINUOUS
 62
     5
 10
18.99959200000002
 20
-200.897409
 30
0.0
 11
23.62472000000003
 21
-200.897409
 31
0.0
  0
ARC
  5
67A
  8
DETAIL
  6
CONTINUOUS
 62
     5
 10
23.62472000000003
 20
-199.272428
 30
0.0
 40
1.624999
 50
270.0
 51
329.697212
  0
ARC
  5
67B
  8
DETAIL
  6
CONTINUOUS
 62
     5
 10
20.77372900000001
 20
-204.3197699999999
 30
0.0
 40
4.465146999999999
 50
359.8050760000018
 51
50.20575299999993
  0
LINE
  5
67C
  8
DETAIL
  6
CONTINUOUS
 62
     5
 10
28.39992000000002
 20
-204.1000159999999
 30
0.0
 11
28.39992000000002
 21
-200.5849589999999
 31
0.0
  0
LINE
  5
67D
  8
DETAIL
  6
CONTINUOUS
 62
     5
 10
1.999793000000032
 20
-259.999976
 30
0.0
 11
0.000183000000014
 21
-259.999976
 31
0.0
  0
ARC
  5
67E
  8
DETAIL
  6
DASHED
 62
     5
 10
4407.310284
 20
-2101.488386
 30
0.0
 40
4869.982465999999
 50
152.0150919999998
 51
152.280058
  0
ARC
  5
67F
  8
DETAIL
  6
CONTINUOUS
 62
     5
 10
1207.446011999999
 20
-224.780281
 30
0.0
 40
1174.028929999999
 50
160.7592939999999
 51
165.6592409999998
  0
ARC
  5
680
  8
DETAIL
  6
CONTINUOUS
 62
     5
 10
89.99989599999998
 20
107.849552
 30
0.0
 40
87.999965
 50
0.0000550005197429
 51
90.0
  0
ARC
  5
681
  8
DETAIL
  6
CONTINUOUS
 62
     5
 10
87.99991999999997
 20
110.0922509999999
 30
0.0
 40
89.999964
 50
0.0000550005197429
 51
90.0
  0
ARC
  5
682
  8
DETAIL
  6
CONTINUOUS
 62
     5
 10
75.99990200000002
 20
103.2221359999999
 30
0.0
 40
69.999972
 50
0.0000369990471027
 51
90.0
  0
ARC
  5
683
  8
DETAIL
  6
CONTINUOUS
 62
     5
 10
100.264737
 20
20.092972
 30
0.0
 40
4.999997999999997
 50
94.9999709999999
 51
175.00001
  0
ARC
  5
684
  8
DETAIL
  6
CONTINUOUS
 62
     5
 10
100.264737
 20
-20.09313399999999
 30
0.0
 40
4.999997999999997
 50
184.99999
 51
265.0000289999999
  0
ARC
  5
685
  8
DETAIL
  6
CONTINUOUS
 62
     5
 10
-183.4943979999999
 20
-191.9860169999996
 30
0.0
 40
333.235305
 50
29.45539699999999
 51
40.8954
  0
ARC
  5
686
  8
DETAIL
  6
CONTINUOUS
 62
     5
 10
127.94303
 20
-61.40474799999999
 30
0.0
 40
68.774644
 50
212.5944629999999
 51
250.230765
  0
LINE
  5
687
  8
DETAIL
  6
CONTINUOUS
 62
     5
 10
98.671765
 20
-152.7091739999999
 30
0.0
 11
89.05548099999999
 21
-171.993984
 31
0.0
  0
ARC
  5
688
  8
DETAIL
  6
CONTINUOUS
 62
     5
 10
75.99990200000002
 20
-103.222276
 30
0.0
 40
69.999972
 50
270.0
 51
0.0000369990471027
  0
ARC
  5
689
  8
DETAIL
  6
CONTINUOUS
 62
     5
 10
-998.3703719999996
 20
-450.1305099999997
 30
0.0
 40
1182.877958
 50
20.90176600000001
 51
25.41861999999999
  0
LINE
  5
68A
  8
DETAIL
  6
CONTINUOUS
 62
     5
 10
145.999028
 20
107.849552
 30
0.0
 11
145.999028
 21
-0.000081
 31
0.0
  0
LINE
  5
68B
  8
DETAIL
  6
CONTINUOUS
 62
     5
 10
187.5000179999999
 20
-84.70006999999998
 30
0.0
 11
187.5000179999999
 21
84.99990699999996
 31
0.0
  0
LINE
  5
68C
  8
DETAIL
  6
CONTINUOUS
 62
     5
 10
189.5000169999999
 20
85.04036499999998
 30
0.0
 11
189.5000169999999
 21
-85.04052699999998
 31
0.0
  0
LINE
  5
68D
  8
DETAIL
  6
CONTINUOUS
 62
     5
 10
114.500028
 20
58.699911
 30
0.0
 11
114.500028
 21
-0.000081
 31
0.0
  0
LINE
  5
68E
  8
DETAIL
  6
CONTINUOUS
 62
     5
 10
185.5000179999999
 20
-84.70006999999998
 30
0.0
 11
185.5000179999999
 21
71.69990899999998
 31
0.0
  0
LINE
  5
68F
  8
DETAIL
  6
CONTINUOUS
 62
     5
 10
145.999028
 20
-107.8497139999999
 30
0.0
 11
145.999028
 21
-0.000081
 31
0.0
  0
LINE
  5
690
  8
DETAIL
  6
CONTINUOUS
 62
     5
 10
185.4990179999998
 20
-87.899934
 30
0.0
 11
185.4990179999998
 21
-0.000081
 31
0.0
  0
LINE
  5
691
  8
DETAIL
  6
CONTINUOUS
 62
     5
 10
189.5000169999999
 20
-84.70006999999998
 30
0.0
 11
189.5000169999999
 21
0.299919
 31
0.0
  0
LINE
  5
692
  8
DETAIL
  6
CONTINUOUS
 62
     5
 10
185.5000179999999
 20
-84.70006999999998
 30
0.0
 11
185.5000179999999
 21
-0.000081
 31
0.0
  0
CIRCLE
  5
693
  8
DETAIL
  6
CONTINUOUS
 62
     5
 10
161.9990219999999
 20
-65.000066
 30
0.0
 40
8.499999
  0
ARC
  5
694
  8
DETAIL
  6
CONTINUOUS
 62
     5
 10
185.475238
 20
-76.69985699999998
 30
0.0
 40
7.224736
 50
303.854352
 51
56.14566799999999
  0
ARC
  5
695
  8
DETAIL
  6
CONTINUOUS
 62
     5
 10
195.5000169999999
 20
-71.700071
 30
0.0
 40
5.999998999999998
 50
90.0
 51
180.0000190144419
  0
ARC
  5
696
  8
DETAIL
  6
CONTINUOUS
 62
     5
 10
103.666501
 20
-128.949174
 30
0.0
 40
3.0
 50
341.0305619999997
 51
70.23076500000002
  0
LINE
  5
697
  8
DETAIL
  6
CONTINUOUS
 62
     5
 10
106.503577
 20
-129.9243659999999
 30
0.0
 11
98.671742
 21
-152.7091429999998
 31
0.0
  0
LINE
  5
698
  8
DETAIL
  6
CONTINUOUS
 62
     5
 10
177.9998609999999
 20
-107.849634
 30
0.0
 11
177.9998609999999
 21
-82.500156
 31
0.0
  0
LINE
  5
699
  8
DETAIL
  6
DASHED
 62
     5
 10
145.999028
 20
-94.099929
 30
0.0
 11
179.2990319999998
 21
-94.099929
 31
0.0
  0
LINE
  5
69A
  8
DETAIL
  6
DASHED
 62
     5
 10
177.9990149999999
 20
-90.899933
 30
0.0
 11
145.999028
 21
-90.899933
 31
0.0
  0
LINE
  5
69B
  8
DETAIL
  6
CONTINUOUS
 62
     5
 10
185.4990179999998
 20
-82.500156
 30
0.0
 11
145.999028
 21
-82.500156
 31
0.0
  0
LINE
  5
69C
  8
DETAIL
  6
CONTINUOUS
 62
     5
 10
182.2990419999999
 20
-87.899934
 30
0.0
 11
182.2990419999999
 21
-82.500065
 31
0.0
  0
LINE
  5
69D
  8
DETAIL
  6
CONTINUOUS
 62
     5
 10
185.5000179999999
 20
-85.00006999999998
 30
0.0
 11
189.5000169999999
 21
-85.00006999999998
 31
0.0
  0
LINE
  5
69E
  8
DETAIL
  6
CONTINUOUS
 62
     5
 10
179.2990319999998
 20
-90.899933
 30
0.0
 11
177.9990149999999
 21
-90.899933
 31
0.0
  0
ARC
  5
69F
  8
DETAIL
  6
CONTINUOUS
 62
     5
 10
179.2990319999998
 20
-87.899934
 30
0.0
 40
6.199996999999997
 50
270.0
 51
359.9999269986088
  0
ARC
  5
6A0
  8
DETAIL
  6
CONTINUOUS
 62
     5
 10
179.2990319999998
 20
-87.899934
 30
0.0
 40
2.999998999999998
 50
270.0
 51
359.9999269986088
  0
LINE
  5
6A1
  8
DETAIL
  6
CONTINUOUS
 62
     5
 10
189.5000169999999
 20
-48.69750599999999
 30
0.0
 11
194.0000169999999
 21
-48.69750599999999
 31
0.0
  0
LINE
  5
6A2
  8
DETAIL
  6
CONTINUOUS
 62
     5
 10
194.0000169999999
 20
-60.197505
 30
0.0
 11
189.5000169999999
 21
-60.197505
 31
0.0
  0
LINE
  5
6A3
  8
DETAIL
  6
CONTINUOUS
 62
     5
 10
189.5000169999999
 20
-57.32250500000001
 30
0.0
 11
194.0000169999999
 21
-57.32250500000001
 31
0.0
  0
LINE
  5
6A4
  8
DETAIL
  6
CONTINUOUS
 62
     5
 10
189.5000169999999
 20
-51.572507
 30
0.0
 11
194.0000169999999
 21
-51.572507
 31
0.0
  0
LINE
  5
6A5
  8
DETAIL
  6
CONTINUOUS
 62
     5
 10
255.999826
 20
-65.70007199999999
 30
0.0
 11
195.5000169999999
 21
-65.70007199999999
 31
0.0
  0
LINE
  5
6A6
  8
DETAIL
  6
CONTINUOUS
 62
     5
 10
194.000026
 20
-48.697502
 30
0.0
 11
194.500026
 21
-49.547502
 31
0.0
  0
LINE
  5
6A7
  8
DETAIL
  6
CONTINUOUS
 62
     5
 10
194.500014
 20
-49.547507
 30
0.0
 11
194.500014
 21
-59.34750300000001
 31
0.0
  0
LINE
  5
6A8
  8
DETAIL
  6
CONTINUOUS
 62
     5
 10
194.500026
 20
-59.347509
 30
0.0
 11
194.000026
 21
-60.197509
 31
0.0
  0
ARC
  5
6A9
  8
DETAIL
  6
CONTINUOUS
 62
     5
 10
192.1836109999999
 20
-58.760005
 30
0.0
 40
2.316406
 50
0.0
 51
38.35805299999988
  0
ARC
  5
6AA
  8
DETAIL
  6
CONTINUOUS
 62
     5
 10
185.9843929999999
 20
-54.44750500000001
 30
0.0
 40
8.515624
 50
340.2684209999997
 51
19.73166999999994
  0
ARC
  5
6AB
  8
DETAIL
  6
CONTINUOUS
 62
     5
 10
192.1836109999999
 20
-50.135006
 30
0.0
 40
2.316406
 50
321.6420030000001
 51
0.0
  0
LINE
  5
6AC
  8
DETAIL
  6
CONTINUOUS
 62
     5
 10
114.500028
 20
-10.67452199999999
 30
0.0
 11
114.500028
 21
-58.70007300000001
 31
0.0
  0
LINE
  5
6AD
  8
DETAIL
  6
CONTINUOUS
 62
     5
 10
109.500034
 20
-0.000081
 30
0.0
 11
109.500034
 21
-25.920213
 31
0.0
  0
ARC
  5
6AE
  8
DETAIL
  6
CONTINUOUS
 62
     5
 10
110.554456
 20
-11.500064
 30
0.0
 40
1.8
 50
270.0
 51
314.9999639999999
  0
LINE
  5
6AF
  8
DETAIL
  6
CONTINUOUS
 62
     5
 10
121.500027
 20
-65.70007199999999
 30
0.0
 11
145.999028
 21
-65.70007199999999
 31
0.0
  0
LINE
  5
6B0
  8
DETAIL
  6
CONTINUOUS
 62
     5
 10
189.5000169999999
 20
-60.197504
 30
0.0
 11
189.5000169999999
 21
-48.697507
 31
0.0
  0
ARC
  5
6B1
  8
DETAIL
  6
CONTINUOUS
 62
     5
 10
112.900037
 20
-44.100081
 30
0.0
 40
1.6
 50
90.0
 51
180.0000190144419
  0
ARC
  5
6B2
  8
DETAIL
  6
CONTINUOUS
 62
     5
 10
121.500027
 20
-58.70007300000001
 30
0.0
 40
6.999998999999998
 50
180.0000189952644
 51
270.0
  0
LINE
  5
6B3
  8
DETAIL
  6
CONTINUOUS
 62
     5
 10
139.000024
 20
-67.300063
 30
0.0
 11
139.000024
 21
-65.70007199999999
 31
0.0
  0
ARC
  5
6B4
  8
DETAIL
  6
CONTINUOUS
 62
     5
 10
138.400018
 20
-67.300063
 30
0.0
 40
1.6
 50
270.0
 51
359.999927998985
  0
LINE
  5
6B5
  8
DETAIL
  6
CONTINUOUS
 62
     5
 10
131.000025
 20
-67.300063
 30
0.0
 11
131.000025
 21
-65.70007199999999
 31
0.0
  0
ARC
  5
6B6
  8
DETAIL
  6
CONTINUOUS
 62
     5
 10
132.600031
 20
-67.300063
 30
0.0
 40
1.6
 50
180.0000190144419
 51
270.0
  0
LINE
  5
6B7
  8
DETAIL
  6
CONTINUOUS
 62
     5
 10
132.600031
 20
-68.90006899999999
 30
0.0
 11
138.400018
 21
-68.90006899999999
 31
0.0
  0
LINE
  5
6B8
  8
DETAIL
  6
CONTINUOUS
 62
     5
 10
111.300031
 20
-44.100081
 30
0.0
 11
111.300031
 21
-49.90006799999999
 31
0.0
  0
LINE
  5
6B9
  8
DETAIL
  6
CONTINUOUS
 62
     5
 10
112.900037
 20
-51.50007399999999
 30
0.0
 11
114.500028
 21
-51.50007399999999
 31
0.0
  0
ARC
  5
6BA
  8
DETAIL
  6
CONTINUOUS
 62
     5
 10
112.900037
 20
-49.90006799999999
 30
0.0
 40
1.6
 50
180.0000190144419
 51
270.0
  0
LINE
  5
6BB
  8
DETAIL
  6
CONTINUOUS
 62
     5
 10
112.900037
 20
-42.500075
 30
0.0
 11
114.500028
 21
-42.500075
 31
0.0
  0
LINE
  5
6BC
  8
DETAIL
  6
DASHDOT
 62
     5
 10
107.500028
 20
-47.000075
 30
0.0
 11
116.500027
 21
-47.000075
 31
0.0
  0
ARC
  5
6BD
  8
DETAIL
  6
CONTINUOUS
 62
     5
 10
115.777692
 20
-30.000184
 30
0.0
 40
4.677707999999999
 50
105.851157
 51
254.1488260000001
  0
LINE
  5
6BE
  8
DETAIL
  6
CONTINUOUS
 62
     5
 10
109.325729
 20
-25.90496299999999
 30
0.0
 11
105.696404
 21
-25.587442
 31
0.0
  0
LINE
  5
6BF
  8
DETAIL
  6
CONTINUOUS
 62
     5
 10
105.197031
 20
-25.543753
 30
0.0
 11
99.828961
 21
-25.074114
 31
0.0
  0
LINE
  5
6C0
  8
DETAIL
  6
CONTINUOUS
 62
     5
 10
109.500034
 20
-13.300082
 30
0.0
 11
110.554456
 21
-13.300082
 31
0.0
  0
LINE
  5
6C1
  8
DETAIL
  6
CONTINUOUS
 62
     5
 10
109.500034
 20
25.920043
 30
0.0
 11
109.500034
 21
-0.000081
 31
0.0
  0
LINE
  5
6C2
  8
DETAIL
  6
CONTINUOUS
 62
     5
 10
114.500031
 20
10.099876
 30
0.0
 11
111.827255
 21
12.772674
 31
0.0
  0
LINE
  5
6C3
  8
DETAIL
  6
CONTINUOUS
 62
     5
 10
111.300031
 20
-2.760527999999998
 30
0.0
 11
111.300031
 21
13.13822999999998
 31
0.0
  0
LINE
  5
6C4
  8
DETAIL
  6
CONTINUOUS
 62
     5
 10
114.500028
 20
-0.000081
 30
0.0
 11
114.500028
 21
-10.67452199999999
 31
0.0
  0
LINE
  5
6C5
  8
DETAIL
  6
CONTINUOUS
 62
     5
 10
114.50003
 20
-10.10008699999999
 30
0.0
 11
114.335795
 21
-10.264322
 31
0.0
  0
LINE
  5
6C6
  8
DETAIL
  6
CONTINUOUS
 62
     5
 10
111.300031
 20
-13.138392
 30
0.0
 11
111.300031
 21
-2.760527999999998
 31
0.0
  0
LINE
  5
6C7
  8
DETAIL
  6
CONTINUOUS
 62
     5
 10
111.99488
 20
-12.60525099999999
 30
0.0
 11
111.82725
 21
-12.772882
 31
0.0
  0
LINE
  5
6C8
  8
DETAIL
  6
CONTINUOUS
 62
     5
 10
114.500031
 20
-10.100038
 30
0.0
 11
111.827255
 21
-12.772836
 31
0.0
  0
ARC
  5
6C9
  8
DETAIL
  6
CONTINUOUS
 62
     5
 10
110.554456
 20
11.499902
 30
0.0
 40
1.8
 50
45.00000100000008
 51
90.0
  0
LINE
  5
6CA
  8
DETAIL
  6
CONTINUOUS
 62
     5
 10
100.400037
 20
-0.000081
 30
0.0
 11
100.400037
 21
-0.000081
 31
0.0
  0
LINE
  5
6CB
  8
DETAIL
  6
CONTINUOUS
 62
     5
 10
100.400037
 20
-0.000081
 30
0.0
 11
100.400037
 21
-0.000081
 31
0.0
  0
LINE
  5
6CC
  8
DETAIL
  6
CONTINUOUS
 62
     5
 10
109.500034
 20
13.29992
 30
0.0
 11
110.554456
 21
13.29992
 31
0.0
  0
ARC
  5
6CD
  8
DETAIL
  6
CONTINUOUS
 62
     5
 10
115.777692
 20
30.00002199999999
 30
0.0
 40
4.677707999999999
 50
105.851157
 51
254.1488260000001
  0
LINE
  5
6CE
  8
DETAIL
  6
CONTINUOUS
 62
     5
 10
109.325729
 20
25.904801
 30
0.0
 11
99.828961
 21
25.07395199999999
 31
0.0
  0
ARC
  5
6CF
  8
DETAIL
  6
CONTINUOUS
 62
     5
 10
195.5000169999999
 20
71.69990899999998
 30
0.0
 40
5.999998999999998
 50
180.0
 51
270.0
  0
LINE
  5
6D0
  8
DETAIL
  6
CONTINUOUS
 62
     5
 10
189.5000169999999
 20
48.697344
 30
0.0
 11
194.0000169999999
 21
48.697344
 31
0.0
  0
LINE
  5
6D1
  8
DETAIL
  6
CONTINUOUS
 62
     5
 10
194.0000169999999
 20
60.19734299999999
 30
0.0
 11
189.5000169999999
 21
60.19734299999999
 31
0.0
  0
LINE
  5
6D2
  8
DETAIL
  6
CONTINUOUS
 62
     5
 10
189.5000169999999
 20
57.322343
 30
0.0
 11
194.0000169999999
 21
57.322343
 31
0.0
  0
LINE
  5
6D3
  8
DETAIL
  6
CONTINUOUS
 62
     5
 10
189.5000169999999
 20
51.572345
 30
0.0
 11
194.0000169999999
 21
51.572345
 31
0.0
  0
ARC
  5
6D4
  8
DETAIL
  6
CONTINUOUS
 62
     5
 10
185.475238
 20
76.999695
 30
0.0
 40
7.224736
 50
303.8542979999999
 51
56.14561299999992
  0
LINE
  5
6D5
  8
DETAIL
  6
CONTINUOUS
 62
     5
 10
255.999826
 20
65.69991
 30
0.0
 11
195.5000169999999
 21
65.69991
 31
0.0
  0
LINE
  5
6D6
  8
DETAIL
  6
CONTINUOUS
 62
     5
 10
194.000026
 20
48.69733899999999
 30
0.0
 11
194.500026
 21
49.54734000000001
 31
0.0
  0
LINE
  5
6D7
  8
DETAIL
  6
CONTINUOUS
 62
     5
 10
194.500014
 20
49.547345
 30
0.0
 11
194.500014
 21
59.347341
 31
0.0
  0
LINE
  5
6D8
  8
DETAIL
  6
CONTINUOUS
 62
     5
 10
194.500026
 20
59.34734699999999
 30
0.0
 11
194.000026
 21
60.197347
 31
0.0
  0
ARC
  5
6D9
  8
DETAIL
  6
CONTINUOUS
 62
     5
 10
192.1836109999999
 20
58.75984299999998
 30
0.0
 40
2.316406
 50
321.6419470000001
 51
359.999982009873
  0
ARC
  5
6DA
  8
DETAIL
  6
CONTINUOUS
 62
     5
 10
185.9843929999999
 20
54.447343
 30
0.0
 40
8.515624
 50
340.2683299999999
 51
19.73157900000002
  0
ARC
  5
6DB
  8
DETAIL
  6
CONTINUOUS
 62
     5
 10
192.1836109999999
 20
50.134844
 30
0.0
 40
2.316406
 50
359.999982009873
 51
38.35799699999989
  0
LINE
  5
6DC
  8
DETAIL
  6
CONTINUOUS
 62
     5
 10
177.9990149999999
 20
82.499903
 30
0.0
 11
177.9990149999999
 21
110.487557
 31
0.0
  0
LINE
  5
6DD
  8
DETAIL
  6
CONTINUOUS
 62
     5
 10
121.500027
 20
65.69991
 30
0.0
 11
145.999028
 21
65.69991
 31
0.0
  0
LINE
  5
6DE
  8
DETAIL
  6
CONTINUOUS
 62
     5
 10
189.5000169999999
 20
84.99990699999996
 30
0.0
 11
189.5000169999999
 21
71.69990899999998
 31
0.0
  0
LINE
  5
6DF
  8
DETAIL
  6
CONTINUOUS
 62
     5
 10
185.5000179999999
 20
84.99990699999996
 30
0.0
 11
185.5000179999999
 21
71.69990899999998
 31
0.0
  0
LINE
  5
6E0
  8
DETAIL
  6
CONTINUOUS
 62
     5
 10
185.5000179999999
 20
84.99990699999996
 30
0.0
 11
185.5000179999999
 21
71.69990899999998
 31
0.0
  0
CIRCLE
  5
6E1
  8
DETAIL
  6
CONTINUOUS
 62
     5
 10
161.9990219999999
 20
64.999904
 30
0.0
 40
8.499999
  0
LINE
  5
6E2
  8
DETAIL
  6
CONTINUOUS
 62
     5
 10
185.4990179999998
 20
82.49981099999997
 30
0.0
 11
145.999028
 21
82.49981099999997
 31
0.0
  0
LINE
  5
6E3
  8
DETAIL
  6
CONTINUOUS
 62
     5
 10
185.5000179999999
 20
84.99990699999996
 30
0.0
 11
189.5000169999999
 21
84.99990699999996
 31
0.0
  0
ARC
  5
6E4
  8
DETAIL
  6
CONTINUOUS
 62
     5
 10
121.500027
 20
58.699911
 30
0.0
 40
6.999998999999998
 50
90.0
 51
180.0
  0
ARC
  5
6E5
  8
DETAIL
  6
DASHED
 62
     5
 10
1207.446011999999
 20
-224.780281
 30
0.0
 40
1174.028929999999
 50
159.639369
 51
160.7592939999999
  0
ARC
  5
6E6
  8
DETAIL
  6
DASHED
 62
     5
 10
200.019447
 20
118.6649669999999
 30
0.0
 40
110.8139329999999
 50
150.5063879999999
 51
150.5165509999999
  0
LINE
  5
6E7
  8
DETAIL
  6
CONTINUOUS
 62
     5
 10
9.999836000000023
 20
-0.000081
 30
0.0
 11
9.999836000000023
 21
251.999817
 31
0.0
  0
LINE
  5
6E8
  8
DETAIL
  6
CONTINUOUS
 62
     5
 10
68.40017799999997
 20
-0.000081
 30
0.0
 11
68.40017799999997
 21
173.2221079999999
 31
0.0
  0
LINE
  5
6E9
  8
DETAIL
  6
CONTINUOUS
 62
     5
 10
68.40017799999997
 20
-173.222247
 30
0.0
 11
68.40017799999997
 21
-0.000081
 31
0.0
  0
LINE
  5
6EA
  8
DETAIL
  6
CONTINUOUS
 62
     5
 10
75.99990200000002
 20
-173.222247
 30
0.0
 11
18.99995800000001
 21
-173.222247
 31
0.0
  0
ARC
  5
6EB
  8
DETAIL
  6
CONTINUOUS
 62
     5
 10
23.62472000000003
 20
-163.4170929999999
 30
0.0
 40
1.624999
 50
359.9999279939232
 51
90.0
  0
LINE
  5
6EC
  8
DETAIL
  6
DASHED
 62
     5
 10
28.39992000000002
 20
-171.8545839999999
 30
0.0
 11
25.24988400000002
 21
-171.8545839999999
 31
0.0
  0
LINE
  5
6ED
  8
DETAIL
  6
DASHED
 62
     5
 10
28.39992000000002
 20
-166.1045839999998
 30
0.0
 11
25.24988400000002
 21
-166.1045839999998
 31
0.0
  0
LINE
  5
6EE
  8
DETAIL
  6
CONTINUOUS
 62
     5
 10
28.39992000000002
 20
-165.2296169999999
 30
0.0
 11
25.24988400000002
 21
-165.2296169999999
 31
0.0
  0
LINE
  5
6EF
  8
DETAIL
  6
CONTINUOUS
 62
     5
 10
18.99959200000002
 20
-165.54209
 30
0.0
 11
23.62472000000003
 21
-165.54209
 31
0.0
  0
ARC
  5
6F0
  8
DETAIL
  6
CONTINUOUS
 62
     5
 10
23.62472000000003
 20
-163.917087
 30
0.0
 40
1.624999
 50
270.0
 51
359.9999279939232
  0
ARC
  5
6F1
  8
DETAIL
  6
CONTINUOUS
 62
     5
 10
21.10681399999999
 20
-169.119898
 30
0.0
 40
4.148873
 50
307.3695499999999
 51
54.85842300000007
  0
LINE
  5
6F2
  8
DETAIL
  6
CONTINUOUS
 62
     5
 10
25.24988400000002
 20
-163.4170929999999
 30
0.0
 11
25.24988400000002
 21
-173.22227
 31
0.0
  0
LINE
  5
6F3
  8
DETAIL
  6
CONTINUOUS
 62
     5
 10
18.99959200000002
 20
-172.417078
 30
0.0
 11
23.62472000000003
 21
-172.417078
 31
0.0
  0
ARC
  5
6F4
  8
DETAIL
  6
CONTINUOUS
 62
     5
 10
23.62472000000003
 20
-174.042104
 30
0.0
 40
1.624999
 50
359.9999279939232
 51
90.0
  0
LINE
  5
6F5
  8
DETAIL
  6
CONTINUOUS
 62
     5
 10
28.39992000000002
 20
-172.7296199999999
 30
0.0
 11
25.24988400000002
 21
-172.7296199999999
 31
0.0
  0
LINE
  5
6F6
  8
DETAIL
  6
CONTINUOUS
 62
     5
 10
28.39992000000002
 20
-172.7296199999999
 30
0.0
 11
28.39992000000002
 21
-165.2296169999999
 31
0.0
  0
LINE
  5
6F7
  8
DETAIL
  6
CONTINUOUS
 62
     5
 10
18.99959200000002
 20
-176.167102
 30
0.0
 11
23.62472000000003
 21
-176.167102
 31
0.0
  0
ARC
  5
6F8
  8
DETAIL
  6
CONTINUOUS
 62
     5
 10
23.62472000000003
 20
-174.542075
 30
0.0
 40
1.624999
 50
270.0
 51
359.9999279939232
  0
LINE
  5
6F9
  8
DETAIL
  6
CONTINUOUS
 62
     5
 10
18.99959200000002
 20
-161.7920889999998
 30
0.0
 11
23.62472000000003
 21
-161.7920889999998
 31
0.0
  0
LINE
  5
6FA
  8
DETAIL
  6
CONTINUOUS
 62
     5
 10
10.60035000000001
 20
-146.3521639999999
 30
0.0
 11
18.99995800000001
 21
-146.3521639999999
 31
0.0
  0
LINE
  5
6FB
  8
DETAIL
  6
CONTINUOUS
 62
     5
 10
94.800039
 20
-17.41808199999999
 30
0.0
 11
94.800039
 21
-8.688513
 31
0.0
  0
LINE
  5
6FC
  8
DETAIL
  6
CONTINUOUS
 62
     5
 10
95.28375299999999
 20
-20.52891999999999
 30
0.0
 11
95.01159100000001
 21
-17.41808199999999
 31
0.0
  0
LINE
  5
6FD
  8
DETAIL
  6
CONTINUOUS
 62
     5
 10
65.53237
 20
-33.89487899999998
 30
0.0
 11
65.57189599999998
 21
-33.884175
 31
0.0
  0
LINE
  5
6FE
  8
DETAIL
  6
CONTINUOUS
 62
     5
 10
74.55185699999998
 20
-33.89490999999999
 30
0.0
 11
74.51264599999999
 21
-33.88426799999999
 31
0.0
  0
LINE
  5
6FF
  8
DETAIL
  6
CONTINUOUS
 62
     5
 10
65.53237
 20
-33.89487899999998
 30
0.0
 11
65.57189599999998
 21
-33.884175
 31
0.0
  0
LINE
  5
700
  8
DETAIL
  6
CONTINUOUS
 62
     5
 10
74.55185699999998
 20
-33.89490999999999
 30
0.0
 11
74.51264599999999
 21
-33.88426799999999
 31
0.0
  0
LINE
  5
701
  8
DETAIL
  6
CONTINUOUS
 62
     5
 10
95.28375299999999
 20
20.528758
 30
0.0
 11
94.800041
 21
14.999868
 31
0.0
  0
LINE
  5
702
  8
DETAIL
  6
CONTINUOUS
 62
     5
 10
69.04518300000001
 20
8.499918
 30
0.0
 11
82.684778
 21
8.499918
 31
0.0
  0
LINE
  5
703
  8
DETAIL
  6
CONTINUOUS
 62
     5
 10
94.800039
 20
-8.50008
 30
0.0
 11
70.00008600000001
 21
-8.50008
 31
0.0
  0
LINE
  5
704
  8
DETAIL
  6
CONTINUOUS
 62
     5
 10
94.800039
 20
14.999864
 30
0.0
 11
94.800039
 21
1.730877999999996
 31
0.0
  0
LINE
  5
705
  8
DETAIL
  6
CONTINUOUS
 62
     5
 10
94.800039
 20
-8.50008
 30
0.0
 11
93.627418
 21
-8.50008
 31
0.0
  0
LINE
  5
706
  8
DETAIL
  6
CONTINUOUS
 62
     5
 10
91.97745900000001
 20
8.499918
 30
0.0
 11
94.800039
 21
8.499918
 31
0.0
  0
ARC
  5
707
  8
DETAIL
  6
CONTINUOUS
 62
     5
 10
4407.310284
 20
-2101.488386
 30
0.0
 40
4869.982465999999
 50
152.280058
 51
152.951425
  0
LINE
  5
708
  8
DETAIL
  6
CONTINUOUS
 62
     5
 10
18.99995800000001
 20
146.352025
 30
0.0
 11
18.99995800000001
 21
207.2097869999999
 31
0.0
  0
ARC
  5
709
  8
DETAIL
  6
CONTINUOUS
 62
     5
 10
23.62472000000003
 20
163.416931
 30
0.0
 40
1.624999
 50
270.0
 51
0.0000369990471027
  0
LINE
  5
70A
  8
DETAIL
  6
CONTINUOUS
 62
     5
 10
18.99995800000001
 20
146.352025
 30
0.0
 11
10.00006500000002
 21
146.352025
 31
0.0
  0
ARC
  5
70B
  8
DETAIL
  6
CONTINUOUS
 62
     5
 10
1.999793000000032
 20
251.999817
 30
0.0
 40
7.999997999999999
 50
0.0
 51
90.0
  0
LINE
  5
70C
  8
DETAIL
  6
CONTINUOUS
 62
     5
 10
68.40009199999996
 20
237.999976
 30
0.0
 11
68.40009199999996
 21
200.092215
 31
0.0
  0
LINE
  5
70D
  8
DETAIL
  6
CONTINUOUS
 62
     5
 10
18.99995800000001
 20
226.9621839999998
 30
0.0
 11
18.99995800000001
 21
207.099795
 31
0.0
  0
ARC
  5
70E
  8
DETAIL
  6
CONTINUOUS
 62
     5
 10
33.39986100000002
 20
239.0998509999997
 30
0.0
 40
34.999974
 50
270.0
 51
358.1991820000001
  0
LINE
  5
70F
  8
DETAIL
  6
CONTINUOUS
 62
     5
 10
87.99991999999997
 20
200.092215
 30
0.0
 11
25.24988400000002
 21
200.092215
 31
0.0
  0
LINE
  5
710
  8
DETAIL
  6
CONTINUOUS
 62
     5
 10
89.99989599999998
 20
195.8495169999999
 30
0.0
 11
18.99995800000001
 21
195.8495169999999
 31
0.0
  0
LINE
  5
711
  8
DETAIL
  6
CONTINUOUS
 62
     5
 10
75.99990200000002
 20
173.2221079999999
 30
0.0
 11
28.39992000000002
 21
173.2221079999999
 31
0.0
  0
LINE
  5
712
  8
DETAIL
  6
CONTINUOUS
 62
     5
 10
18.99959200000002
 20
176.1669399999999
 30
0.0
 11
23.62472000000003
 21
176.1669399999999
 31
0.0
  0
LINE
  5
713
  8
DETAIL
  6
CONTINUOUS
 62
     5
 10
18.99959200000002
 20
172.4169149999999
 30
0.0
 11
23.62472000000003
 21
172.4169149999999
 31
0.0
  0
LINE
  5
714
  8
DETAIL
  6
CONTINUOUS
 62
     5
 10
18.99959200000002
 20
161.7919269999999
 30
0.0
 11
23.62472000000003
 21
161.7919269999999
 31
0.0
  0
LINE
  5
715
  8
DETAIL
  6
CONTINUOUS
 62
     5
 10
18.99959200000002
 20
165.541928
 30
0.0
 11
23.62472000000003
 21
165.541928
 31
0.0
  0
LINE
  5
716
  8
DETAIL
  6
CONTINUOUS
 62
     5
 10
25.24988400000002
 20
174.5419129999999
 30
0.0
 11
25.24988400000002
 21
163.416931
 31
0.0
  0
ARC
  5
717
  8
DETAIL
  6
CONTINUOUS
 62
     5
 10
21.10681399999999
 20
169.1197359999998
 30
0.0
 40
4.148873
 50
305.1415429999999
 51
52.630415
  0
ARC
  5
718
  8
DETAIL
  6
CONTINUOUS
 62
     5
 10
23.62472000000003
 20
163.9169249999999
 30
0.0
 40
1.624999
 50
0.0000550005197429
 51
90.0
  0
ARC
  5
719
  8
DETAIL
  6
CONTINUOUS
 62
     5
 10
23.62472000000003
 20
174.5419129999999
 30
0.0
 40
1.624999
 50
0.0000550005197429
 51
90.0
  0
ARC
  5
71A
  8
DETAIL
  6
CONTINUOUS
 62
     5
 10
23.62472000000003
 20
174.041942
 30
0.0
 40
1.624999
 50
270.0
 51
0.0000369990471027
  0
LINE
  5
71B
  8
DETAIL
  6
CONTINUOUS
 62
     5
 10
28.39992000000002
 20
172.979455
 30
0.0
 11
25.24988400000002
 21
172.979455
 31
0.0
  0
LINE
  5
71C
  8
DETAIL
  6
CONTINUOUS
 62
     5
 10
28.39992000000002
 20
164.979458
 30
0.0
 11
25.24988400000002
 21
164.979458
 31
0.0
  0
LINE
  5
71D
  8
DETAIL
  6
CONTINUOUS
 62
     5
 10
28.39992000000002
 20
171.779455
 30
0.0
 11
25.24988400000002
 21
171.779455
 31
0.0
  0
LINE
  5
71E
  8
DETAIL
  6
CONTINUOUS
 62
     5
 10
28.39992000000002
 20
166.179457
 30
0.0
 11
25.24988400000002
 21
166.179457
 31
0.0
  0
LINE
  5
71F
  8
DETAIL
  6
CONTINUOUS
 62
     5
 10
28.39992000000002
 20
172.979455
 30
0.0
 11
28.39992000000002
 21
164.979458
 31
0.0
  0
LINE
  5
720
  8
DETAIL
  6
CONTINUOUS
 62
     5
 10
33.39986100000002
 20
204.0998539999999
 30
0.0
 11
28.39992000000002
 21
204.0998539999999
 31
0.0
  0
ARC
  5
721
  8
DETAIL
  6
DASHED
 62
     5
 10
28.03676000000002
 20
196.037254
 30
0.0
 40
2.0
 50
23.68521199999968
 51
168.6570169999997
  0
ARC
  5
722
  8
DETAIL
  6
CONTINUOUS
 62
     5
 10
23.62472000000003
 20
210.4019619999998
 30
0.0
 40
1.624999
 50
270.0
 51
359.9999279939232
  0
ARC
  5
723
  8
DETAIL
  6
CONTINUOUS
 62
     5
 10
23.62472000000003
 20
210.901956
 30
0.0
 40
1.624999
 50
359.9999279939232
 51
90.0
  0
LINE
  5
724
  8
DETAIL
  6
CONTINUOUS
 62
     5
 10
18.99959200000002
 20
208.776958
 30
0.0
 11
23.62472000000003
 21
208.776958
 31
0.0
  0
LINE
  5
725
  8
DETAIL
  6
CONTINUOUS
 62
     5
 10
18.99959200000002
 20
212.5269589999998
 30
0.0
 11
23.62472000000003
 21
212.5269589999998
 31
0.0
  0
LINE
  5
726
  8
DETAIL
  6
CONTINUOUS
 62
     5
 10
28.39992000000002
 20
208.1394289999999
 30
0.0
 11
25.24988400000002
 21
208.1394289999999
 31
0.0
  0
LINE
  5
727
  8
DETAIL
  6
CONTINUOUS
 62
     5
 10
28.39992000000002
 20
209.339428
 30
0.0
 11
25.24988400000002
 21
209.339428
 31
0.0
  0
LINE
  5
728
  8
DETAIL
  6
CONTINUOUS
 62
     5
 10
25.24988400000002
 20
199.776973
 30
0.0
 11
25.24988400000002
 21
210.901956
 31
0.0
  0
ARC
  5
729
  8
DETAIL
  6
CONTINUOUS
 62
     5
 10
21.10681399999999
 20
205.19915
 30
0.0
 40
4.148873
 50
307.3695499999999
 51
54.85842300000007
  0
LINE
  5
72A
  8
DETAIL
  6
CONTINUOUS
 62
     5
 10
28.39992000000002
 20
201.3394319999999
 30
0.0
 11
28.39992000000002
 21
209.339428
 31
0.0
  0
ARC
  5
72B
  8
DETAIL
  6
CONTINUOUS
 62
     5
 10
23.62472000000003
 20
200.2769439999999
 30
0.0
 40
1.624999
 50
359.9999279939232
 51
90.0
  0
LINE
  5
72C
  8
DETAIL
  6
CONTINUOUS
 62
     5
 10
18.99959200000002
 20
201.901971
 30
0.0
 11
23.62472000000003
 21
201.901971
 31
0.0
  0
LINE
  5
72D
  8
DETAIL
  6
CONTINUOUS
 62
     5
 10
28.39992000000002
 20
202.539431
 30
0.0
 11
25.24988400000002
 21
202.539431
 31
0.0
  0
LINE
  5
72E
  8
DETAIL
  6
CONTINUOUS
 62
     5
 10
28.39992000000002
 20
201.3394319999999
 30
0.0
 11
25.24988400000002
 21
201.3394319999999
 31
0.0
  0
LINE
  5
72F
  8
DETAIL
  6
CONTINUOUS
 62
     5
 10
18.99959200000002
 20
198.151947
 30
0.0
 11
23.62472000000003
 21
198.151947
 31
0.0
  0
ARC
  5
730
  8
DETAIL
  6
CONTINUOUS
 62
     5
 10
23.62472000000003
 20
199.776973
 30
0.0
 40
1.624999
 50
270.0
 51
359.9999279939232
  0
LINE
  5
731
  8
DETAIL
  6
CONTINUOUS
 62
     5
 10
68.38246300000003
 20
237.999976
 30
0.0
 11
70.0
 21
237.999976
 31
0.0
  0
LINE
  5
732
  8
DETAIL
  6
CONTINUOUS
 62
     5
 10
18.99995800000001
 20
226.9621839999998
 30
0.0
 11
10.00006500000002
 21
226.9621839999998
 31
0.0
  0
LINE
  5
733
  8
DETAIL
  6
CONTINUOUS
 62
     5
 10
1.999793000000032
 20
259.999976
 30
0.0
 11
-0.0001829999999856
 21
259.999976
 31
0.0
  0
LINE
  5
734
  8
DETAIL
  6
CONTINUOUS
 62
     5
 10
-0.0001829999999856
 20
259.999976
 30
0.0
 11
0.000183000000014
 21
-259.999976
 31
0.0
  0
LINE
  5
735
  8
DETAIL
  6
CONTINUOUS
 62
     5
 10
70.00008600000001
 20
-238.000024
 30
0.0
 11
68.40017799999997
 21
-238.000024
 31
0.0
  0
LINE
  5
736
  8
DETAIL
  6
CONTINUOUS
 62
     5
 10
0.0
 20
230.0
 30
0.0
 11
0.0
 21
-230.0
 31
0.0
  0
CIRCLE
  5
737
  8
FIX
  6
CONTINUOUS
 62
    11
 10
0.0
 20
230.0
 30
0.0
 40
7.5
  0
CIRCLE
  5
738
  8
FIX
  6
CONTINUOUS
 62
    11
 10
0.0
 20
-230.0
 30
0.0
 40
7.5
  0
LINE
  5
739
  8
NOTE
  6
CONTINUOUS
 62
     4
 10
0.0
 20
210.0
 30
0.0
 11
0.0
 21
250.0
 31
0.0
  0
LINE
  5
73A
  8
NOTE
  6
CONTINUOUS
 62
     4
 10
20.00000000000001
 20
230.0
 30
0.0
 11
-19.99999999999994
 21
230.0
 31
0.0
  0
LINE
  5
73B
  8
NOTE
  6
CONTINUOUS
 62
     4
 10
0.0
 20
-250.0
 30
0.0
 11
0.0
 21
-210.0
 31
0.0
  0
LINE
  5
73C
  8
NOTE
  6
CONTINUOUS
 62
     4
 10
20.00000000000001
 20
-230.0
 30
0.0
 11
-19.99999999999994
 21
-230.0
 31
0.0
  0
LINE
  5
73D
  8
SIZE
  6
CONTINUOUS
 62
    30
 10
287.7801809999998
 20
65.99991
 30
0.0
 11
515.974607
 21
65.99991
 31
0.0
  0
LINE
  5
73E
  8
SIZE
  6
CONTINUOUS
 62
    30
 10
287.7801809999998
 20
-66.00009599999998
 30
0.0
 11
515.974607
 21
-66.00009599999998
 31
0.0
  0
LINE
  5
73F
  8
SIZE
  6
CONTINUOUS
 62
    30
 10
485.974607
 20
63.99990999999999
 30
0.0
 11
485.974607
 21
-64.000096
 31
0.0
  0
TEXT
  5
740
  8
SIZE
  6
CONTINUOUS
 62
    30
 10
431.8840949999999
 20
-115.656056
 30
0.0
 40
64.0
  1
φ132
 50
90.0
 41
0.9
 72
     1
 11
431.8840949999999
 21
-15.72005599999999
 31
0.0
  0
CIRCLE
  5
741
  8
SIZE
  6
CONTINUOUS
 62
    30
 10
485.974607
 20
65.99991
 30
0.0
 40
6.0
  0
CIRCLE
  5
742
  8
SIZE
  6
CONTINUOUS
 62
    30
 10
485.974607
 20
-66.00009599999998
 30
0.0
 40
6.0
  0
LINE
  5
743
  8
SIZE
  6
CONTINUOUS
 62
    30
 10
89.847014
 20
237.999976
 30
0.0
 11
653.737741
 21
237.999976
 31
0.0
  0
LINE
  5
744
  8
SIZE
  6
CONTINUOUS
 62
    30
 10
90.00008600000001
 20
-238.000024
 30
0.0
 11
653.737741
 21
-238.000024
 31
0.0
  0
LINE
  5
745
  8
SIZE
  6
CONTINUOUS
 62
    30
 10
623.7377409999999
 20
235.999976
 30
0.0
 11
623.7377409999999
 21
-236.000024
 31
0.0
  0
CIRCLE
  5
746
  8
SIZE
  6
CONTINUOUS
 62
    30
 10
623.7377409999999
 20
237.999976
 30
0.0
 40
6.0
  0
CIRCLE
  5
747
  8
SIZE
  6
CONTINUOUS
 62
    30
 10
623.7377409999999
 20
-238.000024
 30
0.0
 40
6.0
  0
TEXT
  5
748
  8
SIZE
  6
CONTINUOUS
 62
    30
 10
603.737741
 20
-105.350424
 30
0.0
 40
64.0
  1
φ476
 50
90.0
 41
0.9
 72
     1
 11
603.737741
 21
-0.000024
 31
0.0
  0
LINE
  5
749
  8
DETAIL
  6
CONTINUOUS
 62
     5
 10
9.999836000000023
 20
233.613674
 30
0.0
 11
10.00128700000001
 21
233.613674
 31
0.0
  0
LINE
  5
74A
  8
SIZE
  6
CONTINUOUS
 62
    30
 10
-0.0001829999999856
 20
279.999952
 30
0.0
 11
-0.0001829999999856
 21
336.665048
 31
0.0
  0
LINE
  5
74B
  8
SIZE
  6
CONTINUOUS
 62
    30
 10
9.999836000000023
 20
266.399679
 30
0.0
 11
9.999836000000023
 21
336.665048
 31
0.0
  0
LINE
  5
74C
  8
SIZE
  6
CONTINUOUS
 62
    30
 10
-2.000182999999986
 20
306.665048
 30
0.0
 11
-4.000182999999986
 21
306.665048
 31
0.0
  0
LINE
  5
74D
  8
SIZE
  6
CONTINUOUS
 62
    30
 10
11.99983600000002
 20
306.665048
 30
0.0
 11
13.99983600000002
 21
306.665048
 31
0.0
  0
LINE
  5
74E
  8
SIZE
  6
CONTINUOUS
 62
    30
 10
202.785767
 20
306.665048
 30
0.0
 11
9.999836000000023
 21
306.665048
 31
0.0
  0
TEXT
  5
74F
  8
SIZE
  6
CONTINUOUS
 62
    30
 10
93.086109
 20
326.665048
 30
0.0
 40
64.0
  1
10
 41
0.9
 72
     1
 11
141.642909
 21
326.665048
 31
0.0
  0
LINE
  5
750
  8
SIZE
  6
CONTINUOUS
 62
    30
 10
-0.0001829999999856
 20
306.665048
 30
0.0
 11
9.999836000000023
 21
306.665048
 31
0.0
  0
LINE
  5
751
  8
SIZE
  6
CONTINUOUS
 62
    30
 10
-0.0001829999999856
 20
306.665048
 30
0.0
 11
9.999836000000023
 21
306.665048
 31
0.0
  0
CIRCLE
  5
752
  8
SIZE
  6
CONTINUOUS
 62
    30
 10
-0.0001829999999856
 20
306.665048
 30
0.0
 40
6.0
  0
CIRCLE
  5
753
  8
SIZE
  6
CONTINUOUS
 62
    30
 10
9.999836000000023
 20
306.665048
 30
0.0
 40
6.0
  0
LINE
  5
754
  8
DETAIL
  6
CONTINUOUS
 62
     5
 10
70.0
 20
237.999976
 30
0.0
 11
70.0
 21
200.092215
 31
0.0
  0
LINE
  5
755
  8
DETAIL
  6
CONTINUOUS
 62
     5
 10
70.0
 20
173.2221079999999
 30
0.0
 11
70.0
 21
-173.222247
 31
0.0
  0
LINE
  5
756
  8
DETAIL
  6
CONTINUOUS
 62
     5
 10
70.0
 20
-200.0923779999999
 30
0.0
 11
70.00008600000001
 21
-238.000048
 31
0.0
  0
LINE
  5
757
  8
SIZE
  6
CONTINUOUS
 62
    30
 10
0.0
 20
250.0
 30
0.0
 11
0.0
 21
265.634499
 31
0.0
  0
LINE
  5
758
  8
SIZE
  6
CONTINUOUS
 62
    30
 10
0.0
 20
285.634499
 30
0.0
 11
0.0
 21
449.361136
 31
0.0
  0
LINE
  5
759
  8
SIZE
  6
CONTINUOUS
 62
    30
 10
70.0
 20
262.2003129999999
 30
0.0
 11
70.0
 21
449.361136
 31
0.0
  0
LINE
  5
75A
  8
SIZE
  6
CONTINUOUS
 62
    30
 10
2.0
 20
419.361136
 30
0.0
 11
68.0
 21
419.361136
 31
0.0
  0
LINE
  5
75B
  8
SIZE
  6
CONTINUOUS
 62
    30
 10
225.53795
 20
419.361136
 30
0.0
 11
70.0
 21
419.361136
 31
0.0
  0
TEXT
  5
75C
  8
SIZE
  6
CONTINUOUS
 62
    30
 10
104.9381789999999
 20
439.361136
 30
0.0
 40
64.0
  1
70
 41
0.9
 72
     1
 11
158.9093789999999
 21
439.361136
 31
0.0
  0
CIRCLE
  5
75D
  8
SIZE
  6
CONTINUOUS
 62
    30
 10
0.0
 20
419.361136
 30
0.0
 40
6.0
  0
CIRCLE
  5
75E
  8
SIZE
  6
CONTINUOUS
 62
    30
 10
70.0
 20
419.361136
 30
0.0
 40
6.0
  0
LINE
  5
75F
  8
SIZE
  6
CONTINUOUS
 62
    30
 10
-27.49999999999995
 20
230.0
 30
0.0
 11
-184.4577889999996
 21
230.0
 31
0.0
  0
LINE
  5
760
  8
SIZE
  6
CONTINUOUS
 62
    30
 10
-27.49999999999995
 20
-230.0
 30
0.0
 11
-184.4577889999996
 21
-230.0
 31
0.0
  0
LINE
  5
761
  8
SIZE
  6
CONTINUOUS
 62
    30
 10
-154.4577889999999
 20
228.0
 30
0.0
 11
-154.4577889999999
 21
-228.0
 31
0.0
  0
CIRCLE
  5
762
  8
SIZE
  6
CONTINUOUS
 62
    30
 10
-154.4577889999999
 20
230.0
 30
0.0
 40
6.0
  0
CIRCLE
  5
763
  8
SIZE
  6
CONTINUOUS
 62
    30
 10
-154.4577889999999
 20
-230.0
 30
0.0
 40
6.0
  0
TEXT
  5
764
  8
SIZE
  6
CONTINUOUS
 62
    30
 10
-174.4577889999996
 20
-80.9568
 30
0.0
 40
64.0
  1
460
 50
90.0
 41
0.9
 72
     1
 11
-174.4577889999996
 21
0.0
 31
0.0
  0
LINE
  5
765
  8
SIZE
  6
CONTINUOUS
 62
    30
 10
-20.000183
 20
259.999952
 30
0.0
 11
-314.7795019999996
 21
259.999952
 31
0.0
  0
LINE
  5
766
  8
SIZE
  6
CONTINUOUS
 62
    30
 10
-20.000183
 20
-260.0
 30
0.0
 11
-314.7795019999996
 21
-260.0
 31
0.0
  0
LINE
  5
767
  8
SIZE
  6
CONTINUOUS
 62
    30
 10
-284.7795019999998
 20
257.999952
 30
0.0
 11
-284.7795019999998
 21
-258.0
 31
0.0
  0
CIRCLE
  5
768
  8
SIZE
  6
CONTINUOUS
 62
    30
 10
-284.7795019999998
 20
259.999952
 30
0.0
 40
6.0
  0
CIRCLE
  5
769
  8
SIZE
  6
CONTINUOUS
 62
    30
 10
-284.7795019999998
 20
-260.0
 30
0.0
 40
6.0
  0
TEXT
  5
76A
  8
SIZE
  6
CONTINUOUS
 62
    30
 10
-304.7795019999996
 20
-80.956824
 30
0.0
 40
64.0
  1
520
 50
90.0
 41
0.9
 72
     1
 11
-304.7795019999996
 21
-0.000024
 31
0.0
  0
LINE
  5
76B
  8
DETAIL
  6
CONTINUOUS
 62
     5
 10
260.999826
 20
60.69990999999999
 30
0.0
 11
260.999826
 21
-60.700072
 31
0.0
  0
ARC
  5
76C
  8
DETAIL
  6
CONTINUOUS
 62
     5
 10
255.999826
 20
60.69990999999999
 30
0.0
 40
5.0
 50
0.0
 51
90.0
  0
ARC
  5
76D
  8
DETAIL
  6
CONTINUOUS
 62
     5
 10
255.999826
 20
-60.700072
 30
0.0
 40
5.0
 50
270.0
 51
0.0
  0
LINE
  5
76E
  8
SIZE
  6
CONTINUOUS
 62
    30
 10
-0.0001829999999856
 20
279.999952
 30
0.0
 11
-0.0001829999999856
 21
577.4926319999998
 31
0.0
  0
LINE
  5
76F
  8
SIZE
  6
CONTINUOUS
 62
    30
 10
260.999826
 20
72.22403699999998
 30
0.0
 11
260.999826
 21
577.4926319999998
 31
0.0
  0
LINE
  5
770
  8
SIZE
  6
CONTINUOUS
 62
    30
 10
1.999817000000014
 20
547.4926319999998
 30
0.0
 11
258.999826
 21
547.4926319999998
 31
0.0
  0
CIRCLE
  5
771
  8
SIZE
  6
CONTINUOUS
 62
    30
 10
-0.0001829999999856
 20
547.4926319999998
 30
0.0
 40
6.0
  0
CIRCLE
  5
772
  8
SIZE
  6
CONTINUOUS
 62
    30
 10
260.999826
 20
547.4926319999998
 30
0.0
 40
6.0
  0
TEXT
  5
773
  8
SIZE
  6
CONTINUOUS
 62
    30
 10
54.95742199999999
 20
567.4926319999998
 30
0.0
 40
64.0
  1
261
 41
0.9
 72
     1
 11
130.499822
 21
567.4926319999998
 31
0.0
  0
TEXT
  5
774
  8
ETC
  6
CONTINUOUS
 62
    61
 10
471.1127470586734
 20
428.1884019625858
 30
0.0
 40
50.0
  1
EF-40DTXB3-F
 41
0.9
  0
TEXT
  5
775
  8
ETC
  6
CONTINUOUS
 62
    61
 10
367.2993989671224
 20
600.861858776646
 30
0.0
 40
64.0
  1
EF-40DTXB3-F_5
 41
0.9
  0
TEXT
  5
776
  8
ETC
  6
CONTINUOUS
 62
    61
 10
364.0161209671223
 20
507.4134421546132
 30
0.0
 40
64.0
  1
産業扇
 41
0.9
  0
LINE
  5
777
  8
OUTLINE
  6
CONTINUOUS
 62
     3
 10
189.5000169999999
 20
-84.70006900000001
 30
0.0
 11
189.5000169999999
 21
0.2999189999999963
 31
0.0
  0
LINE
  5
778
  8
OUTLINE
  6
CONTINUOUS
 62
     3
 10
185.5000179999999
 20
-84.70006900000001
 30
0.0
 11
185.5000179999999
 21
71.69990899999998
 31
0.0
  0
LINE
  5
779
  8
OUTLINE
  6
CONTINUOUS
 62
     3
 10
189.5000169999999
 20
85.04036499999998
 30
0.0
 11
189.5000169999999
 21
-85.04052699999998
 31
0.0
  0
LINE
  5
77A
  8
OUTLINE
  6
CONTINUOUS
 62
     3
 10
9.999836000000023
 20
-0.0000810000000038
 30
0.0
 11
9.999836000000023
 21
251.999817
 31
0.0
  0
LINE
  5
77B
  8
OUTLINE
  6
CONTINUOUS
 62
     3
 10
260.999826
 20
60.69993399999999
 30
0.0
 11
260.999826
 21
-60.700048
 31
0.0
  0
POINT
  5
77C
  8
ARRANGE
  6
CONTINUOUS
 62
     1
 10
0.0
 20
0.0000239999999962
 30
0.0
  0
LINE
  5
77D
  8
OUTLINE
  6
CONTINUOUS
 62
     3
 10
-0.0001829999999856
 20
259.999976
 30
0.0
 11
0.000183000000014
 21
-259.999976
 31
0.0
  0
LINE
  5
77E
  8
OUTLINE
  6
CONTINUOUS
 62
     3
 10
255.999826
 20
-65.700048
 30
0.0
 11
195.5000169999999
 21
-65.700048
 31
0.0
  0
LINE
  5
77F
  8
OUTLINE
  6
CONTINUOUS
 62
     3
 10
10.00006500000002
 20
-0.0000810000000038
 30
0.0
 11
10.00006500000002
 21
-251.9999789999999
 31
0.0
  0
ARC
  5
780
  8
OUTLINE
  6
CONTINUOUS
 62
     3
 10
87.99991999999997
 20
-110.0923899999999
 30
0.0
 40
89.999964
 50
270.0
 51
0.0000370088964432
  0
LINE
  5
781
  8
OUTLINE
  6
CONTINUOUS
 62
     3
 10
18.99995800000001
 20
-146.3521639999999
 30
0.0
 11
18.99995800000001
 21
-207.0999339999999
 31
0.0
  0
ARC
  5
782
  8
OUTLINE
  6
CONTINUOUS
 62
     3
 10
1.999793000000032
 20
-251.9999789999999
 30
0.0
 40
7.999997999999999
 50
270.0
 51
359.9999829886806
  0
LINE
  5
783
  8
OUTLINE
  6
CONTINUOUS
 62
     3
 10
1.999793000000032
 20
-259.999976
 30
0.0
 11
0.000183000000014
 21
-259.999976
 31
0.0
  0
LINE
  5
784
  8
OUTLINE
  6
CONTINUOUS
 62
     3
 10
70.00008600000001
 20
-200.092354
 30
0.0
 11
18.99995800000001
 21
-200.092354
 31
0.0
  0
LINE
  5
785
  8
OUTLINE
  6
CONTINUOUS
 62
     3
 10
10.00006500000002
 20
-226.962323
 30
0.0
 11
18.99995800000001
 21
-226.962323
 31
0.0
  0
LINE
  5
786
  8
OUTLINE
  6
CONTINUOUS
 62
     3
 10
18.99995800000001
 20
-207.0999339999999
 30
0.0
 11
18.99995800000001
 21
-226.962323
 31
0.0
  0
LINE
  5
787
  8
OUTLINE
  6
CONTINUOUS
 62
     3
 10
53.30008799999997
 20
-200.092354
 30
0.0
 11
87.99991999999997
 21
-200.092354
 31
0.0
  0
LINE
  5
788
  8
OUTLINE
  6
CONTINUOUS
 62
     3
 10
10.60035000000001
 20
-146.3521639999999
 30
0.0
 11
18.99995800000001
 21
-146.3521639999999
 31
0.0
  0
LINE
  5
789
  8
OUTLINE
  6
CONTINUOUS
 62
     3
 10
185.5000179999999
 20
-84.70006900000001
 30
0.0
 11
185.5000179999999
 21
-0.0000810000000038
 31
0.0
  0
LINE
  5
78A
  8
OUTLINE
  6
CONTINUOUS
 62
     3
 10
177.9998829999999
 20
-110.0923309999999
 30
0.0
 11
177.9998609999999
 21
-82.500156
 31
0.0
  0
LINE
  5
78B
  8
OUTLINE
  6
CONTINUOUS
 62
     3
 10
185.4990179999998
 20
-82.500156
 30
0.0
 11
177.9998609999999
 21
-82.500156
 31
0.0
  0
LINE
  5
78C
  8
OUTLINE
  6
CONTINUOUS
 62
     3
 10
185.5000179999999
 20
-85.00006899999998
 30
0.0
 11
189.5000169999999
 21
-85.00006899999998
 31
0.0
  0
ARC
  5
78D
  8
OUTLINE
  6
CONTINUOUS
 62
     3
 10
195.5000169999999
 20
-71.700071
 30
0.0
 40
5.999998999999998
 50
90.0
 51
180.0000190144419
  0
ARC
  5
78E
  8
OUTLINE
  6
CONTINUOUS
 62
     3
 10
255.999826
 20
-60.700048
 30
0.0
 40
5.0
 50
270.0
 51
0.0
  0
LINE
  5
78F
  8
OUTLINE
  6
CONTINUOUS
 62
     3
 10
255.999826
 20
65.699934
 30
0.0
 11
195.5000169999999
 21
65.699934
 31
0.0
  0
ARC
  5
790
  8
OUTLINE
  6
CONTINUOUS
 62
     3
 10
87.99991999999997
 20
110.0922509999999
 30
0.0
 40
89.999964
 50
0.0000550005197429
 51
90.0
  0
LINE
  5
791
  8
OUTLINE
  6
CONTINUOUS
 62
     3
 10
18.99995800000001
 20
146.352025
 30
0.0
 11
18.99995800000001
 21
207.2097869999999
 31
0.0
  0
LINE
  5
792
  8
OUTLINE
  6
CONTINUOUS
 62
     3
 10
18.99995800000001
 20
146.352025
 30
0.0
 11
10.00006500000002
 21
146.352025
 31
0.0
  0
LINE
  5
793
  8
OUTLINE
  6
CONTINUOUS
 62
     3
 10
185.5000179999999
 20
84.99990799999998
 30
0.0
 11
185.5000179999999
 21
71.69990899999998
 31
0.0
  0
LINE
  5
794
  8
OUTLINE
  6
CONTINUOUS
 62
     3
 10
185.5000179999999
 20
84.99990799999998
 30
0.0
 11
185.5000179999999
 21
71.69990899999998
 31
0.0
  0
LINE
  5
795
  8
OUTLINE
  6
CONTINUOUS
 62
     3
 10
189.5000169999999
 20
84.99990799999998
 30
0.0
 11
189.5000169999999
 21
71.69990899999998
 31
0.0
  0
ARC
  5
796
  8
OUTLINE
  6
CONTINUOUS
 62
     3
 10
195.5000169999999
 20
71.69990899999998
 30
0.0
 40
5.999998999999998
 50
180.0
 51
270.0
  0
LINE
  5
797
  8
OUTLINE
  6
CONTINUOUS
 62
     3
 10
185.4990179999998
 20
82.49981099999997
 30
0.0
 11
177.9990149999999
 21
82.49981099999997
 31
0.0
  0
LINE
  5
798
  8
OUTLINE
  6
CONTINUOUS
 62
     3
 10
185.5000179999999
 20
84.99990799999998
 30
0.0
 11
189.5000169999999
 21
84.99990799999998
 31
0.0
  0
LINE
  5
799
  8
OUTLINE
  6
CONTINUOUS
 62
     3
 10
177.9990149999999
 20
82.499903
 30
0.0
 11
177.9990149999999
 21
110.487557
 31
0.0
  0
LINE
  5
79A
  8
OUTLINE
  6
CONTINUOUS
 62
     3
 10
87.99991999999997
 20
200.092215
 30
0.0
 11
18.99995800000001
 21
200.092215
 31
0.0
  0
LINE
  5
79B
  8
OUTLINE
  6
CONTINUOUS
 62
     3
 10
18.99995800000001
 20
226.962184
 30
0.0
 11
18.99995800000001
 21
207.099796
 31
0.0
  0
LINE
  5
79C
  8
OUTLINE
  6
CONTINUOUS
 62
     3
 10
18.99995800000001
 20
226.962184
 30
0.0
 11
10.00006500000002
 21
226.962184
 31
0.0
  0
ARC
  5
79D
  8
OUTLINE
  6
CONTINUOUS
 62
     3
 10
1.999793000000032
 20
251.999817
 30
0.0
 40
7.999997999999999
 50
0.0
 51
90.0
  0
LINE
  5
79E
  8
OUTLINE
  6
CONTINUOUS
 62
     3
 10
1.999793000000032
 20
259.999976
 30
0.0
 11
-0.0001829999999856
 21
259.999976
 31
0.0
  0
ARC
  5
79F
  8
OUTLINE
  6
CONTINUOUS
 62
     3
 10
255.999826
 20
60.69993399999999
 30
0.0
 40
5.0
 50
0.0
 51
90.0
  0
LINE
  5
7A0
  8
OUTLINE
  6
CONTINUOUS
 62
     3
 10
177.9990149999999
 20
82.49981099999997
 30
0.0
 11
145.999028
 21
82.49981099999997
 31
0.0
  0
LINE
  5
7A1
  8
OUTLINE
  6
CONTINUOUS
 62
     3
 10
177.9998609999999
 20
-82.500156
 30
0.0
 11
145.999028
 21
-82.500156
 31
0.0
  0
LINE
  5
7A2
  8
OUTLINE
  6
CONTINUOUS
 62
     3
 10
75.99902800000001
 20
173.2221079999999
 30
0.0
 11
18.99995800000001
 21
173.2221079999999
 31
0.0
  0
LINE
  5
7A3
  8
OUTLINE
  6
CONTINUOUS
 62
     3
 10
145.999028
 20
103.222108
 30
0.0
 11
145.9990279999999
 21
-103.2222479999997
 31
0.0
  0
LINE
  5
7A4
  8
OUTLINE
  6
CONTINUOUS
 62
     3
 10
75.99902800000001
 20
-173.2222479999999
 30
0.0
 11
18.99995800000001
 21
-173.222248
 31
0.0
  0
ARC
  5
7A5
  8
OUTLINE
  6
CONTINUOUS
 62
     3
 10
75.99902799999998
 20
-103.2222479999997
 30
0.0
 40
70.0
 50
270.0
 51
0.0
  0
ARC
  5
7A6
  8
OUTLINE
  6
CONTINUOUS
 62
     3
 10
75.99902800000001
 20
103.222108
 30
0.0
 40
70.0
 50
0.0
 51
90.0
  0
LINE
  5
7A7
  8
OUTLINE
  6
CONTINUOUS
 62
     3
 10
70.0
 20
200.092215
 30
0.0
 11
70.0
 21
237.999976
 31
0.0
  0
LINE
  5
7A8
  8
OUTLINE
  6
CONTINUOUS
 62
     3
 10
70.0
 20
237.999976
 30
0.0
 11
68.40009199999996
 21
237.999976
 31
0.0
  0
ARC
  5
7A9
  8
OUTLINE
  6
CONTINUOUS
 62
     3
 10
33.387214766242
 20
239.1309917031894
 30
0.0
 40
35.0311399858336
 50
270.0206837641338
 51
358.1498264155645
  0
LINE
  5
7AA
  8
OUTLINE
  6
CONTINUOUS
 62
     3
 10
33.46371636349745
 20
204.0999352501978
 30
0.0
 11
18.99995800000001
 21
204.0999352501978
 31
0.0
  0
LINE
  5
7AB
  8
OUTLINE
  6
CONTINUOUS
 62
     3
 10
70.0
 20
173.2221079999999
 30
0.0
 11
70.0
 21
-173.222247
 31
0.0
  0
LINE
  5
7AC
  8
OUTLINE
  6
CONTINUOUS
 62
     3
 10
70.0
 20
-200.0923779999999
 30
0.0
 11
70.00008600000001
 21
-238.000024
 31
0.0
  0
LINE
  5
7AD
  8
OUTLINE
  6
CONTINUOUS
 62
     3
 10
70.00008600000001
 20
-238.000024
 30
0.0
 11
68.3825460661161
 21
-238.000023834333
 31
0.0
  0
ARC
  5
7AE
  8
OUTLINE
  6
CONTINUOUS
 62
     3
 10
33.39986100000002
 20
-239.09999
 30
0.0
 40
34.99997400000003
 50
1.800965792581659
 51
89.99999999999996
  0
LINE
  5
7AF
  8
OUTLINE
  6
CONTINUOUS
 62
     3
 10
33.39986100000002
 20
-204.1000159999999
 30
0.0
 11
18.99995800000001
 21
-204.1000159999999
 31
0.0
  0
ENDSEC
  0
EOF
