  0
SECTION
  2
HEADER
  9
$ACADVER
  1
AC1009
  9
$DWGCODEPAGE
  3
ansi_932
  9
$INSBASE
 10
0.0
 20
0.0
 30
0.0
  9
$EXTMIN
 10
-725.586891030627
 20
-489.1063530142859
 30
-100.110011
  9
$EXTMAX
 10
788.0197781864046
 20
622.9289376141292
 30
50.0
  9
$LIMMIN
 10
-2970.0
 20
-2100.0
  9
$LIMMAX
 10
2970.0
 20
2100.0
  9
$ORTHOMODE
 70
     1
  9
$REGENMODE
 70
     1
  9
$FILLMODE
 70
     1
  9
$QTEXTMODE
 70
     0
  9
$MIRRTEXT
 70
     0
  9
$DRAGMODE
 70
     2
  9
$LTSCALE
 40
20.0
  9
$OSMODE
 70
    37
  9
$ATTMODE
 70
     1
  9
$TEXTSIZE
 40
64.0
  9
$TRACEWID
 40
0.05
  9
$TEXTSTYLE
  7
STANDARD
  9
$CLAYER
  8
OUTLINE
  9
$CELTYPE
  6
CONTINUOUS
  9
$CECOLOR
 62
     3
  9
$DIMSCALE
 40
1.0
  9
$DIMASZ
 40
40.0
  9
$DIMEXO
 40
20.0
  9
$DIMDLI
 40
200.0
  9
$DIMRND
 40
0.0
  9
$DIMDLE
 40
0.0
  9
$DIMEXE
 40
20.0
  9
$DIMTP
 40
0.1
  9
$DIMTM
 40
0.1
  9
$DIMTXT
 40
64.0
  9
$DIMCEN
 40
0.09
  9
$DIMTSZ
 40
0.0
  9
$DIMTOL
 70
     0
  9
$DIMLIM
 70
     0
  9
$DIMTIH
 70
     0
  9
$DIMTOH
 70
     0
  9
$DIMSE1
 70
     0
  9
$DIMSE2
 70
     0
  9
$DIMTAD
 70
     1
  9
$DIMZIN
 70
     8
  9
$DIMBLK
  1
NONE
  9
$DIMASO
 70
     1
  9
$DIMSHO
 70
     0
  9
$DIMPOST
  1
<>
  9
$DIMAPOST
  1
"
  9
$DIMALT
 70
     0
  9
$DIMALTD
 70
     2
  9
$DIMALTF
 40
0.03937
  9
$DIMLFAC
 40
1.0
  9
$DIMTOFL
 70
     1
  9
$DIMTVP
 40
0.0
  9
$DIMTIX
 70
     0
  9
$DIMSOXD
 70
     0
  9
$DIMSAH
 70
     0
  9
$DIMBLK1
  1

  9
$DIMBLK2
  1

  9
$DIMSTYLE
  2
GEN-ISO
  9
$DIMCLRD
 70
   256
  9
$DIMCLRE
 70
   256
  9
$DIMCLRT
 70
   256
  9
$DIMTFAC
 40
1.0
  9
$DIMGAP
 40
25.0
  9
$LUNITS
 70
     2
  9
$LUPREC
 70
     4
  9
$SKETCHINC
 40
0.1
  9
$FILLETRAD
 40
5.0
  9
$AUNITS
 70
     1
  9
$AUPREC
 70
     3
  9
$MENU
  1
ACAD
  9
$ELEVATION
 40
0.0
  9
$PELEVATION
 40
0.0
  9
$THICKNESS
 40
0.0
  9
$LIMCHECK
 70
     0
  9
$CHAMFERA
 40
0.0
  9
$CHAMFERB
 40
0.0
  9
$SKPOLY
 70
     0
  9
$TDCREATE
 40
2451372.547453704
  9
$TDUPDATE
 40
2457485.553378588
  9
$TDINDWG
 40
1.3161996181
  9
$TDUSRTIMER
 40
1.3161992477
  9
$USRTIMER
 70
     1
  9
$ANGBASE
 50
0.0
  9
$ANGDIR
 70
     0
  9
$PDMODE
 70
     3
  9
$PDSIZE
 40
-2.0
  9
$PLINEWID
 40
0.0
  9
$COORDS
 70
     1
  9
$SPLFRAME
 70
     0
  9
$SPLINETYPE
 70
     6
  9
$SPLINESEGS
 70
     8
  9
$ATTDIA
 70
     0
  9
$ATTREQ
 70
     1
  9
$HANDLING
 70
     1
  9
$HANDSEED
  5
B9C
  9
$SURFTAB1
 70
     6
  9
$SURFTAB2
 70
     6
  9
$SURFTYPE
 70
     6
  9
$SURFU
 70
     6
  9
$SURFV
 70
     6
  9
$UCSNAME
  2

  9
$UCSORG
 10
0.0
 20
0.0
 30
0.0
  9
$UCSXDIR
 10
1.0
 20
0.0
 30
0.0
  9
$UCSYDIR
 10
0.0
 20
1.0
 30
0.0
  9
$PUCSNAME
  2

  9
$PUCSORG
 10
0.0
 20
0.0
 30
0.0
  9
$PUCSXDIR
 10
1.0
 20
0.0
 30
0.0
  9
$PUCSYDIR
 10
0.0
 20
1.0
 30
0.0
  9
$USERI1
 70
     0
  9
$USERI2
 70
     0
  9
$USERI3
 70
     0
  9
$USERI4
 70
     0
  9
$USERI5
 70
     0
  9
$USERR1
 40
20.0
  9
$USERR2
 40
0.0
  9
$USERR3
 40
0.0
  9
$USERR4
 40
0.0
  9
$USERR5
 40
0.0
  9
$WORLDVIEW
 70
     1
  9
$SHADEDGE
 70
     3
  9
$SHADEDIF
 70
    70
  9
$TILEMODE
 70
     1
  9
$MAXACTVP
 70
    48
  9
$PLIMCHECK
 70
     0
  9
$PEXTMIN
 10
-1.000000000000000E+20
 20
-1.000000000000000E+20
 30
-1.000000000000000E+20
  9
$PEXTMAX
 10
1.000000000000000E+20
 20
1.000000000000000E+20
 30
1.000000000000000E+20
  9
$PLIMMIN
 10
0.0
 20
0.0
  9
$PLIMMAX
 10
12.0
 20
9.0
  9
$UNITMODE
 70
     0
  9
$VISRETAIN
 70
     0
  9
$PLINEGEN
 70
     0
  9
$PSLTSCALE
 70
     0
  0
ENDSEC
  0
SECTION
  2
TABLES
  0
TABLE
  2
VPORT
 70
     1
  0
VPORT
  2
*ACTIVE
 70
     0
 10
0.0
 20
0.0
 11
1.0
 21
1.0
 12
232.4113948925625
 22
140.5972437943906
 13
0.0
 23
0.0
 14
50.0
 24
50.0
 15
400.0
 25
400.0
 16
0.0
 26
0.0
 36
1.0
 17
0.0
 27
0.0
 37
0.0
 40
1179.829061827297
 41
1.313609467455621
 42
50.0
 43
0.0
 44
0.0
 50
0.0
 51
0.0
 71
     0
 72
   500
 73
     1
 74
     0
 75
     0
 76
     0
 77
     0
 78
     0
  0
ENDTAB
  0
TABLE
  2
LTYPE
 70
     3
  0
LTYPE
  2
CONTINUOUS
 70
     0
  3
実線
 72
    65
 73
     0
 40
0.0
  0
LTYPE
  2
DASHDOT
 70
     0
  3
____ _ ____ _ ____ _ ____ _ ____ _ ____ _ ____
 72
    65
 73
     4
 40
5.5
 49
4.0
 49
-0.6
 49
0.3
 49
-0.6
  0
LTYPE
  2
DASHED
 70
     0
  3
-- -- -- -- -- -- -- -- -- -- -- -- -- -- --
 72
    65
 73
     2
 40
0.75
 49
0.5
 49
-0.25
  0
ENDTAB
  0
TABLE
  2
LAYER
 70
    12
  0
LAYER
  2
0
 70
     0
 62
     7
  6
CONTINUOUS
  0
LAYER
  2
OUTLINE
 70
     0
 62
     3
  6
CONTINUOUS
  0
LAYER
  2
BASIS
 70
     0
 62
     6
  6
DASHDOT
  0
LAYER
  2
ARRANGE
 70
     0
 62
     1
  6
CONTINUOUS
  0
LAYER
  2
DETAIL
 70
     0
 62
     5
  6
CONTINUOUS
  0
LAYER
  2
NOTE
 70
     0
 62
     4
  6
CONTINUOUS
  0
LAYER
  2
DEFPOINTS
 70
     0
 62
     7
  6
CONTINUOUS
  0
LAYER
  2
SIZE
 70
     0
 62
    30
  6
CONTINUOUS
  0
LAYER
  2
ETC
 70
     0
 62
    61
  6
CONTINUOUS
  0
LAYER
  2
FIX
 70
     0
 62
    11
  6
CONTINUOUS
  0
LAYER
  2
SERVICESPACE
 70
     0
 62
     2
  6
DASHDOT
  0
LAYER
  2
SYMBOLLINE
 70
     0
 62
    15
  6
CONTINUOUS
  0
ENDTAB
  0
TABLE
  2
STYLE
 70
     2
  0
STYLE
  2
STANDARD
 70
     0
 40
0.0
 41
0.9
 50
0.0
 71
     0
 42
64.0
  3
SIMPLEX
  4
BIGFONT
  0
STYLE
  2
ANNOTATIVE
 70
     0
 40
0.0
 41
1.0
 50
0.0
 71
     0
 42
0.2
  3
txt
  4

  0
STYLE
  2

 70
     1
 40
0.0
 41
1.0
 50
0.0
 71
     0
 42
64.0
  3
ltypeshp.shx
  4

  0
ENDTAB
  0
TABLE
  2
VIEW
 70
     1
  0
VIEW
  2
ALL
 70
     0
 40
4282.619807999997
 10
0.0
 20
41.30990399999999
 41
5940.0
 11
0.0
 21
0.0
 31
1.0
 12
0.0
 22
0.0
 32
0.0
 42
50.0
 43
0.0
 44
0.0
 50
0.0
 71
     0
  0
ENDTAB
  0
TABLE
  2
UCS
 70
     0
  0
ENDTAB
  0
TABLE
  2
APPID
 70
    14
  0
APPID
  2
ACAD
 70
     0
  0
APPID
  2
ACADANNOTATIVE
 70
     0
  0
APPID
  2
ACAD_MLEADERVER
 70
     0
  0
APPID
  2
CONTENTBLOCKDESCRIPTION
 70
     0
  0
APPID
  2
CONTENTBLOCKICON
 70
     0
  0
APPID
  2
GENIUS_GENCFG_13
 70
     0
  0
APPID
  2
GENIUS_GENCFG0_13
 70
     0
  0
APPID
  2
GENIUS_GENCFG1_13
 70
     0
  0
APPID
  2
GENIUS_GENCFG2_13
 70
     0
  0
APPID
  2
GENIUS_GENCFG3_13
 70
     0
  0
APPID
  2
GENIUS_GENCFG4_13
 70
     0
  0
APPID
  2
GENIUS_GEVCFG0_13
 70
     0
  0
APPID
  2
GENIUS_GENOENT_13
 70
     0
  0
APPID
  2
ACAD_EXEMPT_FROM_CAD_STAND
 70
     0
  0
ENDTAB
  0
TABLE
  2
DIMSTYLE
 70
     3
  0
DIMSTYLE
  2
STANDARD
 70
     0
  3

  4

  5

  6

  7

 40
1.0
 41
0.18
 42
0.0625
 43
0.38
 44
0.18
 45
0.0
 46
0.0
 47
0.0
 48
0.0
140
0.18
141
0.09
142
0.0
143
25.4
144
1.0
145
0.0
146
1.0
147
0.09
 71
     0
 72
     0
 73
     1
 74
     1
 75
     0
 76
     0
 77
     0
 78
     0
170
     0
171
     2
172
     0
173
     0
174
     0
175
     0
176
     0
177
     0
178
     0
  0
DIMSTYLE
  2
ANNOTATIVE
 70
     0
  3

  4

  5

  6

  7

 40
1.0
 41
0.18
 42
0.0625
 43
0.38
 44
0.18
 45
0.0
 46
0.0
 47
0.0
 48
0.0
140
0.18
141
0.09
142
0.0
143
25.4
144
1.0
145
0.0
146
1.0
147
0.09
 71
     0
 72
     0
 73
     1
 74
     1
 75
     0
 76
     0
 77
     0
 78
     0
170
     0
171
     2
172
     0
173
     0
174
     0
175
     0
176
     0
177
     0
178
     0
  0
DIMSTYLE
  2
GEN-ISO
 70
     0
  3

  4
"
  5

  6

  7

 40
1.0
 41
2.0
 42
20.0
 43
200.0
 44
30.0
 45
0.0
 46
0.0
 47
0.1
 48
0.1
140
64.0
141
0.09
142
0.0
143
0.03937
144
1.0
145
0.0
146
1.0
147
25.0
 71
     0
 72
     0
 73
     0
 74
     0
 75
     0
 76
     0
 77
     1
 78
     8
170
     0
171
     2
172
     1
173
     1
174
     0
175
     0
176
     7
177
     7
178
     7
  0
ENDTAB
  0
ENDSEC
  0
SECTION
  2
BLOCKS
  0
BLOCK
  8
0
  2
$MODEL_SPACE
 70
     0
 10
0.0
 20
0.0
 30
0.0
  3
$MODEL_SPACE
  1

  0
ENDBLK
  5
A9C
  8
0
  0
BLOCK
 67
     1
  8
0
  2
$PAPER_SPACE
 70
     0
 10
0.0
 20
0.0
 30
0.0
  3
$PAPER_SPACE
  1

  0
ENDBLK
  5
A98
 67
     1
  8
0
  0
BLOCK
  8
0
  2
DOT1
 70
     0
 10
0.0
 20
0.0
 30
0.0
  3
DOT1
  1

  0
CIRCLE
  5
6BF
  8
SIZE
  6
CONTINUOUS
 62
     7
 10
0.0
 20
0.0
 30
0.0
 40
3.0
  0
ENDBLK
  5
6C0
  8
0
  0
BLOCK
  8
0
  2
_NONE
 70
     0
 10
0.0
 20
0.0
 30
0.0
  3
_NONE
  1

  0
ENDBLK
  5
6C3
  8
0
 62
    30
  0
BLOCK
  8
0
  2
_OPEN30
 70
     0
 10
0.0
 20
0.0
 30
0.0
  3
_OPEN30
  1

  0
LINE
  5
6C6
  8
0
  6
BYBLOCK
 62
     0
 10
-1.0
 20
0.26794919
 30
0.0
 11
0.0
 21
0.0
 31
0.0
  0
LINE
  5
6C7
  8
0
  6
BYBLOCK
 62
     0
 10
0.0
 20
0.0
 30
0.0
 11
-1.0
 21
-0.26794919
 31
0.0
  0
LINE
  5
6C8
  8
0
  6
BYBLOCK
 62
     0
 10
0.0
 20
0.0
 30
0.0
 11
-1.0
 21
0.0
 31
0.0
  0
ENDBLK
  5
6C9
  8
0
 62
    30
  0
BLOCK
  8
0
  2
*D3
 70
     1
 10
0.0
 20
0.0
 30
0.0
  3
*D3
  1

  0
LINE
  5
6CC
  8
SIZE
  6
CONTINUOUS
 10
274.9886638765185
 20
-112.1803866369892
 30
0.0
 11
274.9886638765185
 21
-565.3077884776663
 31
0.0
  0
LINE
  5
6CD
  8
SIZE
  6
CONTINUOUS
 10
-275.0113313659304
 20
-112.1080450434815
 30
0.0
 11
-275.0113313659304
 21
-565.3077884776663
 31
0.0
  0
LINE
  5
6CE
  8
SIZE
  6
CONTINUOUS
 10
274.9886638765185
 20
-545.3077884776663
 30
0.0
 11
-275.0113313659304
 21
-545.3077884776663
 31
0.0
  0
TEXT
  5
6CF
  8
BASIS
  6
CONTINUOUS
 10
-74.06847660184879
 20
-520.3077884776663
 30
0.0
 40
64.0
  1
550
 41
0.9
  0
POINT
  5
6D0
  8
DEFPOINTS
  6
CONTINUOUS
 62
     0
 10
274.9886638765185
 20
-92.1803866369894
 30
0.0000000000000142
  0
POINT
  5
6D1
  8
DEFPOINTS
  6
CONTINUOUS
 62
     0
 10
-275.0113313659304
 20
-92.10804504348148
 30
-0.0000000000000142
  0
POINT
  5
6D2
  8
DEFPOINTS
  6
CONTINUOUS
 62
     0
 10
-275.0113313659304
 20
-545.3077884776663
 30
0.0
  0
ENDBLK
  5
6D3
  8
0
 62
    30
  0
ENDSEC
  0
SECTION
  2
ENTITIES
  0
LINE
  5
6D4
  8
SIZE
  6
CONTINUOUS
 62
    30
 10
-279.9940489999998
 20
39.78167999999982
 30
0.0
 11
-279.9769569999997
 21
153.9805879999997
 31
0.0
  0
LINE
  5
6D5
  8
SIZE
  6
CONTINUOUS
 62
    30
 10
280.005984
 20
39.95809199999982
 30
0.0
 11
280.0230369999999
 21
153.8967729999998
 31
0.0
  0
LINE
  5
6D6
  8
SIZE
  6
CONTINUOUS
 62
    30
 10
-277.9814469999998
 20
123.9802889999998
 30
0.0
 11
278.0185469999998
 21
123.8970729999999
 31
0.0
  0
CIRCLE
  5
6D7
  8
SIZE
  6
CONTINUOUS
 62
    30
 10
-279.9814469999998
 20
123.9805879999997
 30
0.0
 40
6.0
  0
CIRCLE
  5
6D8
  8
SIZE
  6
CONTINUOUS
 62
    30
 10
280.018547
 20
123.8967729999997
 30
0.0
 40
6.0
  0
TEXT
  5
6D9
  8
SIZE
  6
CONTINUOUS
 62
    30
 10
-80.93451808931377
 20
148.9508230015494
 30
0.0
 40
64.0
  1
560
 50
359.9914059999653
 41
0.9
 72
     1
 11
0.0222809999999996
 21
148.93868
 31
0.0
  0
LINE
  5
6DA
  8
SIZE
  6
CONTINUOUS
 62
    30
 10
-309.9973419999998
 20
17.78182700000001
 30
0.0
 11
-309.9544439999999
 21
304.3988969999999
 31
0.0
  0
LINE
  5
6DB
  8
SIZE
  6
CONTINUOUS
 62
    30
 10
310.0026409999999
 20
17.64710100000001
 30
0.0
 11
310.0455449999998
 21
304.3061009999998
 31
0.0
  0
LINE
  5
6DC
  8
SIZE
  6
CONTINUOUS
 62
    30
 10
-307.9589339999998
 20
274.398598
 30
0.0
 11
308.0410549999996
 21
274.3064009999998
 31
0.0
  0
CIRCLE
  5
6DD
  8
SIZE
  6
CONTINUOUS
 62
    30
 10
-309.9589339999998
 20
274.398897
 30
0.0
 40
6.0
  0
CIRCLE
  5
6DE
  8
SIZE
  6
CONTINUOUS
 62
    30
 10
310.0410549999996
 20
274.3061019999998
 30
0.0
 40
6.0
  0
TEXT
  5
6DF
  8
SIZE
  6
CONTINUOUS
 62
    30
 10
-80.91200708931376
 20
299.3646420015493
 30
0.0
 40
64.0
  1
620
 50
359.9914059999653
 41
0.9
 72
     1
 11
0.0447919999999993
 21
299.3524989999999
 31
0.0
  0
LINE
  5
6E0
  8
BASIS
  6
DASHDOT
 62
     6
 39
100.110011
 10
-0.0406130000000005
 20
-314.7490755282482
 30
-100.110011
 11
0.0064880000000009
 21
43.35127199999982
 31
-100.110011
  0
LINE
  5
6E1
  8
SIZE
  6
CONTINUOUS
 62
    30
 10
-327.9863159999999
 20
0.0104529999999983
 30
0.0
 11
-424.7948989999996
 21
0.0249419999999958
 31
0.0
  0
LINE
  5
6E2
  8
SIZE
  6
CONTINUOUS
 62
    30
 10
-323.2278319999998
 20
-9.990128999999996
 30
0.0
 11
-424.7963949999998
 21
-9.974926999999994
 31
0.0
  0
LINE
  5
6E3
  8
SIZE
  6
CONTINUOUS
 62
    30
 10
-394.7966949999998
 20
-11.979417
 30
0.0
 11
-394.7969939999996
 21
-13.979417
 31
0.0
  0
LINE
  5
6E4
  8
SIZE
  6
CONTINUOUS
 62
    30
 10
-394.7945999999998
 20
2.020451999999992
 30
0.0
 11
-394.7722329999997
 21
151.4603469999999
 31
0.0
  0
LINE
  5
6E5
  8
SIZE
  6
CONTINUOUS
 62
    30
 10
-394.7963959999997
 20
-9.979416999999998
 30
0.0
 11
-394.7948989999998
 21
0.0204519999999917
 31
0.0
  0
CIRCLE
  5
6E6
  8
SIZE
  6
CONTINUOUS
 62
    30
 10
-394.7963959999997
 20
-9.979416999999998
 30
0.0
 40
6.0
  0
CIRCLE
  5
6E7
  8
SIZE
  6
CONTINUOUS
 62
    30
 10
-394.7948989999998
 20
0.0204519999999917
 30
0.0
 40
6.0
  0
TEXT
  5
6E8
  8
SIZE
  6
CONTINUOUS
 62
    30
 10
-419.7894152090108
 20
36.76442254621719
 30
0.0
 40
64.0
  1
10
 50
89.99140600000004
 41
0.9
 72
     1
 11
-419.7821319999999
 21
85.32122199999984
 31
0.0
  0
CIRCLE
  5
6E9
  8
ARRANGE
  6
CONTINUOUS
 62
     1
 10
0.0
 20
0.0
 30
0.0
 40
40.0
  0
LINE
  5
6EA
  8
NOTE
  6
CONTINUOUS
 62
     4
 10
260.0029899999998
 20
0.000021000000018
 30
0.0
 11
300.00299
 21
0.000021000000018
 31
0.0
  0
LINE
  5
6EB
  8
NOTE
  6
CONTINUOUS
 62
     4
 10
280.00299
 20
20.000021
 30
0.0
 11
280.00299
 21
-19.999979
 31
0.0
  0
LINE
  5
6EC
  8
NOTE
  6
CONTINUOUS
 62
     4
 10
-299.9970419999999
 20
0.0
 30
0.0
 11
-259.9970419999997
 21
0.0
 31
0.0
  0
LINE
  5
6ED
  8
NOTE
  6
CONTINUOUS
 62
     4
 10
-279.9970419999999
 20
20.0
 30
0.0
 11
-279.9970419999999
 21
-20.00000000000001
 31
0.0
  0
LINE
  5
6EE
  8
DETAIL
  6
CONTINUOUS
 62
     5
 10
222.8253699999999
 20
-89.37384200000001
 30
0.0
 11
-222.686483
 21
-89.30919000000002
 31
0.0
  0
LINE
  5
6EF
  8
DETAIL
  6
CONTINUOUS
 62
     5
 10
222.8245229999999
 20
-95.033351
 30
0.0
 11
-103.7539479999998
 21
-94.984472
 31
0.0
  0
LINE
  5
6F0
  8
DETAIL
  6
CONTINUOUS
 62
     5
 10
-19.276737
 20
-144.8320949999999
 30
0.0
 11
1.751945000000004
 21
-135.0237229999999
 31
0.0
  0
LINE
  5
6F1
  8
DETAIL
  6
CONTINUOUS
 62
     5
 10
10.574675
 20
-144.6449239999999
 30
0.0
 11
-24.36675300000001
 21
-153.5696949999999
 31
0.0
  0
LINE
  5
6F2
  8
DETAIL
  6
CONTINUOUS
 62
     5
 10
9.454739
 20
-162.001923
 30
0.0
 11
-66.026859
 21
-161.990626
 31
0.0
  0
LINE
  5
6F3
  8
DETAIL
  6
CONTINUOUS
 62
     5
 10
11.925955
 20
-161.198612
 30
0.0
 11
-64.77149
 21
-161.1920669999999
 31
0.0
  0
LINE
  5
6F4
  8
DETAIL
  6
CONTINUOUS
 62
     5
 10
-222.6836269999999
 20
-94.96667199999999
 30
0.0
 11
103.8948439999999
 21
-95.01555099999999
 31
0.0
  0
LINE
  5
6F5
  8
DETAIL
  6
CONTINUOUS
 62
     5
 10
-35.95700699999998
 20
-284.0418389999999
 30
0.0
 11
-0.0425129999999996
 21
-284.0472139999999
 31
0.0
  0
LINE
  5
6F6
  8
DETAIL
  6
CONTINUOUS
 62
     5
 10
-95.17505699999995
 20
-262.4248529999999
 30
0.0
 11
-0.0392790000000005
 21
-262.4390919999998
 31
0.0
  0
LINE
  5
6F7
  8
DETAIL
  6
CONTINUOUS
 62
     5
 10
-74.77544799999994
 20
-219.169814
 30
0.0
 11
0.2682630000000028
 21
-219.181046
 31
0.0
  0
ARC
  5
6F8
  8
DETAIL
  6
CONTINUOUS
 62
     5
 10
-0.0422539999999998
 20
-282.3126029999997
 30
0.0
 40
4.748414999999999
 50
219.8083940000002
 51
338.5651789999998
  0
ARC
  5
6F9
  8
DETAIL
  6
CONTINUOUS
 62
     5
 10
-0.0422539999999998
 20
-282.3126029999997
 30
0.0
 40
4.748414999999999
 50
201.4176710000008
 51
320.1744549999998
  0
LINE
  5
6FA
  8
DETAIL
  6
CONTINUOUS
 62
     5
 10
-95.17445599999985
 20
-258.4064479999998
 30
0.0
 11
95.09709999999998
 21
-258.4349259999999
 31
0.0
  0
LINE
  5
6FB
  8
DETAIL
  6
CONTINUOUS
 62
     5
 10
-95.16999699999995
 20
-226.19897
 30
0.0
 11
95.402988
 21
-226.227493
 31
0.0
  0
ARC
  5
6FC
  8
DETAIL
  6
CONTINUOUS
 62
     5
 10
157.4145919999999
 20
-156.0127519999999
 30
0.0
 40
70.322086
 50
269.9914249999999
 51
348.7179509999999
  0
ARC
  5
6FD
  8
DETAIL
  6
CONTINUOUS
 62
     5
 10
154.217911
 20
-156.0122729999999
 30
0.0
 40
70.322086
 50
269.9914249999999
 51
347.2613939999999
  0
ARC
  5
6FE
  8
DETAIL
  6
CONTINUOUS
 62
     5
 10
148.0064989999998
 20
-155.973521
 30
0.0
 40
102.4693249999999
 50
269.9914249999999
 51
359.9914249999788
  0
ARC
  5
6FF
  8
DETAIL
  6
CONTINUOUS
 62
     5
 10
90.38033500000002
 20
-226.2869799999998
 30
0.0
 40
5.023005999999999
 50
359.9914249999363
 51
89.99144400000004
  0
LINE
  5
700
  8
DETAIL
  6
CONTINUOUS
 62
     5
 10
95.09709999999998
 20
-258.4349249999998
 30
0.0
 11
95.096499
 21
-262.4533299999998
 31
0.0
  0
LINE
  5
701
  8
DETAIL
  6
CONTINUOUS
 62
     5
 10
95.096499
 20
-262.4533299999998
 30
0.0
 11
-0.0392799999999998
 21
-262.4390919999998
 31
0.0
  0
LINE
  5
702
  8
DETAIL
  6
CONTINUOUS
 62
     5
 10
93.08791733330732
 20
-258.4346252850366
 30
0.0
 11
93.092728
 21
-226.287386
 31
0.0
  0
LINE
  5
703
  8
DETAIL
  6
CONTINUOUS
 62
     5
 10
95.096499
 20
-262.4533309999998
 30
0.0
 11
-0.0392790000000005
 21
-262.4390919999998
 31
0.0
  0
LINE
  5
704
  8
DETAIL
  6
CONTINUOUS
 62
     5
 10
95.09709999999998
 20
-258.4349259999999
 30
0.0
 11
95.096499
 21
-262.4533309999998
 31
0.0
  0
LINE
  5
705
  8
DETAIL
  6
CONTINUOUS
 62
     5
 10
147.0599199999999
 20
-258.4427029999999
 30
0.0
 11
95.09709999999998
 21
-258.4349259999999
 31
0.0
  0
ARC
  5
706
  8
DETAIL
  6
CONTINUOUS
 62
     5
 10
58.42635999999999
 20
-276.8228299999998
 30
0.0
 40
7.032208999999999
 50
269.9914249999999
 51
359.9914250000213
  0
LINE
  5
707
  8
DETAIL
  6
CONTINUOUS
 62
     5
 10
65.46072000000001
 20
-262.4488949999998
 30
0.0
 11
65.45856899999998
 21
-276.8238829999999
 31
0.0
  0
LINE
  5
708
  8
DETAIL
  6
CONTINUOUS
 62
     5
 10
57.722087
 20
-283.8549329999998
 30
0.0
 11
56.21495899999997
 21
-285.3616099999999
 31
0.0
  0
ARC
  5
709
  8
DETAIL
  6
CONTINUOUS
 62
     5
 10
25.826006
 20
-283.799935
 30
0.0
 40
0.25115
 50
269.9914249999995
 51
359.9914250000213
  0
LINE
  5
70A
  8
DETAIL
  6
CONTINUOUS
 62
     5
 10
24.16837599999999
 20
-284.0508379999999
 30
0.0
 11
25.825968
 21
-284.0510859999999
 31
0.0
  0
ARC
  5
70B
  8
DETAIL
  6
CONTINUOUS
 62
     5
 10
31.35131199999999
 20
-283.8007619999998
 30
0.0
 40
0.25115
 50
179.9914250000213
 51
269.9914249999995
  0
LINE
  5
70C
  8
DETAIL
  6
CONTINUOUS
 62
     5
 10
31.35127499999999
 20
-284.0519129999999
 30
0.0
 11
33.00886699999998
 21
-284.0521609999998
 31
0.0
  0
LINE
  5
70D
  8
DETAIL
  6
CONTINUOUS
 62
     5
 10
35.87200999999997
 20
-283.8516629999998
 30
0.0
 11
38.735124
 21
-283.8520919999997
 31
0.0
  0
LINE
  5
70E
  8
DETAIL
  6
CONTINUOUS
 62
     5
 10
33.843021
 20
-284.0522859999998
 30
0.0
 11
35.12200299999998
 21
-285.0910619999999
 31
0.0
  0
LINE
  5
70F
  8
DETAIL
  6
CONTINUOUS
 62
     5
 10
40.24179999999999
 20
-285.3592189999999
 30
0.0
 11
38.735124
 21
-283.8520919999997
 31
0.0
  0
LINE
  5
710
  8
DETAIL
  6
CONTINUOUS
 62
     5
 10
25.825968
 20
-284.0510859999999
 30
0.0
 11
31.35127499999999
 21
-284.0519129999999
 31
0.0
  0
LINE
  5
711
  8
DETAIL
  6
CONTINUOUS
 62
     5
 10
3.604520000000003
 20
-285.3537349999999
 30
0.0
 11
24.94119699999999
 21
-285.3569289999998
 31
0.0
  0
LINE
  5
712
  8
DETAIL
  6
CONTINUOUS
 62
     5
 10
35.44943099999999
 20
-285.3585019999999
 30
0.0
 11
56.21495899999997
 21
-285.3616099999999
 31
0.0
  0
LINE
  5
713
  8
DETAIL
  6
CONTINUOUS
 62
     5
 10
35.12200299999998
 20
-285.0910619999999
 30
0.0
 11
35.44936999999999
 21
-285.3585019999999
 31
0.0
  0
LINE
  5
714
  8
DETAIL
  6
CONTINUOUS
 62
     5
 10
47.47133499999998
 20
-285.6500729999999
 30
0.0
 11
38.02808399999998
 21
-285.6486599999999
 31
0.0
  0
LINE
  5
715
  8
DETAIL
  6
CONTINUOUS
 62
     5
 10
38.02812699999999
 20
-285.3588879999998
 30
0.0
 11
38.02808399999998
 21
-285.6486599999999
 31
0.0
  0
LINE
  5
716
  8
DETAIL
  6
CONTINUOUS
 62
     5
 10
47.47137799999998
 20
-285.3603009999999
 30
0.0
 11
47.47133499999998
 21
-285.6500729999999
 31
0.0
  0
LINE
  5
717
  8
DETAIL
  6
CONTINUOUS
 62
     5
 10
38.02812699999999
 20
-285.3588879999998
 30
0.0
 11
47.47137799999998
 21
-285.3603009999999
 31
0.0
  0
LINE
  5
718
  8
DETAIL
  6
CONTINUOUS
 62
     5
 10
58.42530799999999
 20
-283.855039
 30
0.0
 11
57.722087
 21
-283.8549329999998
 31
0.0
  0
ARC
  5
719
  8
DETAIL
  6
CONTINUOUS
 62
     5
 10
28.588881
 20
-282.3168879999998
 30
0.0
 40
4.748414999999999
 50
201.4176710000008
 51
338.5651789999998
  0
ARC
  5
71A
  8
DETAIL
  6
CONTINUOUS
 62
     5
 10
42.75029399999999
 20
-281.7430289999999
 30
0.0
 40
6.128067999999998
 50
219.5933899999999
 51
320.3894419999999
  0
LINE
  5
71B
  8
DETAIL
  6
CONTINUOUS
 62
     5
 10
35.87197999999999
 20
-284.0525889999999
 30
0.0
 11
-0.0425129999999996
 21
-284.0472139999999
 31
0.0
  0
LINE
  5
71C
  8
DETAIL
  6
CONTINUOUS
 62
     5
 10
139.9152979999998
 20
-119.311556
 30
0.0
 11
164.713981
 21
-133.304324
 31
0.0
  0
LINE
  5
71D
  8
DETAIL
  6
CONTINUOUS
 62
     5
 10
139.221255
 20
-135.044273
 30
0.0
 11
164.174818
 21
-144.8595309999999
 31
0.0
  0
LINE
  5
71E
  8
DETAIL
  6
CONTINUOUS
 62
     5
 10
250.475823
 20
-155.9888579999999
 30
0.0
 11
250.4952679999998
 21
-26.157124
 31
0.0
  0
LINE
  5
71F
  8
DETAIL
  6
CONTINUOUS
 62
     5
 10
226.3777739999998
 20
-169.770487
 30
0.0
 11
226.4052129999997
 21
-34.101116
 31
0.0
  0
LINE
  5
720
  8
DETAIL
  6
CONTINUOUS
 62
     5
 10
222.8091019999999
 20
-171.5185379999998
 30
0.0
 11
222.8368079999998
 21
-34.101116
 31
0.0
  0
LINE
  5
721
  8
DETAIL
  6
CONTINUOUS
 62
     5
 10
199.6510779999998
 20
-153.603205
 30
0.0
 11
208.72784
 21
-160.234973
 31
0.0
  0
LINE
  5
722
  8
DETAIL
  6
CONTINUOUS
 62
     5
 10
188.3689499999998
 20
-154.0231179999999
 30
0.0
 11
210.8880409999998
 21
-162.5157199999999
 31
0.0
  0
LINE
  5
723
  8
DETAIL
  6
CONTINUOUS
 62
     5
 10
208.7278429999998
 20
-160.235011
 30
0.0
 11
210.888085
 21
-162.5157449999999
 31
0.0
  0
LINE
  5
724
  8
DETAIL
  6
CONTINUOUS
 62
     5
 10
164.7139859999999
 20
-133.3042759999999
 30
0.0
 11
184.8296919999999
 21
-144.670982
 31
0.0
  0
LINE
  5
725
  8
DETAIL
  6
CONTINUOUS
 62
     5
 10
164.1748029999999
 20
-144.8595929999999
 30
0.0
 11
188.3689659999999
 21
-154.0231679999999
 31
0.0
  0
LINE
  5
726
  8
DETAIL
  6
CONTINUOUS
 62
     5
 10
184.8296799999999
 20
-144.670981
 30
0.0
 11
199.6510699999999
 21
-153.603228
 31
0.0
  0
LINE
  5
727
  8
DETAIL
  6
CONTINUOUS
 62
     5
 10
250.4858059999999
 20
-89.377982
 30
0.0
 11
271.9691294941571
 21
-89.38158132497118
 31
0.0000000000000142
  0
LINE
  5
728
  8
DETAIL
  6
CONTINUOUS
 62
     5
 10
271.968291705341
 20
-94.97912816525444
 30
0.0000000000000142
 11
250.4849679999998
 21
-94.97552999999999
 31
0.0
  0
ARC
  5
729
  8
DETAIL
  6
CONTINUOUS
 62
     5
 10
272.1817908765186
 20
-92.18038663698937
 30
0.0000000000000142
 40
2.806872999999999
 50
265.6376980000003
 51
94.34515099999999
  0
LINE
  5
72A
  8
DETAIL
  6
CONTINUOUS
 62
     5
 10
111.1871609999998
 20
-102.558633
 30
0.0
 11
139.9152979999998
 21
-119.311535
 31
0.0
  0
LINE
  5
72B
  8
DETAIL
  6
CONTINUOUS
 62
     5
 10
114.3744749999998
 20
-124.577548
 30
0.0
 11
90.51597699999996
 21
-113.446285
 31
0.0
  0
LINE
  5
72C
  8
DETAIL
  6
CONTINUOUS
 62
     5
 10
79.39714999999998
 20
-119.302503
 30
0.0
 11
111.187158
 21
-102.558692
 31
0.0
  0
LINE
  5
72D
  8
DETAIL
  6
CONTINUOUS
 62
     5
 10
18.31210399999999
 20
-124.5631759999999
 30
0.0
 11
30.057659
 21
-113.450329
 31
0.0
  0
ARC
  5
72E
  8
DETAIL
  6
CONTINUOUS
 62
     5
 10
20.17099899999999
 20
-120.852547
 30
0.0
 40
5.023005
 50
27.01880899999999
 51
84.99141699999996
  0
LINE
  5
72F
  8
DETAIL
  6
CONTINUOUS
 62
     5
 10
8.525422
 20
-115.3609609999999
 30
0.0
 11
8.525723
 21
-113.3517499999999
 31
0.0
  0
ARC
  5
730
  8
DETAIL
  6
CONTINUOUS
 62
     5
 10
77.62294699999998
 20
-216.580661
 30
0.0
 40
7.735428999999999
 50
219.9745859999999
 51
320.0082799999998
  0
LINE
  5
731
  8
DETAIL
  6
CONTINUOUS
 62
     5
 10
71.695109
 20
-221.2009389999998
 30
0.0
 11
83.54940400000002
 21
-221.202713
 31
0.0
  0
LINE
  5
732
  8
DETAIL
  6
CONTINUOUS
 62
     5
 10
83.54935
 20
-221.5520399999998
 30
0.0
 11
71.69505699999996
 21
-221.5502659999999
 31
0.0
  0
LINE
  5
733
  8
DETAIL
  6
CONTINUOUS
 62
     5
 10
86.161366
 20
-221.2031039999998
 30
0.0
 11
70.590047
 21
-221.2007729999998
 31
0.0
  0
LINE
  5
734
  8
DETAIL
  6
CONTINUOUS
 62
     5
 10
90.68178700000001
 20
-223.5143509999998
 30
0.0
 11
81.05526199999998
 21
-223.5129099999998
 31
0.0
  0
LINE
  5
735
  8
DETAIL
  6
CONTINUOUS
 62
     5
 10
86.161968
 20
-217.184699
 30
0.0
 11
79.93344
 21
-217.1837669999999
 31
0.0
  0
LINE
  5
736
  8
DETAIL
  6
CONTINUOUS
 62
     5
 10
86.16166699999998
 20
-219.193901
 30
0.0
 11
79.93313899999998
 21
-219.192969
 31
0.0
  0
ARC
  5
737
  8
DETAIL
  6
CONTINUOUS
 62
     5
 10
90.681381
 20
-226.2267859999998
 30
0.0
 40
2.712423999999999
 50
359.9914249999788
 51
89.99144299999992
  0
LINE
  5
738
  8
DETAIL
  6
CONTINUOUS
 62
     5
 10
90.68216400000001
 20
-221.2037799999998
 30
0.0
 11
86.161366
 21
-221.2031039999998
 31
0.0
  0
LINE
  5
739
  8
DETAIL
  6
CONTINUOUS
 62
     5
 10
86.161968
 20
-217.184699
 30
0.0
 11
86.161366
 21
-221.2031039999998
 31
0.0
  0
LINE
  5
73A
  8
DETAIL
  6
CONTINUOUS
 62
     5
 10
83.549403
 20
-221.202713
 30
0.0
 11
83.54935
 21
-221.5520399999998
 31
0.0
  0
LINE
  5
73B
  8
DETAIL
  6
CONTINUOUS
 62
     5
 10
83.64954799999998
 20
-223.5132979999998
 30
0.0
 11
83.64989399999996
 21
-221.202728
 31
0.0
  0
LINE
  5
73C
  8
DETAIL
  6
CONTINUOUS
 62
     5
 10
154.207386
 20
-226.334358
 30
0.0
 11
95.10191199999998
 21
-226.2876869999998
 31
0.0
  0
LINE
  5
73D
  8
DETAIL
  6
CONTINUOUS
 62
     5
 10
114.3744639999998
 20
-124.5775929999999
 30
0.0
 11
139.2212639999998
 21
-135.0443459999999
 31
0.0
  0
LINE
  5
73E
  8
DETAIL
  6
CONTINUOUS
 62
     5
 10
66.308323
 20
-161.192013
 30
0.0
 11
66.572845
 21
-213.1633619999999
 31
0.0
  0
LINE
  5
73F
  8
DETAIL
  6
CONTINUOUS
 62
     5
 10
75.313477
 20
-209.1462649999999
 30
0.0
 11
79.934643
 21
-209.146957
 31
0.0
  0
LINE
  5
740
  8
DETAIL
  6
CONTINUOUS
 62
     5
 10
71.695109
 20
-221.2009389999998
 30
0.0
 11
71.69505699999996
 21
-221.5502659999999
 31
0.0
  0
LINE
  5
741
  8
DETAIL
  6
CONTINUOUS
 62
     5
 10
68.580795
 20
-221.738819
 30
0.0
 11
68.58053000000001
 21
-223.511043
 31
0.0
  0
LINE
  5
742
  8
DETAIL
  6
CONTINUOUS
 62
     5
 10
71.59433299999998
 20
-223.5114939999998
 30
0.0
 11
71.594679
 21
-221.2009239999998
 31
0.0
  0
LINE
  5
743
  8
DETAIL
  6
CONTINUOUS
 62
     5
 10
75.312274
 20
-217.183075
 30
0.0
 11
70.590649
 21
-217.1823679999999
 31
0.0
  0
LINE
  5
744
  8
DETAIL
  6
CONTINUOUS
 62
     5
 10
75.313477
 20
-209.1462649999999
 30
0.0
 11
75.31167299999998
 21
-221.2014799999998
 31
0.0
  0
LINE
  5
745
  8
DETAIL
  6
CONTINUOUS
 62
     5
 10
64.561839
 20
-225.2182759999998
 30
0.0
 11
64.56168799999998
 21
-226.222877
 31
0.0
  0
LINE
  5
746
  8
DETAIL
  6
CONTINUOUS
 62
     5
 10
66.57104100000001
 20
-225.218577
 30
0.0
 11
66.57089099999999
 21
-226.223178
 31
0.0
  0
LINE
  5
747
  8
DETAIL
  6
CONTINUOUS
 62
     5
 10
74.188558
 20
-223.5118819999998
 30
0.0
 11
66.95227399999999
 21
-223.5107989999999
 31
0.0
  0
ARC
  5
748
  8
DETAIL
  6
CONTINUOUS
 62
     5
 10
70.58944599999998
 20
-225.2191779999998
 30
0.0
 40
6.027606999999997
 50
89.99142500000012
 51
179.9914249999788
  0
ARC
  5
749
  8
DETAIL
  6
CONTINUOUS
 62
     5
 10
70.58944599999998
 20
-225.2191779999998
 30
0.0
 40
4.018404999999999
 50
89.99142500000002
 51
179.9914250000213
  0
ARC
  5
74A
  8
DETAIL
  6
CONTINUOUS
 62
     5
 10
70.59125
 20
-213.1639629999999
 30
0.0
 40
4.018404999999999
 50
179.9914250000213
 51
269.9914249999998
  0
LINE
  5
74B
  8
DETAIL
  6
CONTINUOUS
 62
     5
 10
79.934643
 20
-209.146957
 30
0.0
 11
79.932839
 21
-221.202172
 31
0.0
  0
LINE
  5
74C
  8
DETAIL
  6
CONTINUOUS
 62
     5
 10
75.31197399999998
 20
-219.192277
 30
0.0
 11
0.2682630000000028
 21
-219.181046
 31
0.0
  0
LINE
  5
74D
  8
DETAIL
  6
CONTINUOUS
 62
     5
 10
56.241484
 20
-132.044474
 30
0.0
 11
57.74815999999999
 21
-133.551602
 31
0.0
  0
LINE
  5
74E
  8
DETAIL
  6
CONTINUOUS
 62
     5
 10
48.52848
 20
-132.0433199999999
 30
0.0
 11
56.241484
 21
-132.044474
 31
0.0
  0
ARC
  5
74F
  8
DETAIL
  6
CONTINUOUS
 62
     5
 10
58.450329
 20
-140.583915
 30
0.0
 40
7.032208999999999
 50
359.9914250000213
 51
89.99142500000002
  0
LINE
  5
750
  8
DETAIL
  6
CONTINUOUS
 62
     5
 10
58.451381
 20
-133.5517069999999
 30
0.0
 11
57.74815999999999
 21
-133.551602
 31
0.0
  0
LINE
  5
751
  8
DETAIL
  6
CONTINUOUS
 62
     5
 10
65.48253699999998
 20
-140.584968
 30
0.0
 11
65.504763
 21
-160.388212
 31
0.0
  0
LINE
  5
752
  8
DETAIL
  6
CONTINUOUS
 62
     5
 10
45.51654400000001
 20
-133.2864519999999
 30
0.0
 11
10.57465
 21
-144.644915
 31
0.0
  0
LINE
  5
753
  8
DETAIL
  6
CONTINUOUS
 62
     5
 10
1.751955000000001
 20
-135.023664
 30
0.0
 11
18.31206899999999
 21
-124.563129
 31
0.0
  0
LINE
  5
754
  8
DETAIL
  6
CONTINUOUS
 62
     5
 10
45.51654099999998
 20
-133.286477
 30
0.0
 11
79.397154
 21
-119.302485
 31
0.0
  0
LINE
  5
755
  8
DETAIL
  6
CONTINUOUS
 62
     5
 10
65.504763
 20
-160.388212
 30
0.0
 11
66.308323
 21
-161.192013
 31
0.0
  0
LINE
  5
756
  8
DETAIL
  6
CONTINUOUS
 62
     5
 10
65.482501
 20
-140.827039
 30
0.0
 11
65.504763
 21
-160.388212
 31
0.0
  0
LINE
  5
757
  8
DETAIL
  6
CONTINUOUS
 62
     5
 10
11.925955
 20
-161.198612
 30
0.0
 11
66.308323
 21
-161.192013
 31
0.0
  0
LINE
  5
758
  8
DETAIL
  6
CONTINUOUS
 62
     5
 10
9.454739
 20
-162.001923
 30
0.0
 11
66.31243499999998
 21
-161.999883
 31
0.0
  0
LINE
  5
759
  8
DETAIL
  6
CONTINUOUS
 62
     5
 10
-0.0145149999999994
 20
-120.884988
 30
0.0
 11
-0.0145149999999994
 21
-120.884988
 31
0.0
  0
LINE
  5
75A
  8
DETAIL
  6
CONTINUOUS
 62
     5
 10
-0.0145149999999994
 20
-120.884988
 30
0.0
 11
-0.0145149999999994
 21
-120.884988
 31
0.0
  0
LINE
  5
75B
  8
DETAIL
  6
CONTINUOUS
 62
     5
 10
-0.0145149999999994
 20
-120.884988
 30
0.0
 11
-0.0145149999999994
 21
-120.884988
 31
0.0
  0
LINE
  5
75C
  8
DETAIL
  6
CONTINUOUS
 62
     5
 10
-0.0145149999999994
 20
-120.884988
 30
0.0
 11
-0.0145149999999994
 21
-120.884988
 31
0.0
  0
LINE
  5
75D
  8
DETAIL
  6
CONTINUOUS
 62
     5
 10
90.544339
 20
-113.459412
 30
0.0
 11
90.51597699999996
 21
-113.446279
 31
0.0
  0
LINE
  5
75E
  8
DETAIL
  6
CONTINUOUS
 62
     5
 10
122.1029459999999
 20
-95.018276
 30
0.0
 11
111.1871489999999
 21
-102.558715
 31
0.0
  0
LINE
  5
75F
  8
DETAIL
  6
CONTINUOUS
 62
     5
 10
30.05766799999998
 20
-113.45036
 30
0.0
 11
36.89939299999999
 21
-101.7235989999999
 31
0.0
  0
LINE
  5
760
  8
DETAIL
  6
CONTINUOUS
 62
     5
 10
36.89937599999998
 20
-101.7236
 30
0.0
 11
38.572322
 21
-95.54374899999999
 31
0.0
  0
LINE
  5
761
  8
DETAIL
  6
CONTINUOUS
 62
     5
 10
14.05102999999999
 20
-113.352577
 30
0.0
 11
14.051331
 21
-111.343374
 31
0.0
  0
LINE
  5
762
  8
DETAIL
  6
CONTINUOUS
 62
     5
 10
-8.551821
 20
-108.828488
 30
0.0
 11
14.05170599999999
 21
-108.831871
 31
0.0
  0
LINE
  5
763
  8
DETAIL
  6
CONTINUOUS
 62
     5
 10
-8.552196999999982
 20
-111.339991
 30
0.0
 11
14.051331
 21
-111.343374
 31
0.0
  0
LINE
  5
764
  8
DETAIL
  6
CONTINUOUS
 62
     5
 10
14.051331
 20
-111.343374
 30
0.0
 11
14.05170599999999
 21
-108.831871
 31
0.0
  0
LINE
  5
765
  8
DETAIL
  6
CONTINUOUS
 62
     5
 10
14.051857
 20
-107.82727
 30
0.0
 11
13.047105
 21
-108.831721
 31
0.0
  0
LINE
  5
766
  8
DETAIL
  6
CONTINUOUS
 62
     5
 10
20.609539
 20
-115.848708
 30
0.0
 11
15.055281
 21
-115.3619399999999
 31
0.0
  0
LINE
  5
767
  8
DETAIL
  6
CONTINUOUS
 62
     5
 10
15.055277
 20
-115.361939
 30
0.0
 11
-0.0172659999999993
 21
-115.359683
 31
0.0
  0
LINE
  5
768
  8
DETAIL
  6
CONTINUOUS
 62
     5
 10
-0.0169650000000008
 20
-113.3504709999999
 30
0.0
 11
14.05102999999999
 21
-113.352577
 31
0.0
  0
LINE
  5
769
  8
DETAIL
  6
CONTINUOUS
 62
     5
 10
14.306377
 20
-95.37023999999998
 30
0.0
 11
14.051857
 21
-107.82727
 31
0.0
  0
LINE
  5
76A
  8
DETAIL
  6
CONTINUOUS
 62
     5
 10
-93.16525299999995
 20
-258.4067479999998
 30
0.0
 11
-93.16044199999995
 21
-226.2595099999998
 31
0.0
  0
ARC
  5
76B
  8
DETAIL
  6
CONTINUOUS
 62
     5
 10
-147.8838479999999
 20
-155.929236
 30
0.0
 40
102.4693249999999
 50
179.9914249999788
 51
269.9914249999999
  0
ARC
  5
76C
  8
DETAIL
  6
CONTINUOUS
 62
     5
 10
-154.0952709999999
 20
-155.966128
 30
0.0
 40
70.322086
 50
192.721455
 51
269.9914249999999
  0
ARC
  5
76D
  8
DETAIL
  6
CONTINUOUS
 62
     5
 10
-157.2919529999999
 20
-155.96565
 30
0.0
 40
70.322086
 50
191.2648979999998
 51
269.9914249999999
  0
LINE
  5
76E
  8
DETAIL
  6
CONTINUOUS
 62
     5
 10
-57.80705300000001
 20
-283.8376419999998
 30
0.0
 11
-56.300377
 21
-285.3447689999999
 31
0.0
  0
LINE
  5
76F
  8
DETAIL
  6
CONTINUOUS
 62
     5
 10
-35.956977
 20
-283.840912
 30
0.0
 11
-38.82009
 21
-283.8404839999999
 31
0.0
  0
LINE
  5
770
  8
DETAIL
  6
CONTINUOUS
 62
     5
 10
-31.436301
 20
-284.0425149999998
 30
0.0
 11
-33.09389299999999
 21
-284.0422669999998
 31
0.0
  0
LINE
  5
771
  8
DETAIL
  6
CONTINUOUS
 62
     5
 10
-24.25340299999999
 20
-284.0435899999999
 30
0.0
 11
-25.91099499999999
 21
-284.0433419999999
 31
0.0
  0
LINE
  5
772
  8
DETAIL
  6
CONTINUOUS
 62
     5
 10
-25.91099499999999
 20
-284.0433419999999
 30
0.0
 11
-31.436301
 21
-284.0425149999998
 31
0.0
  0
LINE
  5
773
  8
DETAIL
  6
CONTINUOUS
 62
     5
 10
-40.327218
 20
-285.3471599999998
 30
0.0
 11
-38.82009
 21
-283.8404839999999
 31
0.0
  0
LINE
  5
774
  8
DETAIL
  6
CONTINUOUS
 62
     5
 10
-33.92804799999999
 20
-284.0421419999999
 30
0.0
 11
-35.20734
 21
-285.0805359999998
 31
0.0
  0
LINE
  5
775
  8
DETAIL
  6
CONTINUOUS
 62
     5
 10
-35.534849
 20
-285.3478769999998
 30
0.0
 11
-56.300377
 21
-285.3447689999999
 31
0.0
  0
LINE
  5
776
  8
DETAIL
  6
CONTINUOUS
 62
     5
 10
-3.68993699999999
 20
-285.3526439999998
 30
0.0
 11
-25.02661499999999
 21
-285.3494499999999
 31
0.0
  0
LINE
  5
777
  8
DETAIL
  6
CONTINUOUS
 62
     5
 10
-38.113545
 20
-285.3474909999999
 30
0.0
 11
-47.556796
 21
-285.3460779999998
 31
0.0
  0
LINE
  5
778
  8
DETAIL
  6
CONTINUOUS
 62
     5
 10
-47.556796
 20
-285.3460779999998
 30
0.0
 11
-47.55683899999998
 21
-285.6358499999999
 31
0.0
  0
LINE
  5
779
  8
DETAIL
  6
CONTINUOUS
 62
     5
 10
-38.113545
 20
-285.3474909999999
 30
0.0
 11
-38.113588
 21
-285.6372639999998
 31
0.0
  0
LINE
  5
77A
  8
DETAIL
  6
CONTINUOUS
 62
     5
 10
-47.55683899999998
 20
-285.6358499999999
 30
0.0
 11
-38.113588
 21
-285.6372639999998
 31
0.0
  0
LINE
  5
77B
  8
DETAIL
  6
CONTINUOUS
 62
     5
 10
-35.20734
 20
-285.0805359999998
 30
0.0
 11
-35.53478699999999
 21
-285.3478769999998
 31
0.0
  0
ARC
  5
77C
  8
DETAIL
  6
CONTINUOUS
 62
     5
 10
-58.509221
 20
-276.8053279999998
 30
0.0
 40
7.032208999999999
 50
179.9914250000213
 51
269.9914249999998
  0
LINE
  5
77D
  8
DETAIL
  6
CONTINUOUS
 62
     5
 10
-65.539278
 20
-262.4292879999999
 30
0.0
 11
-65.54143
 21
-276.8042759999998
 31
0.0
  0
LINE
  5
77E
  8
DETAIL
  6
CONTINUOUS
 62
     5
 10
-58.510274
 20
-283.8375369999998
 30
0.0
 11
-57.80705300000001
 21
-283.8376419999998
 31
0.0
  0
ARC
  5
77F
  8
DETAIL
  6
CONTINUOUS
 62
     5
 10
-28.673388
 20
-282.3083169999999
 30
0.0
 40
4.748414999999999
 50
201.4176710000001
 51
338.5651789999998
  0
ARC
  5
780
  8
DETAIL
  6
CONTINUOUS
 62
     5
 10
-42.83462899999999
 20
-281.7302199999999
 30
0.0
 40
6.128067999999998
 50
219.5934069999997
 51
320.389459
  0
LINE
  5
781
  8
DETAIL
  6
CONTINUOUS
 62
     5
 10
-95.17445599999985
 20
-258.4064479999998
 30
0.0
 11
-95.17505699999995
 21
-262.4248529999999
 31
0.0
  0
LINE
  5
782
  8
DETAIL
  6
CONTINUOUS
 62
     5
 10
-147.899184
 20
-258.3985599999997
 30
0.0
 11
-95.17445599999985
 21
-258.4064479999998
 31
0.0
  0
LINE
  5
783
  8
DETAIL
  6
CONTINUOUS
 62
     5
 10
-178.50128
 20
-133.2529529999999
 30
0.0
 11
-163.6803439999998
 21
-144.618859
 31
0.0
  0
LINE
  5
784
  8
DETAIL
  6
CONTINUOUS
 62
     5
 10
-88.863941
 20
-113.432583
 30
0.0
 11
-100.9535009999999
 21
-124.5453409999999
 31
0.0
  0
ARC
  5
785
  8
DETAIL
  6
CONTINUOUS
 62
     5
 10
-20.200018
 20
-120.846505
 30
0.0
 40
5.023005
 50
94.99143199999996
 51
174.9914709999998
  0
LINE
  5
786
  8
DETAIL
  6
CONTINUOUS
 62
     5
 10
-8.552797999999981
 20
-115.358405
 30
0.0
 11
-8.552497999999979
 21
-113.349194
 31
0.0
  0
LINE
  5
787
  8
DETAIL
  6
CONTINUOUS
 62
     5
 10
-85.62544199999999
 20
-221.177392
 30
0.0
 11
-70.054123
 21
-221.1797229999999
 31
0.0
  0
LINE
  5
788
  8
DETAIL
  6
CONTINUOUS
 62
     5
 10
-83.01353099999999
 20
-221.5271109999998
 30
0.0
 11
-71.159237
 21
-221.5288849999998
 31
0.0
  0
LINE
  5
789
  8
DETAIL
  6
CONTINUOUS
 62
     5
 10
-71.159185
 20
-221.1795579999998
 30
0.0
 11
-83.01347899999999
 21
-221.1777829999998
 31
0.0
  0
ARC
  5
78A
  8
DETAIL
  6
CONTINUOUS
 62
     5
 10
-77.08563999999996
 20
-216.5575049999999
 30
0.0
 40
7.735428999999999
 50
219.9745689999999
 51
320.008263
  0
LINE
  5
78B
  8
DETAIL
  6
CONTINUOUS
 62
     5
 10
-85.62514099999999
 20
-219.1681899999999
 30
0.0
 11
-79.39661399999999
 21
-219.169122
 31
0.0
  0
LINE
  5
78C
  8
DETAIL
  6
CONTINUOUS
 62
     5
 10
-85.62483999999999
 20
-217.1589879999998
 30
0.0
 11
-79.396313
 21
-217.15992
 31
0.0
  0
LINE
  5
78D
  8
DETAIL
  6
CONTINUOUS
 62
     5
 10
-90.146554
 20
-223.4872859999999
 30
0.0
 11
-80.520029
 21
-223.488727
 31
0.0
  0
LINE
  5
78E
  8
DETAIL
  6
CONTINUOUS
 62
     5
 10
-66.026768
 20
-161.383858
 30
0.0
 11
-66.02885
 21
-175.2917129999999
 31
0.0
  0
LINE
  5
78F
  8
DETAIL
  6
CONTINUOUS
 62
     5
 10
-74.77394400000001
 20
-209.123802
 30
0.0
 11
-79.39511000000002
 21
-209.1231099999999
 31
0.0
  0
ARC
  5
790
  8
DETAIL
  6
CONTINUOUS
 62
     5
 10
-70.05292
 20
-213.1429129999999
 30
0.0
 40
4.018404999999999
 50
269.9914249999998
 51
359.9914250000213
  0
ARC
  5
791
  8
DETAIL
  6
CONTINUOUS
 62
     5
 10
-70.054724
 20
-225.1981279999998
 30
0.0
 40
4.018404999999999
 50
359.9914250000213
 51
89.99142500000002
  0
ARC
  5
792
  8
DETAIL
  6
CONTINUOUS
 62
     5
 10
-70.054724
 20
-225.1981279999998
 30
0.0
 40
6.027606999999997
 50
359.9914249999788
 51
89.99142499999998
  0
LINE
  5
793
  8
DETAIL
  6
CONTINUOUS
 62
     5
 10
-73.65332499999992
 20
-223.4897549999998
 30
0.0
 11
-66.41704099999997
 21
-223.4908379999998
 31
0.0
  0
LINE
  5
794
  8
DETAIL
  6
CONTINUOUS
 62
     5
 10
-66.03631999999998
 20
-225.198729
 30
0.0
 11
-66.03647
 21
-226.2033309999999
 31
0.0
  0
LINE
  5
795
  8
DETAIL
  6
CONTINUOUS
 62
     5
 10
-64.027117
 20
-225.1990299999999
 30
0.0
 11
-64.02726700000002
 21
-226.203631
 31
0.0
  0
LINE
  5
796
  8
DETAIL
  6
CONTINUOUS
 62
     5
 10
-74.77394400000001
 20
-209.123802
 30
0.0
 11
-74.775749
 21
-221.179016
 31
0.0
  0
LINE
  5
797
  8
DETAIL
  6
CONTINUOUS
 62
     5
 10
-74.775147
 20
-217.1606109999999
 30
0.0
 11
-70.053522
 21
-217.1613179999999
 31
0.0
  0
LINE
  5
798
  8
DETAIL
  6
CONTINUOUS
 62
     5
 10
-71.059101
 20
-223.490143
 30
0.0
 11
-71.05875500000002
 21
-221.1795729999998
 31
0.0
  0
LINE
  5
799
  8
DETAIL
  6
CONTINUOUS
 62
     5
 10
-68.04503199999999
 20
-221.7183699999999
 30
0.0
 11
-68.04529699999999
 21
-223.4905939999998
 31
0.0
  0
LINE
  5
79A
  8
DETAIL
  6
CONTINUOUS
 62
     5
 10
-71.159185
 20
-221.1795579999998
 30
0.0
 11
-71.159237
 21
-221.5288849999998
 31
0.0
  0
LINE
  5
79B
  8
DETAIL
  6
CONTINUOUS
 62
     5
 10
-79.39511000000002
 20
-209.1231099999999
 30
0.0
 11
-79.39691399999992
 21
-221.1783249999998
 31
0.0
  0
LINE
  5
79C
  8
DETAIL
  6
CONTINUOUS
 62
     5
 10
-66.02885
 20
-175.2917129999999
 30
0.0
 11
-66.03451499999997
 21
-213.1435149999999
 31
0.0
  0
LINE
  5
79D
  8
DETAIL
  6
CONTINUOUS
 62
     5
 10
-24.36677799999999
 20
-153.5697429999999
 30
0.0
 11
-58.246274
 21
-160.1951109999999
 31
0.0
  0
LINE
  5
79E
  8
DETAIL
  6
CONTINUOUS
 62
     5
 10
-73.15683599999997
 20
-162.473227
 30
0.0
 11
-44.44268499999999
 21
-153.988292
 31
0.0
  0
LINE
  5
79F
  8
DETAIL
  6
CONTINUOUS
 62
     5
 10
-58.24627799999999
 20
-160.1950939999999
 30
0.0
 11
-73.156839
 21
-162.4732449999999
 31
0.0
  0
LINE
  5
7A0
  8
DETAIL
  6
CONTINUOUS
 62
     5
 10
-44.44269499999999
 20
-153.988305
 30
0.0
 11
-19.27673599999999
 21
-144.832131
 31
0.0
  0
ARC
  5
7A1
  8
DETAIL
  6
CONTINUOUS
 62
     5
 10
-42.80918699999998
 20
-135.6462139999999
 30
0.0
 40
6.128067999999998
 50
39.59338999999995
 51
140.389442
  0
ARC
  5
7A2
  8
DETAIL
  6
CONTINUOUS
 62
     5
 10
-28.64777399999999
 20
-135.072356
 30
0.0
 40
4.748414999999999
 50
21.41767100000012
 51
158.5651789999998
  0
LINE
  5
7A3
  8
DETAIL
  6
CONTINUOUS
 62
     5
 10
-56.27385200000001
 20
-132.027634
 30
0.0
 11
-57.780979
 21
-133.53431
 31
0.0
  0
LINE
  5
7A4
  8
DETAIL
  6
CONTINUOUS
 62
     5
 10
-38.08702
 20
-132.030356
 30
0.0
 11
-47.53027099999999
 21
-132.028943
 31
0.0
  0
LINE
  5
7A5
  8
DETAIL
  6
CONTINUOUS
 62
     5
 10
-47.53027099999999
 20
-132.028943
 30
0.0
 11
-47.530228
 21
-131.739171
 31
0.0
  0
LINE
  5
7A6
  8
DETAIL
  6
CONTINUOUS
 62
     5
 10
-38.08702
 20
-132.030356
 30
0.0
 11
-38.08697599999999
 21
-131.740584
 31
0.0
  0
LINE
  5
7A7
  8
DETAIL
  6
CONTINUOUS
 62
     5
 10
-47.530228
 20
-131.739171
 30
0.0
 11
-38.08697599999999
 21
-131.740584
 31
0.0
  0
LINE
  5
7A8
  8
DETAIL
  6
CONTINUOUS
 62
     5
 10
-35.930903
 20
-133.537581
 30
0.0
 11
-38.79401599999999
 21
-133.537152
 31
0.0
  0
LINE
  5
7A9
  8
DETAIL
  6
CONTINUOUS
 62
     5
 10
-38.79401599999999
 20
-133.537152
 30
0.0
 11
-40.300693
 21
-132.030025
 31
0.0
  0
LINE
  5
7AA
  8
DETAIL
  6
CONTINUOUS
 62
     5
 10
-34.349066
 20
-132.97528
 30
0.0
 11
-33.90257099999999
 21
-133.336958
 31
0.0
  0
LINE
  5
7AB
  8
DETAIL
  6
CONTINUOUS
 62
     5
 10
-31.41016699999999
 20
-133.337331
 30
0.0
 11
-33.067759
 21
-133.337083
 31
0.0
  0
LINE
  5
7AC
  8
DETAIL
  6
CONTINUOUS
 62
     5
 10
-24.227269
 20
-133.3384059999999
 30
0.0
 11
-25.88486099999998
 21
-133.338158
 31
0.0
  0
LINE
  5
7AD
  8
DETAIL
  6
CONTINUOUS
 62
     5
 10
-25.88486099999998
 20
-133.338158
 30
0.0
 11
-31.41016699999999
 21
-133.337331
 31
0.0
  0
LINE
  5
7AE
  8
DETAIL
  6
CONTINUOUS
 62
     5
 10
-10.26329299999999
 20
-133.3404959999999
 30
0.0
 11
-10.152625
 21
-133.3405129999999
 31
0.0
  0
LINE
  5
7AF
  8
DETAIL
  6
CONTINUOUS
 62
     5
 10
-35.508263
 20
-132.030742
 30
0.0
 11
-34.349066
 21
-132.97528
 31
0.0
  0
LINE
  5
7B0
  8
DETAIL
  6
CONTINUOUS
 62
     5
 10
-35.930873
 20
-133.336654
 30
0.0
 11
4.417726000000004
 21
-133.339775
 31
0.0
  0
LINE
  5
7B1
  8
DETAIL
  6
CONTINUOUS
 62
     5
 10
-35.50823900000001
 20
-132.030742
 30
0.0
 11
-56.27385200000001
 21
-132.027634
 31
0.0
  0
LINE
  5
7B2
  8
DETAIL
  6
CONTINUOUS
 62
     5
 10
-26.51285999999998
 20
-130.830942
 30
0.0
 11
-25.20385099999999
 21
-120.407974
 31
0.0
  0
LINE
  5
7B3
  8
DETAIL
  6
CONTINUOUS
 62
     5
 10
-64.409665
 20
-136.780309
 30
0.0
 11
-62.26958399999999
 21
-134.6408679999999
 31
0.0
  0
ARC
  5
7B4
  8
DETAIL
  6
CONTINUOUS
 62
     5
 10
-58.48525299999999
 20
-140.5664139999999
 30
0.0
 40
7.032208999999999
 50
89.99142500000002
 51
179.9914250000213
  0
LINE
  5
7B5
  8
DETAIL
  6
CONTINUOUS
 62
     5
 10
-65.362821
 20
-159.604081
 30
0.0
 11
-66.166622
 21
-160.4076419999999
 31
0.0
  0
LINE
  5
7B6
  8
DETAIL
  6
CONTINUOUS
 62
     5
 10
-65.51746099999994
 20
-140.565361
 30
0.0
 11
-65.362821
 21
-159.604081
 31
0.0
  0
LINE
  5
7B7
  8
DETAIL
  6
CONTINUOUS
 62
     5
 10
-58.4842
 20
-133.534205
 30
0.0
 11
-57.780979
 21
-133.53431
 31
0.0
  0
LINE
  5
7B8
  8
DETAIL
  6
CONTINUOUS
 62
     5
 10
-154.1057969999999
 20
-226.2882129999999
 30
0.0
 11
-95.16964399999985
 21
-226.2592089999998
 31
0.0
  0
LINE
  5
7B9
  8
DETAIL
  6
CONTINUOUS
 62
     5
 10
-83.11431499999999
 20
-223.4883389999998
 30
0.0
 11
-83.11396899999995
 21
-221.177768
 31
0.0
  0
LINE
  5
7BA
  8
DETAIL
  6
CONTINUOUS
 62
     5
 10
-83.01347799999999
 20
-221.1777829999998
 30
0.0
 11
-83.01353099999999
 21
-221.5271109999998
 31
0.0
  0
LINE
  5
7BB
  8
DETAIL
  6
CONTINUOUS
 62
     5
 10
-85.62483999999999
 20
-217.1589879999998
 30
0.0
 11
-85.62544199999999
 21
-221.177392
 31
0.0
  0
LINE
  5
7BC
  8
DETAIL
  6
CONTINUOUS
 62
     5
 10
-90.146239
 20
-221.1767159999999
 30
0.0
 11
-85.62544199999999
 21
-221.177392
 31
0.0
  0
ARC
  5
7BD
  8
DETAIL
  6
CONTINUOUS
 62
     5
 10
-90.14695999999998
 20
-226.199722
 30
0.0
 40
2.712423999999999
 50
89.9914059999999
 51
179.9914249999788
  0
ARC
  5
7BE
  8
DETAIL
  6
CONTINUOUS
 62
     5
 10
-90.14699099999999
 20
-226.199722
 30
0.0
 40
5.023005999999999
 50
89.9914060000001
 51
179.9914249999363
  0
LINE
  5
7BF
  8
DETAIL
  6
CONTINUOUS
 62
     5
 10
-118.7644989999999
 20
-160.1860639999999
 30
0.0
 11
-106.0151279999998
 21
-162.468357
 31
0.0
  0
LINE
  5
7C0
  8
DETAIL
  6
CONTINUOUS
 62
     5
 10
-112.206384
 20
-153.978157
 30
0.0
 11
-106.0151269999998
 21
-162.468308
 31
0.0
  0
LINE
  5
7C1
  8
DETAIL
  6
CONTINUOUS
 62
     5
 10
-100.9534399999997
 20
-124.545346
 30
0.0
 11
-109.244784
 21
-135.0071269999999
 31
0.0
  0
LINE
  5
7C2
  8
DETAIL
  6
CONTINUOUS
 62
     5
 10
-109.2448759999998
 20
-135.0071419999999
 30
0.0
 11
-113.1741689999998
 21
-144.8180739999999
 31
0.0
  0
LINE
  5
7C3
  8
DETAIL
  6
CONTINUOUS
 62
     5
 10
-113.1741029999999
 20
-144.81805
 30
0.0
 11
-112.2064109999999
 21
-153.978169
 31
0.0
  0
LINE
  5
7C4
  8
DETAIL
  6
CONTINUOUS
 62
     5
 10
-163.6803279999999
 20
-144.618931
 30
0.0
 11
-118.7644979999997
 21
-160.1860879999999
 31
0.0
  0
LINE
  5
7C5
  8
DETAIL
  6
CONTINUOUS
 62
     5
 10
-73.695692
 20
-101.707041
 30
0.0
 11
-88.86393900000003
 21
-113.4325519999999
 31
0.0
  0
LINE
  5
7C6
  8
DETAIL
  6
CONTINUOUS
 62
     5
 10
-97.01871399999995
 20
-100.4136
 30
0.0
 11
-78.65322299999995
 21
-94.98822899999999
 31
0.0
  0
LINE
  5
7C7
  8
DETAIL
  6
CONTINUOUS
 62
     5
 10
-66.01446899999999
 20
-94.99012099999999
 30
0.0
 11
-73.69567899999997
 21
-101.7071119999999
 31
0.0
  0
LINE
  5
7C8
  8
DETAIL
  6
CONTINUOUS
 62
     5
 10
-0.0169650000000008
 20
-113.3504709999999
 30
0.0
 11
-14.077804
 21
-113.3483669999999
 31
0.0
  0
LINE
  5
7C9
  8
DETAIL
  6
CONTINUOUS
 62
     5
 10
-15.082653
 20
-115.3574279999999
 30
0.0
 11
-0.0172659999999993
 21
-115.359683
 31
0.0
  0
LINE
  5
7CA
  8
DETAIL
  6
CONTINUOUS
 62
     5
 10
-20.637061
 20
-115.842535
 30
0.0
 11
-15.08265699999999
 21
-115.357429
 31
0.0
  0
LINE
  5
7CB
  8
DETAIL
  6
CONTINUOUS
 62
     5
 10
-14.07697699999999
 20
-107.82306
 30
0.0
 11
-13.07252599999999
 21
-108.827812
 31
0.0
  0
LINE
  5
7CC
  8
DETAIL
  6
CONTINUOUS
 62
     5
 10
-14.07750399999999
 20
-111.3391639999999
 30
0.0
 11
-14.077128
 21
-108.827661
 31
0.0
  0
LINE
  5
7CD
  8
DETAIL
  6
CONTINUOUS
 62
     5
 10
-8.552196999999982
 20
-111.339991
 30
0.0
 11
-14.07750399999999
 21
-111.3391639999999
 31
0.0
  0
LINE
  5
7CE
  8
DETAIL
  6
CONTINUOUS
 62
     5
 10
-8.551821
 20
-108.828488
 30
0.0
 11
-14.077128
 21
-108.827661
 31
0.0
  0
LINE
  5
7CF
  8
DETAIL
  6
CONTINUOUS
 62
     5
 10
-14.077804
 20
-113.3483669999999
 30
0.0
 11
-14.07750399999999
 21
-111.3391639999999
 31
0.0
  0
LINE
  5
7D0
  8
DETAIL
  6
CONTINUOUS
 62
     5
 10
-14.075113
 20
-95.36599299999999
 30
0.0
 11
-14.07697699999999
 21
-107.82306
 31
0.0
  0
LINE
  5
7D1
  8
DETAIL
  6
CONTINUOUS
 62
     5
 10
-104.3963539999999
 20
-94.89939799999999
 30
0.0
 11
-104.3963539999999
 21
-94.89939799999999
 31
0.0
  0
ARC
  5
7D2
  8
DETAIL
  6
CONTINUOUS
 62
     5
 10
-98.64739999999985
 20
-94.90025799999998
 30
0.0
 40
5.748923999999997
 50
179.9914250000213
 51
286.4575179999999
  0
LINE
  5
7D3
  8
DETAIL
  6
CONTINUOUS
 62
     5
 10
-187.5770419999999
 20
-119.262533
 30
0.0
 11
-190.6313429999998
 21
-102.5135249999999
 31
0.0
  0
LINE
  5
7D4
  8
DETAIL
  6
CONTINUOUS
 62
     5
 10
-226.25925
 20
-169.702741
 30
0.0
 11
-226.2453059999997
 21
-34.08626400000004
 31
0.0
  0
LINE
  5
7D5
  8
DETAIL
  6
CONTINUOUS
 62
     5
 10
-250.353172
 20
-155.9138989999999
 30
0.0
 11
-250.3337539999998
 21
-26.082165
 31
0.0
  0
LINE
  5
7D6
  8
DETAIL
  6
CONTINUOUS
 62
     5
 10
-222.6911009999997
 20
-171.45186
 30
0.0
 11
-222.6776512665041
 21
-34.08626400000004
 31
0.0
  0
LINE
  5
7D7
  8
DETAIL
  6
CONTINUOUS
 62
     5
 10
-187.577061
 20
-119.2625299999999
 30
0.0
 11
-178.5012999999998
 21
-133.2529609999999
 31
0.0
  0
LINE
  5
7D8
  8
DETAIL
  6
CONTINUOUS
 62
     5
 10
-190.631287
 20
-102.513527
 30
0.0
 11
-189.4593399999999
 21
-94.909683
 31
0.0
  0
ARC
  5
7D9
  8
DETAIL
  6
CONTINUOUS
 62
     5
 10
-272.2044570637412
 20
-92.09814473705828
 30
-0.0000000000000142
 40
2.806872999999999
 50
85.63769800000026
 51
274.345151
  0
LINE
  5
7DA
  8
DETAIL
  6
CONTINUOUS
 62
     5
 10
-271.9917956813802
 20
-94.89695004907648
 30
-0.0000000000000142
 11
-250.344054
 21
-94.90057099999997
 31
0.0
  0
LINE
  5
7DB
  8
DETAIL
  6
CONTINUOUS
 62
     5
 10
-250.3432159999998
 20
-89.30302299999998
 30
0.0
 11
-271.9909578925639
 21
-89.29940320879321
 31
-0.0000000000000142
  0
LINE
  5
7DC
  8
NOTE
  6
CONTINUOUS
 62
     4
 39
50.0
 10
375.0666519999999
 20
37.32412099999982
 30
0.0
 11
649.775948
 21
37.32412099999982
 31
0.0
  0
LINE
  5
7DD
  8
NOTE
  6
CONTINUOUS
 62
     4
 39
50.0
 10
375.0666519999999
 20
37.32412099999982
 30
0.0
 11
280.00299
 21
0.000021000000018
 31
0.0
  0
TEXT
  5
7E0
  8
NOTE
  6
CONTINUOUS
 62
     4
 10
378.6505419999999
 20
56.06096199999982
 30
0.0
 40
64.0
  1
4-φ14
 41
0.9
  0
LINE
  5
7E1
  8
NOTE
  6
CONTINUOUS
 62
     4
 10
312.6885069999998
 20
23.05771
 30
0.0
 11
280.00299
 21
0.000021000000018
 31
0.0
  0
LINE
  5
7E2
  8
NOTE
  6
CONTINUOUS
 62
     4
 10
280.00299
 20
0.000021000000018
 30
0.0
 11
319.8383219999999
 21
3.625806999999995
 31
0.0
  0
LINE
  5
7E4
  8
DETAIL
  6
CONTINUOUS
 62
     5
 10
302.7810539999998
 20
-9.993122
 30
0.0
 11
-0.0015009999999975
 21
-9.985730000000004
 31
0.0
  0
LINE
  5
7E5
  8
DETAIL
  6
CONTINUOUS
 62
     5
 10
286.5363939999999
 20
-20.062527
 30
0.0
 11
-0.0030020000000004
 21
-20.055134
 31
0.0
  0
LINE
  5
7E6
  8
DETAIL
  6
CONTINUOUS
 62
     5
 10
307.5395369999998
 20
-0.0073919999999816
 30
0.0
 11
0.0
 21
0.0
 31
0.0
  0
LINE
  5
7E7
  8
DETAIL
  6
CONTINUOUS
 62
     5
 10
307.349013
 20
-7.728618999999995
 30
0.0
 11
-0.0011559999999999
 21
-7.721226999999999
 31
0.0
  0
ARC
  5
7E8
  8
DETAIL
  6
CONTINUOUS
 62
     5
 10
-307.9863159999996
 20
-2.298881000000023
 30
0.0
 40
2.306341
 50
90.0
 51
196.7548049999999
  0
LINE
  5
7E9
  8
DETAIL
  6
CONTINUOUS
 62
     5
 10
-307.7957929999998
 20
-7.713768000000002
 30
0.0
 11
-0.0011559999999999
 21
-7.721226999999999
 31
0.0
  0
LINE
  5
7EA
  8
DETAIL
  6
CONTINUOUS
 62
     5
 10
-307.9863159999996
 20
0.0074589999999972
 30
0.0
 11
0.0
 21
0.0
 31
0.0
  0
LINE
  5
7EB
  8
DETAIL
  6
CONTINUOUS
 62
     5
 10
-303.227833
 20
-9.993122
 30
0.0
 11
-0.0015009999999975
 21
-10.000581
 31
0.0
  0
ARC
  5
7EC
  8
DETAIL
  6
CONTINUOUS
 62
     5
 10
-287.076243
 20
-16.07663899999999
 30
0.0
 40
3.918162
 50
179.4152119999997
 51
271.3671470000001
  0
ARC
  5
7ED
  8
DETAIL
  6
CONTINUOUS
 62
     5
 10
-285.5462899999998
 20
-16.059867
 30
0.0
 40
4.221911999999997
 50
179.6848949999999
 51
248.7529149999998
  0
ARC
  5
7EE
  8
DETAIL
  6
CONTINUOUS
 62
     5
 10
-295.0052279999998
 20
-14.03113500000001
 30
0.0
 40
4.011026999999999
 50
0.0
 51
90.0
  0
ARC
  5
7EF
  8
DETAIL
  6
CONTINUOUS
 62
     5
 10
-293.7791649999998
 20
-14.03113500000001
 30
0.0
 40
4.011026999999999
 50
0.0
 51
90.0
  0
ARC
  5
7F0
  8
DETAIL
  6
CONTINUOUS
 62
     5
 10
-307.7957929999998
 20
-6.410184000000001
 30
0.0
 40
1.303584
 50
196.7548049999999
 51
270.0
  0
ARC
  5
7F1
  8
DETAIL
  6
CONTINUOUS
 62
     5
 10
-303.2943149999995
 20
-6.067684999999997
 30
0.0
 40
3.926
 50
204.8340629999998
 51
270.9702889999996
  0
LINE
  5
7F2
  8
DETAIL
  6
CONTINUOUS
 62
     5
 10
-310.1947459999997
 20
-2.963745000000003
 30
0.0
 11
-309.0440349999997
 21
-6.785977000000003
 31
0.0
  0
LINE
  5
7F3
  8
DETAIL
  6
CONTINUOUS
 62
     5
 10
-290.9942009999997
 20
-16.036649
 30
0.0
 11
-290.9942009999997
 21
-14.03113500000001
 31
0.0
  0
LINE
  5
7F4
  8
DETAIL
  6
CONTINUOUS
 62
     5
 10
-289.7681379999999
 20
-14.03113500000001
 30
0.0
 11
-289.7681379999999
 21
-16.036649
 31
0.0
  0
LINE
  5
7F5
  8
DETAIL
  6
CONTINUOUS
 62
     5
 10
-286.9827599999996
 20
-19.99368500000001
 30
0.0
 11
-0.0026429999999991
 21
-19.879946
 31
0.0
  0
LINE
  5
7F6
  8
DETAIL
  6
CONTINUOUS
 62
     5
 10
-272.4723059999998
 20
-26.06421600000002
 30
0.0
 11
-202.9848129999997
 21
-26.06421600000002
 31
0.0
  0
ARC
  5
7F7
  8
DETAIL
  6
CONTINUOUS
 62
     5
 10
-220.0021619999999
 20
-20.25935699999999
 30
0.0
 40
13.826907
 50
249.184661
 51
290.815429
  0
LINE
  5
7F8
  8
DETAIL
  6
CONTINUOUS
 62
     5
 10
-228.2749139999999
 20
-34.08626400000004
 30
0.0
 11
-211.7294089999999
 21
-34.08626400000004
 31
0.0
  0
LINE
  5
7F9
  8
DETAIL
  6
DASHED
 62
     5
 10
-214.9883779999998
 20
-10.02010799999999
 30
0.0
 11
-225.015945
 21
-10.02010799999999
 31
0.0
  0
LINE
  5
7FA
  8
DETAIL
  6
CONTINUOUS
 62
     5
 10
-229.829178
 20
-26.06421600000002
 30
0.0
 11
-210.175146
 21
-26.06421600000002
 31
0.0
  0
LINE
  5
7FB
  8
DETAIL
  6
CONTINUOUS
 62
     5
 10
-265.2819769999999
 20
-26.06421600000002
 30
0.0
 11
-245.6279439999998
 21
-26.06421600000002
 31
0.0
  0
ARC
  5
7FC
  8
DETAIL
  6
CONTINUOUS
 62
     5
 10
-255.45496
 20
-20.25935699999999
 30
0.0
 40
13.826907
 50
249.184661
 51
276.3901739999999
  0
LINE
  5
7FD
  8
DETAIL
  6
CONTINUOUS
 62
     5
 10
-263.7277129999999
 20
-34.08626400000004
 30
0.0
 11
-250.3349511955655
 21
-34.08679864935521
 31
0.0
  0
LINE
  5
7FE
  8
DETAIL
  6
DASHED
 62
     5
 10
-250.441177
 20
-10.02010799999999
 30
0.0
 11
-260.468744
 21
-10.02010799999999
 31
0.0
  0
LINE
  5
7FF
  8
DETAIL
  6
CONTINUOUS
 62
     5
 10
-263.7277069999998
 20
-34.08627600000002
 30
0.0
 11
-265.2819799999999
 21
-33.183795
 31
0.0
  0
ARC
  5
800
  8
DETAIL
  6
CONTINUOUS
 62
     5
 10
-262.8252199999997
 20
-30.29108300000001
 30
0.0
 40
3.795179
 50
270.0000180000001
 51
310.3409759999998
  0
LINE
  5
801
  8
DETAIL
  6
CONTINUOUS
 62
     5
 10
-260.368467
 20
-26.064217
 30
0.0
 11
-260.368467
 21
-33.18378799999999
 31
0.0
  0
LINE
  5
802
  8
DETAIL
  6
CONTINUOUS
 62
     5
 10
-265.2819769999999
 20
-33.18378799999999
 30
0.0
 11
-265.2819769999999
 21
-26.06421600000002
 31
0.0
  0
ARC
  5
803
  8
DETAIL
  6
CONTINUOUS
 62
     5
 10
-227.3724209999999
 20
-30.29108300000001
 30
0.0
 40
3.795179
 50
270.0000179999997
 51
310.3409759999998
  0
LINE
  5
804
  8
DETAIL
  6
CONTINUOUS
 62
     5
 10
-228.2749089999998
 20
-34.08627600000002
 30
0.0
 11
-229.8291819999997
 21
-33.183795
 31
0.0
  0
LINE
  5
805
  8
DETAIL
  6
CONTINUOUS
 62
     5
 10
-224.915668
 20
-26.064217
 30
0.0
 11
-224.915668
 21
-33.18378799999999
 31
0.0
  0
LINE
  5
806
  8
DETAIL
  6
CONTINUOUS
 62
     5
 10
-229.829178
 20
-33.18378799999999
 30
0.0
 11
-229.829178
 21
-26.06421600000002
 31
0.0
  0
LINE
  5
807
  8
DETAIL
  6
CONTINUOUS
 62
     5
 10
-210.1751419999999
 20
-33.183795
 30
0.0
 11
-211.729415
 21
-34.08627600000002
 31
0.0
  0
ARC
  5
808
  8
DETAIL
  6
CONTINUOUS
 62
     5
 10
-212.6319019999999
 20
-30.29108300000001
 30
0.0
 40
3.795179
 50
229.659063
 51
270.0000179999997
  0
LINE
  5
809
  8
DETAIL
  6
CONTINUOUS
 62
     5
 10
-272.47185
 20
-19.82452999999999
 30
0.0
 11
-272.4723059999998
 21
-26.06421600000002
 31
0.0
  0
LINE
  5
80A
  8
DETAIL
  6
CONTINUOUS
 62
     5
 10
-210.175146
 20
-26.06421600000002
 30
0.0
 11
-210.175146
 21
-33.18378799999999
 31
0.0
  0
LINE
  5
80B
  8
DETAIL
  6
CONTINUOUS
 62
     5
 10
-215.088655
 20
-26.064215
 30
0.0
 11
-215.088655
 21
-33.18378799999999
 31
0.0
  0
ARC
  5
80C
  8
DETAIL
  6
CONTINUOUS
 62
     5
 10
307.5395369999998
 20
-2.313732999999999
 30
0.0
 40
2.306341
 50
343.2451950000001
 51
90.0
  0
LINE
  5
80D
  8
DETAIL
  6
CONTINUOUS
 62
     5
 10
286.5363939999999
 20
-20.062527
 30
0.0
 11
268.4940929999999
 21
-20.099417
 31
0.0
  0
LINE
  5
80E
  8
DETAIL
  6
CONTINUOUS
 62
     5
 10
272.025527
 20
-26.079068
 30
0.0
 11
202.5380339999998
 21
-26.079068
 31
0.0
  0
LINE
  5
80F
  8
DETAIL
  6
CONTINUOUS
 62
     5
 10
272.025527
 20
-20.062527
 30
0.0
 11
202.5380339999998
 21
-20.062527
 31
0.0
  0
ARC
  5
810
  8
DETAIL
  6
CONTINUOUS
 62
     5
 10
219.5553829999998
 20
-20.27420900000001
 30
0.0
 40
13.826907
 50
249.184571
 51
290.8153389999998
  0
LINE
  5
811
  8
DETAIL
  6
CONTINUOUS
 62
     5
 10
229.3823989999999
 20
-26.079068
 30
0.0
 11
209.7283659999999
 21
-26.079068
 31
0.0
  0
LINE
  5
812
  8
DETAIL
  6
CONTINUOUS
 62
     5
 10
227.8281349999999
 20
-34.101116
 30
0.0
 11
211.2826299999998
 21
-34.101116
 31
0.0
  0
LINE
  5
813
  8
DETAIL
  6
DASHED
 62
     5
 10
214.5415989999998
 20
-10.03495999999998
 30
0.0
 11
224.5691659999999
 21
-10.03495999999998
 31
0.0
  0
LINE
  5
814
  8
DETAIL
  6
CONTINUOUS
 62
     5
 10
211.2826299999998
 20
-34.101116
 30
0.0
 11
227.8281349999999
 21
-34.101116
 31
0.0
  0
ARC
  5
815
  8
DETAIL
  6
CONTINUOUS
 62
     5
 10
219.5553829999998
 20
-20.27420900000001
 30
0.0
 40
13.826907
 50
249.184661
 51
290.815429
  0
LINE
  5
816
  8
DETAIL
  6
CONTINUOUS
 62
     5
 10
272.025527
 20
-20.062527
 30
0.0
 11
272.025527
 21
-26.079068
 31
0.0
  0
LINE
  5
817
  8
DETAIL
  6
CONTINUOUS
 62
     5
 10
209.7283659999999
 20
-26.079068
 30
0.0
 11
209.7283659999999
 21
-33.19864000000002
 31
0.0
  0
LINE
  5
818
  8
DETAIL
  6
CONTINUOUS
 62
     5
 10
209.7283629999999
 20
-33.19864699999999
 30
0.0
 11
211.2826359999999
 21
-34.10112700000002
 31
0.0
  0
LINE
  5
819
  8
DETAIL
  6
CONTINUOUS
 62
     5
 10
214.6418759999997
 20
-26.07906699999999
 30
0.0
 11
214.6418759999997
 21
-33.19864000000002
 31
0.0
  0
ARC
  5
81A
  8
DETAIL
  6
CONTINUOUS
 62
     5
 10
212.1851229999999
 20
-30.30593400000001
 30
0.0
 40
3.795179
 50
269.9999819999999
 51
310.3409369999999
  0
LINE
  5
81B
  8
DETAIL
  6
CONTINUOUS
 62
     5
 10
264.8351969999998
 20
-33.19864000000002
 30
0.0
 11
264.8351969999998
 21
-26.079068
 31
0.0
  0
LINE
  5
81C
  8
DETAIL
  6
CONTINUOUS
 62
     5
 10
259.9216879999998
 20
-26.079068
 30
0.0
 11
259.9216879999998
 21
-33.19864000000002
 31
0.0
  0
ARC
  5
81D
  8
DETAIL
  6
CONTINUOUS
 62
     5
 10
262.3784409999998
 20
-30.30593400000001
 30
0.0
 40
3.795179
 50
229.6590240000001
 51
269.9999819999999
  0
LINE
  5
81E
  8
DETAIL
  6
CONTINUOUS
 62
     5
 10
263.2809279999998
 20
-34.10112700000002
 30
0.0
 11
264.8352009999999
 21
-33.19864699999999
 31
0.0
  0
LINE
  5
81F
  8
DETAIL
  6
CONTINUOUS
 62
     5
 10
263.2809339999999
 20
-34.101116
 30
0.0
 11
253.4629199999999
 21
-34.101116
 31
0.0
  0
ARC
  5
820
  8
DETAIL
  6
CONTINUOUS
 62
     5
 10
253.6429602386623
 20
-14.83906291702429
 30
0.0
 40
19.40351466813719
 50
260.6605530800923
 51
288.8799518155285
  0
LINE
  5
821
  8
DETAIL
  6
CONTINUOUS
 62
     5
 10
264.8351969999998
 20
-26.079068
 30
0.0
 11
245.1811649999999
 21
-26.079068
 31
0.0
  0
LINE
  5
822
  8
DETAIL
  6
CONTINUOUS
 62
     5
 10
264.52994
 20
-26.12702400000001
 30
0.0
 11
256.4388779999998
 21
-26.12702400000001
 31
0.0
  0
ARC
  5
823
  8
DETAIL
  6
CONTINUOUS
 62
     5
 10
226.9256419999998
 20
-30.30593400000001
 30
0.0
 40
3.795179
 50
229.659063
 51
270.0000179999997
  0
LINE
  5
824
  8
DETAIL
  6
CONTINUOUS
 62
     5
 10
224.4688889999998
 20
-26.07906699999999
 30
0.0
 11
224.4688889999998
 21
-33.19864000000002
 31
0.0
  0
LINE
  5
825
  8
DETAIL
  6
CONTINUOUS
 62
     5
 10
229.3824029999998
 20
-33.19864699999999
 30
0.0
 11
227.82813
 21
-34.10112700000002
 31
0.0
  0
LINE
  5
826
  8
DETAIL
  6
CONTINUOUS
 62
     5
 10
229.3823989999999
 20
-26.079068
 30
0.0
 11
229.3823989999999
 21
-33.19864000000002
 31
0.0
  0
ARC
  5
827
  8
DETAIL
  6
CONTINUOUS
 62
     5
 10
302.8831089999999
 20
-6.113894000000002
 30
0.0
 40
3.880569999999999
 50
268.4930029999996
 51
335.3655199999999
  0
LINE
  5
828
  8
DETAIL
  6
CONTINUOUS
 62
     5
 10
289.3213589999999
 20
-14.045987
 30
0.0
 11
289.3213589999999
 21
-16.0515
 31
0.0
  0
LINE
  5
829
  8
DETAIL
  6
CONTINUOUS
 62
     5
 10
290.5474219999999
 20
-16.0515
 30
0.0
 11
290.5474219999999
 21
-14.045987
 31
0.0
  0
ARC
  5
82A
  8
DETAIL
  6
CONTINUOUS
 62
     5
 10
293.3323859999998
 20
-14.045987
 30
0.0
 40
4.011026999999999
 50
90.0
 51
180.0
  0
ARC
  5
82B
  8
DETAIL
  6
CONTINUOUS
 62
     5
 10
294.6311269999998
 20
-14.076091
 30
0.0
 40
4.083815999999997
 50
91.01971299999973
 51
179.5776340000004
  0
ARC
  5
82C
  8
DETAIL
  6
CONTINUOUS
 62
     5
 10
285.3103319999998
 20
-16.0515
 30
0.0
 40
4.011026999999999
 50
270.0000009999999
 51
0.0
  0
ARC
  5
82D
  8
DETAIL
  6
CONTINUOUS
 62
     5
 10
286.536395
 20
-16.0515
 30
0.0
 40
4.011026999999999
 50
270.0
 51
0.0
  0
ARC
  5
82E
  8
DETAIL
  6
CONTINUOUS
 62
     5
 10
307.349013
 20
-6.425034999999994
 30
0.0
 40
1.303584
 50
270.0
 51
343.2451950000001
  0
LINE
  5
82F
  8
DETAIL
  6
CONTINUOUS
 62
     5
 10
309.747967
 20
-2.978597000000022
 30
0.0
 11
308.597256
 21
-6.800827999999996
 31
0.0
  0
LINE
  5
830
  8
DETAIL
  6
CONTINUOUS
 62
     5
 10
309.747967
 20
-2.978597000000022
 30
0.0
 11
308.597256
 21
-6.800827999999996
 31
0.0
  0
LINE
  5
831
  8
SIZE
  6
CONTINUOUS
 62
    30
 10
65.46072000000001
 20
-282.4488949999999
 30
0.0
 11
65.46072000000001
 21
-440.023973
 31
0.0
  0
LINE
  5
832
  8
SIZE
  6
CONTINUOUS
 62
    30
 10
-65.539278
 20
-282.4292879999998
 30
0.0
 11
-65.539278
 21
-440.023973
 31
0.0
  0
LINE
  5
833
  8
SIZE
  6
CONTINUOUS
 62
    30
 10
63.46071999999998
 20
-410.0239729999999
 30
0.0
 11
-63.539278
 21
-410.0239729999999
 31
0.0
  0
LINE
  5
834
  8
SIZE
  6
CONTINUOUS
 62
    30
 10
-65.539278
 20
-410.0239729999999
 30
0.0
 11
-282.1107069999999
 21
-410.0239729999999
 31
0.0
  0
CIRCLE
  5
835
  8
SIZE
  6
CONTINUOUS
 62
    30
 10
65.46072000000001
 20
-410.0239729999999
 30
0.0
 40
6.0
  0
CIRCLE
  5
836
  8
SIZE
  6
CONTINUOUS
 62
    30
 10
-65.539278
 20
-410.0239729999999
 30
0.0
 40
6.0
  0
TEXT
  5
837
  8
SIZE
  6
CONTINUOUS
 62
    30
 10
-269.346593
 20
-385.0239729999999
 30
0.0
 40
64.0
  1
φ131
 41
0.9
 72
     1
 11
-174.8249929999999
 21
-385.0239729999999
 31
0.0
  0
LINE
  5
838
  8
SIZE
  6
CONTINUOUS
 62
    30
 10
-319.9970419999999
 20
0.0
 30
0.0
 11
-658.4472969999995
 21
0.0
 31
0.0
  0
LINE
  5
839
  8
SIZE
  6
CONTINUOUS
 62
    30
 10
-19.28415199999999
 20
-287.0001099999998
 30
0.0
 11
-658.4472969999995
 21
-287.0001099999998
 31
0.0
  0
LINE
  5
83A
  8
SIZE
  6
CONTINUOUS
 62
    30
 10
-628.4472969999995
 20
-2.0
 30
0.0
 11
-628.4472969999995
 21
-285.0001099999999
 31
0.0
  0
CIRCLE
  5
83B
  8
SIZE
  6
CONTINUOUS
 62
    30
 10
-628.4472969999995
 20
0.0
 30
0.0
 40
6.0
  0
CIRCLE
  5
83C
  8
SIZE
  6
CONTINUOUS
 62
    30
 10
-628.4472969999995
 20
-287.0001099999998
 30
0.0
 40
6.0
  0
TEXT
  5
83D
  8
SIZE
  6
CONTINUOUS
 62
    30
 10
-653.4472969999995
 20
-224.4568549999998
 30
0.0
 40
64.0
  1
287
 50
90.0
 41
0.9
 72
     1
 11
-653.4472969999995
 21
-143.5000549999999
 31
0.0
  0
LINE
  5
83E
  8
SIZE
  6
CONTINUOUS
 62
    30
 10
-323.2943149999999
 20
-9.993685
 30
0.0
 11
-424.7956469999996
 21
-9.993685
 31
0.0
  0
LINE
  5
83F
  8
SIZE
  6
CONTINUOUS
 62
    30
 10
-307.0762709999998
 20
-19.994801
 30
0.0
 11
-424.7956469999996
 21
-19.994801
 31
0.0
  0
LINE
  5
840
  8
SIZE
  6
CONTINUOUS
 62
    30
 10
-394.7956469999996
 20
-7.993684999999999
 30
0.0
 11
-394.7956469999996
 21
-5.993684999999999
 31
0.0
  0
LINE
  5
841
  8
SIZE
  6
CONTINUOUS
 62
    30
 10
-394.7956469999996
 20
-21.994801
 30
0.0
 11
-394.7956469999996
 21
-156.2805149999998
 31
0.0
  0
LINE
  5
842
  8
SIZE
  6
CONTINUOUS
 62
    30
 10
-394.7956469999996
 20
-9.993685
 30
0.0
 11
-394.7956469999996
 21
-19.994801
 31
0.0
  0
CIRCLE
  5
843
  8
SIZE
  6
CONTINUOUS
 62
    30
 10
-394.7956469999996
 20
-9.993685
 30
0.0
 40
6.0
  0
CIRCLE
  5
844
  8
SIZE
  6
CONTINUOUS
 62
    30
 10
-394.7956469999996
 20
-19.994801
 30
0.0
 40
6.0
  0
TEXT
  5
845
  8
SIZE
  6
CONTINUOUS
 62
    30
 10
-419.7956469999996
 20
-138.694458
 30
0.0
 40
64.0
  1
10
 50
90.0
 41
0.9
 72
     1
 11
-419.7956469999996
 21
-90.137658
 31
0.0
  0
LINE
  5
846
  8
SIZE
  6
CONTINUOUS
 62
    30
 10
-347.9863159999998
 20
0.0104529999999983
 30
0.0
 11
-557.5202219999998
 21
0.0104529999999983
 31
0.0
  0
LINE
  5
847
  8
SIZE
  6
CONTINUOUS
 62
    30
 10
-288.7672400235343
 20
-94.98954699999999
 30
0.0
 11
-557.5202219999998
 21
-94.98954699999999
 31
0.0
  0
LINE
  5
848
  8
SIZE
  6
CONTINUOUS
 62
    30
 10
-527.5202219999998
 20
-92.98954699999999
 30
0.0
 11
-527.5202219999998
 21
-1.989547000000002
 31
0.0
  0
LINE
  5
849
  8
SIZE
  6
CONTINUOUS
 62
    30
 10
-527.5202219999998
 20
0.0104529999999983
 30
0.0
 11
-527.5202219999998
 21
179.4150619999998
 31
0.0
  0
CIRCLE
  5
84A
  8
SIZE
  6
CONTINUOUS
 62
    30
 10
-527.5202219999998
 20
-94.98954699999999
 30
0.0
 40
6.0
  0
CIRCLE
  5
84B
  8
SIZE
  6
CONTINUOUS
 62
    30
 10
-527.5202219999998
 20
0.0104529999999983
 30
0.0
 40
6.0
  0
TEXT
  5
84C
  8
SIZE
  6
CONTINUOUS
 62
    30
 10
-552.5202219999998
 20
53.81528999999973
 30
0.0
 40
64.0
  1
95
 50
90.0
 41
0.9
 72
     1
 11
-552.5202219999998
 21
107.7864899999997
 31
0.0
  0
LINE
  5
84D
  8
DETAIL
  6
CONTINUOUS
 62
     5
 10
-202.9848129999997
 20
-26.06421600000002
 30
0.0
 11
-202.9846439999999
 21
-19.87441200000001
 31
0.0
  0
LINE
  5
84E
  8
DETAIL
  6
CONTINUOUS
 62
     5
 10
202.5380339999998
 20
-26.079068
 30
0.0
 11
202.5381889999998
 21
-20.06036
 31
0.0
  0
POINT
  5
84F
  8
ARRANGE
  6
CONTINUOUS
 62
     1
 10
0.0
 20
0.0
 30
0.0
  0
CIRCLE
  5
850
  8
SIZE
  6
CONTINUOUS
 62
    30
 10
-275.0113313659305
 20
-545.3077884776667
 30
0.0
 40
6.0
  0
CIRCLE
  5
851
  8
SIZE
  6
CONTINUOUS
 62
    30
 10
274.9886638765183
 20
-545.3077884776667
 30
0.0
 40
6.0
  0
LINE
  5
852
  8
SIZE
  6
CONTINUOUS
 10
274.9886638765183
 20
-112.1803866369894
 30
0.0
 11
274.9886638765183
 21
-565.3077884776666
 31
0.0
  0
LINE
  5
853
  8
SIZE
  6
CONTINUOUS
 10
-275.0113313659305
 20
-112.1080450434815
 30
0.0
 11
-275.0113313659305
 21
-565.3077884776666
 31
0.0
  0
LINE
  5
854
  8
SIZE
  6
CONTINUOUS
 10
274.9886638765183
 20
-545.3077884776667
 30
0.0
 11
-275.0113313659305
 21
-545.3077884776667
 31
0.0
  0
TEXT
  5
855
  8
SIZE
  6
CONTINUOUS
 62
    30
 10
-117.3835473680742
 20
-523.2920149468056
 30
0.0
 40
64.0
  1
φ550
 41
0.9
 72
     1
 11
-12.03314736807424
 21
-523.2920149468056
 31
0.0
  0
LINE
  5
856
  8
OUTLINE
  6
CONTINUOUS
 62
     3
 10
95.09649799999998
 20
-262.4533299999998
 30
0.0
 11
-0.0392799999999998
 21
-262.4390909999997
 31
0.0
  0
LINE
  5
857
  8
OUTLINE
  6
CONTINUOUS
 62
     3
 10
222.8253699999999
 20
-89.37384200000001
 30
0.0
 11
-222.686483
 21
-89.30919
 31
0.0
  0
LINE
  5
858
  8
OUTLINE
  6
CONTINUOUS
 62
     3
 10
222.8245229999999
 20
-95.03335099999995
 30
0.0
 11
-103.7539479999998
 21
-94.98447199999997
 31
0.0
  0
LINE
  5
859
  8
OUTLINE
  6
CONTINUOUS
 62
     3
 10
-222.6836269999999
 20
-94.966672
 30
0.0
 11
103.8948439999999
 21
-95.01555100000002
 31
0.0
  0
LINE
  5
85A
  8
OUTLINE
  6
CONTINUOUS
 62
     3
 10
-95.17445599999985
 20
-258.4064479999998
 30
0.0
 11
95.09709999999998
 21
-258.4349259999999
 31
0.0
  0
LINE
  5
85B
  8
OUTLINE
  6
CONTINUOUS
 62
     3
 10
-95.16999699999995
 20
-226.19897
 30
0.0
 11
95.402988
 21
-226.227493
 31
0.0
  0
LINE
  5
85C
  8
OUTLINE
  6
CONTINUOUS
 62
     3
 10
95.096499
 20
-262.4533309999998
 30
0.0
 11
-0.0392790000000005
 21
-262.4390919999998
 31
0.0
  0
LINE
  5
85D
  8
OUTLINE
  6
CONTINUOUS
 62
     3
 10
35.87197999999999
 20
-284.0525889999999
 30
0.0
 11
-0.0425129999999996
 21
-284.0472139999999
 31
0.0
  0
LINE
  5
85E
  8
OUTLINE
  6
CONTINUOUS
 62
     3
 10
307.5395369999998
 20
-0.0073919999999816
 30
0.0
 11
0.0
 21
0.0
 31
0.0
  0
LINE
  5
85F
  8
OUTLINE
  6
CONTINUOUS
 62
     3
 10
307.349013
 20
-7.728618999999981
 30
0.0
 11
-0.0011559999999999
 21
-7.721226999999999
 31
0.0
  0
LINE
  5
860
  8
OUTLINE
  6
CONTINUOUS
 62
     3
 10
286.5363939999999
 20
-20.06252699999999
 30
0.0
 11
-0.0030020000000004
 21
-20.05513400000002
 31
0.0
  0
LINE
  5
861
  8
OUTLINE
  6
CONTINUOUS
 62
     3
 10
302.7810539999998
 20
-9.993121999999971
 30
0.0
 11
-0.0015009999999975
 21
-9.98572999999999
 31
0.0
  0
LINE
  5
862
  8
OUTLINE
  6
CONTINUOUS
 62
     3
 10
75.31197399999998
 20
-219.192277
 30
0.0
 11
0.2682630000000028
 21
-219.181046
 31
0.0
  0
ARC
  5
863
  8
OUTLINE
  6
CONTINUOUS
 62
     3
 10
-147.8838479999999
 20
-155.929236
 30
0.0
 40
102.4693249999999
 50
179.9914249999788
 51
269.9914249999999
  0
ARC
  5
864
  8
OUTLINE
  6
CONTINUOUS
 62
     3
 10
-154.0952709999999
 20
-155.966128
 30
0.0
 40
70.322086
 50
192.721455
 51
269.9914249999999
  0
ARC
  5
865
  8
OUTLINE
  6
CONTINUOUS
 62
     3
 10
-157.2919529999999
 20
-155.96565
 30
0.0
 40
70.322086
 50
191.2648979999998
 51
269.9914249999999
  0
LINE
  5
866
  8
OUTLINE
  6
CONTINUOUS
 62
     3
 10
-154.1057969999999
 20
-226.2882129999999
 30
0.0
 11
-95.16964399999985
 21
-226.2592089999998
 31
0.0
  0
LINE
  5
867
  8
OUTLINE
  6
CONTINUOUS
 62
     3
 10
-147.899184
 20
-258.3985599999997
 30
0.0
 11
-95.17445599999985
 21
-258.4064479999998
 31
0.0
  0
LINE
  5
868
  8
OUTLINE
  6
CONTINUOUS
 62
     3
 10
-95.17445599999985
 20
-258.4064479999998
 30
0.0
 11
-95.17505699999995
 21
-262.4248529999999
 31
0.0
  0
LINE
  5
869
  8
OUTLINE
  6
CONTINUOUS
 62
     3
 10
-95.17505699999995
 20
-262.4248529999999
 30
0.0
 11
-0.0392790000000005
 21
-262.4390919999998
 31
0.0
  0
LINE
  5
86A
  8
OUTLINE
  6
CONTINUOUS
 62
     3
 10
-35.534849
 20
-285.3478769999998
 30
0.0
 11
-56.300377
 21
-285.3447689999999
 31
0.0
  0
LINE
  5
86B
  8
OUTLINE
  6
CONTINUOUS
 62
     3
 10
-58.510274
 20
-283.8375369999998
 30
0.0
 11
-57.80705300000001
 21
-283.8376419999998
 31
0.0
  0
ARC
  5
86C
  8
OUTLINE
  6
CONTINUOUS
 62
     3
 10
-58.509221
 20
-276.8053279999998
 30
0.0
 40
7.032208999999999
 50
179.9914250000213
 51
269.9914249999998
  0
LINE
  5
86D
  8
OUTLINE
  6
CONTINUOUS
 62
     3
 10
-65.539278
 20
-262.4292879999999
 30
0.0
 11
-65.54143
 21
-276.8042759999998
 31
0.0
  0
LINE
  5
86E
  8
OUTLINE
  6
CONTINUOUS
 62
     3
 10
-57.80705300000001
 20
-283.8376419999998
 30
0.0
 11
-56.300377
 21
-285.3447689999999
 31
0.0
  0
LINE
  5
86F
  8
OUTLINE
  6
CONTINUOUS
 62
     3
 10
-35.95700699999998
 20
-284.0418389999999
 30
0.0
 11
-0.0425129999999996
 21
-284.0472139999999
 31
0.0
  0
LINE
  5
870
  8
OUTLINE
  6
CONTINUOUS
 62
     3
 10
-35.956977
 20
-283.840912
 30
0.0
 11
-38.82009
 21
-283.8404839999999
 31
0.0
  0
LINE
  5
871
  8
OUTLINE
  6
CONTINUOUS
 62
     3
 10
-31.436301
 20
-284.0425149999998
 30
0.0
 11
-33.09389299999999
 21
-284.0422669999998
 31
0.0
  0
LINE
  5
872
  8
OUTLINE
  6
CONTINUOUS
 62
     3
 10
-24.25340299999999
 20
-284.0435899999999
 30
0.0
 11
-25.91099499999999
 21
-284.0433419999999
 31
0.0
  0
LINE
  5
873
  8
OUTLINE
  6
CONTINUOUS
 62
     3
 10
-25.91099499999999
 20
-284.0433419999999
 30
0.0
 11
-31.436301
 21
-284.0425149999998
 31
0.0
  0
LINE
  5
874
  8
OUTLINE
  6
CONTINUOUS
 62
     3
 10
-40.327218
 20
-285.3471599999998
 30
0.0
 11
-38.82009
 21
-283.8404839999999
 31
0.0
  0
LINE
  5
875
  8
OUTLINE
  6
CONTINUOUS
 62
     3
 10
-33.92804799999999
 20
-284.0421419999999
 30
0.0
 11
-35.20734
 21
-285.0805359999998
 31
0.0
  0
LINE
  5
876
  8
OUTLINE
  6
CONTINUOUS
 62
     3
 10
-38.113545
 20
-285.3474909999999
 30
0.0
 11
-47.556796
 21
-285.3460779999998
 31
0.0
  0
LINE
  5
877
  8
OUTLINE
  6
CONTINUOUS
 62
     3
 10
-35.20734
 20
-285.0805359999998
 30
0.0
 11
-35.53478699999999
 21
-285.3478769999998
 31
0.0
  0
LINE
  5
878
  8
OUTLINE
  6
CONTINUOUS
 62
     3
 10
-74.77544799999994
 20
-219.169814
 30
0.0
 11
0.2682630000000028
 21
-219.181046
 31
0.0
  0
LINE
  5
879
  8
OUTLINE
  6
CONTINUOUS
 62
     3
 10
-85.62544199999999
 20
-221.177392
 30
0.0
 11
-70.054123
 21
-221.1797229999998
 31
0.0
  0
LINE
  5
87A
  8
OUTLINE
  6
CONTINUOUS
 62
     3
 10
-83.01353099999999
 20
-221.5271109999998
 30
0.0
 11
-71.159237
 21
-221.5288849999998
 31
0.0
  0
LINE
  5
87B
  8
OUTLINE
  6
CONTINUOUS
 62
     3
 10
-71.159185
 20
-221.1795579999998
 30
0.0
 11
-83.01347899999999
 21
-221.1777829999997
 31
0.0
  0
ARC
  5
87C
  8
OUTLINE
  6
CONTINUOUS
 62
     3
 10
-77.08563999999996
 20
-216.5575049999999
 30
0.0
 40
7.735428999999999
 50
219.9745689999999
 51
320.008263
  0
LINE
  5
87D
  8
OUTLINE
  6
CONTINUOUS
 62
     3
 10
-85.62514099999999
 20
-219.1681899999999
 30
0.0
 11
-79.39661399999999
 21
-219.169122
 31
0.0
  0
LINE
  5
87E
  8
OUTLINE
  6
CONTINUOUS
 62
     3
 10
-90.146554
 20
-223.4872859999999
 30
0.0
 11
-80.520029
 21
-223.488727
 31
0.0
  0
LINE
  5
87F
  8
OUTLINE
  6
CONTINUOUS
 62
     3
 10
-74.77394400000001
 20
-209.123802
 30
0.0
 11
-79.39511000000002
 21
-209.1231099999999
 31
0.0
  0
ARC
  5
880
  8
OUTLINE
  6
CONTINUOUS
 62
     3
 10
-70.054724
 20
-225.1981279999998
 30
0.0
 40
4.018404999999999
 50
359.9914250000213
 51
89.99142500000002
  0
ARC
  5
881
  8
OUTLINE
  6
CONTINUOUS
 62
     3
 10
-70.054724
 20
-225.1981279999998
 30
0.0
 40
6.027606999999997
 50
359.9914249999788
 51
89.99142499999998
  0
LINE
  5
882
  8
OUTLINE
  6
CONTINUOUS
 62
     3
 10
-73.65332499999992
 20
-223.4897549999998
 30
0.0
 11
-66.41704099999997
 21
-223.4908379999998
 31
0.0
  0
LINE
  5
883
  8
OUTLINE
  6
CONTINUOUS
 62
     3
 10
-66.03631999999998
 20
-225.1987289999998
 30
0.0
 11
-66.03647
 21
-226.2033309999999
 31
0.0
  0
LINE
  5
884
  8
OUTLINE
  6
CONTINUOUS
 62
     3
 10
-64.027117
 20
-225.1990299999999
 30
0.0
 11
-64.02726700000002
 21
-226.203631
 31
0.0
  0
LINE
  5
885
  8
OUTLINE
  6
CONTINUOUS
 62
     3
 10
-74.77394400000001
 20
-209.123802
 30
0.0
 11
-74.775749
 21
-221.179016
 31
0.0
  0
LINE
  5
886
  8
OUTLINE
  6
CONTINUOUS
 62
     3
 10
-71.059101
 20
-223.490143
 30
0.0
 11
-71.05875500000002
 21
-221.1795729999998
 31
0.0
  0
LINE
  5
887
  8
OUTLINE
  6
CONTINUOUS
 62
     3
 10
-68.04503199999999
 20
-221.7183699999999
 30
0.0
 11
-68.04529699999999
 21
-223.4905939999998
 31
0.0
  0
LINE
  5
888
  8
OUTLINE
  6
CONTINUOUS
 62
     3
 10
-71.159185
 20
-221.1795579999998
 30
0.0
 11
-71.159237
 21
-221.5288849999998
 31
0.0
  0
LINE
  5
889
  8
OUTLINE
  6
CONTINUOUS
 62
     3
 10
-79.39511000000002
 20
-209.1231099999999
 30
0.0
 11
-79.39691399999992
 21
-221.1783249999996
 31
0.0
  0
LINE
  5
88A
  8
OUTLINE
  6
CONTINUOUS
 62
     3
 10
-83.11431499999999
 20
-223.4883389999998
 30
0.0
 11
-83.11396899999995
 21
-221.177768
 31
0.0
  0
LINE
  5
88B
  8
OUTLINE
  6
CONTINUOUS
 62
     3
 10
-83.01347799999999
 20
-221.1777829999997
 30
0.0
 11
-83.01353099999999
 21
-221.5271109999998
 31
0.0
  0
LINE
  5
88C
  8
OUTLINE
  6
CONTINUOUS
 62
     3
 10
-85.625141
 20
-219.16819
 30
0.0
 11
-85.62544199999999
 21
-221.177392
 31
0.0
  0
LINE
  5
88D
  8
OUTLINE
  6
CONTINUOUS
 62
     3
 10
-90.146239
 20
-221.1767159999999
 30
0.0
 11
-85.62544199999999
 21
-221.177392
 31
0.0
  0
ARC
  5
88E
  8
OUTLINE
  6
CONTINUOUS
 62
     3
 10
-90.14695999999998
 20
-226.199722
 30
0.0
 40
2.712423999999999
 50
89.9914059999999
 51
179.9914249999788
  0
ARC
  5
88F
  8
OUTLINE
  6
CONTINUOUS
 62
     3
 10
-90.14699099999999
 20
-226.199722
 30
0.0
 40
5.023005999999999
 50
89.9914060000001
 51
179.9914249999363
  0
LINE
  5
890
  8
OUTLINE
  6
CONTINUOUS
 62
     3
 10
-93.16525299999995
 20
-258.4067479999998
 30
0.0
 11
-93.16044199999995
 21
-226.2595099999998
 31
0.0
  0
LINE
  5
891
  8
OUTLINE
  6
CONTINUOUS
 62
     3
 10
-307.9863159999996
 20
0.0074589999999972
 30
0.0
 11
0.0
 21
0.0
 31
0.0
  0
LINE
  5
892
  8
OUTLINE
  6
CONTINUOUS
 62
     3
 10
-272.4723059999998
 20
-26.06421599999999
 30
0.0
 11
-202.9848129999997
 21
-26.06421599999999
 31
0.0
  0
LINE
  5
893
  8
OUTLINE
  6
CONTINUOUS
 62
     3
 10
-307.7957929999998
 20
-7.713768000000016
 30
0.0
 11
-0.0011559999999999
 21
-7.721226999999999
 31
0.0
  0
LINE
  5
894
  8
OUTLINE
  6
CONTINUOUS
 62
     3
 10
-272.4718629999999
 20
-20.00470999999999
 30
0.0
 11
-0.0026429999999991
 21
-19.87994600000002
 31
0.0
  0
LINE
  5
895
  8
OUTLINE
  6
CONTINUOUS
 62
     3
 10
-303.227833
 20
-9.993121999999971
 30
0.0
 11
-0.0015009999999975
 21
-10.00058100000001
 31
0.0
  0
LINE
  5
896
  8
OUTLINE
  6
CONTINUOUS
 62
     3
 10
-229.829178
 20
-26.06421599999999
 30
0.0
 11
-210.175146
 21
-26.06421599999999
 31
0.0
  0
LINE
  5
897
  8
OUTLINE
  6
DASHED
 62
     3
 10
-214.9883779999998
 20
-10.02010799999999
 30
0.0
 11
-225.015945
 21
-10.02010799999999
 31
0.0
  0
ARC
  5
898
  8
OUTLINE
  6
CONTINUOUS
 62
     3
 10
-293.7791649999998
 20
-14.03113500000001
 30
0.0
 40
4.011026999999999
 50
0.0
 51
90.0
  0
ARC
  5
899
  8
OUTLINE
  6
CONTINUOUS
 62
     3
 10
-295.0052279999998
 20
-14.03113500000001
 30
0.0
 40
4.011026999999999
 50
0.0
 51
90.0
  0
ARC
  5
89A
  8
OUTLINE
  6
CONTINUOUS
 62
     3
 10
-272.2044570637412
 20
-92.09814473705829
 30
-0.0000000000000142
 40
2.806872999999999
 50
85.63769800000024
 51
274.3451509999999
  0
LINE
  5
89B
  8
OUTLINE
  6
CONTINUOUS
 62
     3
 10
-250.353172
 20
-155.9138989999999
 30
0.0
 11
-250.3337539999998
 21
-26.08216500000004
 31
0.0
  0
LINE
  5
89C
  8
OUTLINE
  6
CONTINUOUS
 62
     3
 10
-226.25925
 20
-169.702741
 30
0.0
 11
-226.2450879999998
 21
-26.11346400000003
 31
0.0
  0
LINE
  5
89D
  8
OUTLINE
  6
CONTINUOUS
 62
     3
 10
-271.9917956813802
 20
-94.8969500490765
 30
-0.0000000000000142
 11
-250.344054
 21
-94.900571
 31
0.0
  0
LINE
  5
89E
  8
OUTLINE
  6
CONTINUOUS
 62
     3
 10
-286.885145
 20
-19.97523999999999
 30
0.0
 11
-268.8428429999998
 21
-20.01212999999996
 31
0.0
  0
ARC
  5
89F
  8
OUTLINE
  6
CONTINUOUS
 62
     3
 10
-285.5463149999997
 20
-16.05987399999998
 30
0.0
 40
4.221886999999997
 50
179.6848060000004
 51
248.7535559999998
  0
ARC
  5
8A0
  8
OUTLINE
  6
CONTINUOUS
 62
     3
 10
-287.076243
 20
-16.07663899999999
 30
0.0
 40
3.918162
 50
179.4152119999997
 51
271.3671470000001
  0
LINE
  5
8A1
  8
OUTLINE
  6
CONTINUOUS
 62
     3
 10
-290.9942009999997
 20
-16.03664900000003
 30
0.0
 11
-290.9942009999997
 21
-14.03113500000001
 31
0.0
  0
LINE
  5
8A2
  8
OUTLINE
  6
CONTINUOUS
 62
     3
 10
-289.7681379999999
 20
-14.03113500000001
 30
0.0
 11
-289.7681379999999
 21
-16.03664900000003
 31
0.0
  0
LINE
  5
8A3
  8
OUTLINE
  6
CONTINUOUS
 62
     3
 10
-265.2819769999999
 20
-26.06421599999999
 30
0.0
 11
-245.6279439999998
 21
-26.06421599999999
 31
0.0
  0
LINE
  5
8A4
  8
OUTLINE
  6
CONTINUOUS
 62
     3
 10
-272.47185
 20
-19.82452999999999
 30
0.0
 11
-272.4723059999998
 21
-26.06421599999999
 31
0.0
  0
LINE
  5
8A5
  8
OUTLINE
  6
CONTINUOUS
 62
     3
 10
-250.3432159999998
 20
-89.303023
 30
0.0
 11
-271.9909578925639
 21
-89.29940320879318
 31
-0.0000000000000142
  0
ARC
  5
8A6
  8
OUTLINE
  6
CONTINUOUS
 62
     3
 10
-307.9863159999996
 20
-2.298881000000023
 30
0.0
 40
2.306341
 50
90.0
 51
196.7548049999999
  0
ARC
  5
8A7
  8
OUTLINE
  6
CONTINUOUS
 62
     3
 10
-307.7957929999998
 20
-6.410184000000015
 30
0.0
 40
1.303584
 50
196.7548049999999
 51
270.0
  0
LINE
  5
8A8
  8
OUTLINE
  6
CONTINUOUS
 62
     3
 10
-310.1947459999997
 20
-2.963745000000003
 30
0.0
 11
-309.0440349999997
 21
-6.785977000000003
 31
0.0
  0
ARC
  5
8A9
  8
OUTLINE
  6
CONTINUOUS
 62
     3
 10
-303.2943149999995
 20
-6.067684999999983
 30
0.0
 40
3.926
 50
204.8340629999998
 51
270.9702889999996
  0
LINE
  5
8AA
  8
OUTLINE
  6
DASHED
 62
     3
 10
-250.441177
 20
-10.02010799999999
 30
0.0
 11
-260.468744
 21
-10.02010799999999
 31
0.0
  0
LINE
  5
8AB
  8
OUTLINE
  6
CONTINUOUS
 62
     3
 10
-222.6911011117816
 20
-171.4518591957483
 30
0.0
 11
-222.6911011117816
 21
-26.06421599999999
 31
0.0
  0
LINE
  5
8AC
  8
OUTLINE
  6
CONTINUOUS
 62
     3
 10
-202.9848129999997
 20
-26.06421599999999
 30
0.0
 11
-202.9846439999999
 21
-19.87441200000001
 31
0.0
  0
LINE
  5
8AD
  8
OUTLINE
  6
CONTINUOUS
 62
     3
 10
-104.3963539999999
 20
-94.89939800000002
 30
0.0
 11
-104.3963539999999
 21
-94.89939800000002
 31
0.0
  0
ARC
  5
8AE
  8
OUTLINE
  6
CONTINUOUS
 62
     3
 10
157.4145919999999
 20
-156.0127519999999
 30
0.0
 40
70.322086
 50
269.9914249999999
 51
348.7179509999999
  0
ARC
  5
8AF
  8
OUTLINE
  6
CONTINUOUS
 62
     3
 10
154.217911
 20
-156.0122729999999
 30
0.0
 40
70.322086
 50
269.9914249999999
 51
347.2613939999999
  0
ARC
  5
8B0
  8
OUTLINE
  6
CONTINUOUS
 62
     3
 10
148.0064989999998
 20
-155.973521
 30
0.0
 40
102.4693249999999
 50
269.9914249999999
 51
359.9914249999788
  0
LINE
  5
8B1
  8
OUTLINE
  6
CONTINUOUS
 62
     3
 10
154.207386
 20
-226.334358
 30
0.0
 11
95.10191199999998
 21
-226.2876869999998
 31
0.0
  0
LINE
  5
8B2
  8
OUTLINE
  6
CONTINUOUS
 62
     3
 10
147.0599199999999
 20
-258.4427029999999
 30
0.0
 11
95.09709999999998
 21
-258.4349259999999
 31
0.0
  0
LINE
  5
8B3
  8
OUTLINE
  6
CONTINUOUS
 62
     3
 10
95.09709999999998
 20
-258.4349259999999
 30
0.0
 11
95.09649799999998
 21
-262.4533299999998
 31
0.0
  0
LINE
  5
8B4
  8
OUTLINE
  6
CONTINUOUS
 62
     3
 10
95.09709999999998
 20
-258.4349259999999
 30
0.0
 11
95.096499
 21
-262.4533309999998
 31
0.0
  0
ARC
  5
8B5
  8
OUTLINE
  6
CONTINUOUS
 62
     3
 10
58.42635999999999
 20
-276.8228299999998
 30
0.0
 40
7.032208999999999
 50
269.9914249999999
 51
359.9914250000213
  0
LINE
  5
8B6
  8
OUTLINE
  6
CONTINUOUS
 62
     3
 10
58.42530799999999
 20
-283.855039
 30
0.0
 11
57.722087
 21
-283.8549329999998
 31
0.0
  0
LINE
  5
8B7
  8
OUTLINE
  6
CONTINUOUS
 62
     3
 10
57.722087
 20
-283.8549329999998
 30
0.0
 11
56.21495899999997
 21
-285.3616099999999
 31
0.0
  0
LINE
  5
8B8
  8
OUTLINE
  6
CONTINUOUS
 62
     3
 10
24.16837599999999
 20
-284.0508379999999
 30
0.0
 11
25.825968
 21
-284.0510859999999
 31
0.0
  0
LINE
  5
8B9
  8
OUTLINE
  6
CONTINUOUS
 62
     3
 10
31.35127499999999
 20
-284.0519129999999
 30
0.0
 11
33.00886699999998
 21
-284.0521609999998
 31
0.0
  0
LINE
  5
8BA
  8
OUTLINE
  6
CONTINUOUS
 62
     3
 10
35.87200999999997
 20
-283.8516629999998
 30
0.0
 11
38.735124
 21
-283.8520919999997
 31
0.0
  0
LINE
  5
8BB
  8
OUTLINE
  6
CONTINUOUS
 62
     3
 10
33.843021
 20
-284.0522859999998
 30
0.0
 11
35.12200299999998
 21
-285.0910619999999
 31
0.0
  0
LINE
  5
8BC
  8
OUTLINE
  6
CONTINUOUS
 62
     3
 10
40.24179999999999
 20
-285.3592189999999
 30
0.0
 11
38.735124
 21
-283.8520919999997
 31
0.0
  0
LINE
  5
8BD
  8
OUTLINE
  6
CONTINUOUS
 62
     3
 10
25.825968
 20
-284.0510859999999
 30
0.0
 11
31.35127499999999
 21
-284.0519129999999
 31
0.0
  0
LINE
  5
8BE
  8
OUTLINE
  6
CONTINUOUS
 62
     3
 10
35.44943099999999
 20
-285.3585019999999
 30
0.0
 11
56.21495899999997
 21
-285.3616099999999
 31
0.0
  0
LINE
  5
8BF
  8
OUTLINE
  6
CONTINUOUS
 62
     3
 10
35.12200299999998
 20
-285.0910619999999
 30
0.0
 11
35.44936999999999
 21
-285.3585019999999
 31
0.0
  0
LINE
  5
8C0
  8
OUTLINE
  6
CONTINUOUS
 62
     3
 10
38.02812699999999
 20
-285.3588879999998
 30
0.0
 11
47.47137799999998
 21
-285.3603009999999
 31
0.0
  0
LINE
  5
8C1
  8
OUTLINE
  6
CONTINUOUS
 62
     3
 10
65.46072000000001
 20
-262.4488949999998
 30
0.0
 11
65.45856899999998
 21
-276.8238829999999
 31
0.0
  0
ARC
  5
8C2
  8
OUTLINE
  6
CONTINUOUS
 62
     3
 10
70.58944599999998
 20
-225.2191779999998
 30
0.0
 40
6.027606999999997
 50
89.99142500000012
 51
179.9914249999788
  0
ARC
  5
8C3
  8
OUTLINE
  6
CONTINUOUS
 62
     3
 10
70.58944599999998
 20
-225.2191779999998
 30
0.0
 40
4.018404999999999
 50
89.99142500000002
 51
179.9914250000213
  0
LINE
  5
8C4
  8
OUTLINE
  6
CONTINUOUS
 62
     3
 10
64.561839
 20
-225.2182759999998
 30
0.0
 11
64.56168799999998
 21
-226.222877
 31
0.0
  0
LINE
  5
8C5
  8
OUTLINE
  6
CONTINUOUS
 62
     3
 10
86.16166699999998
 20
-219.193901
 30
0.0
 11
86.1613665616198
 21
-221.2031040000839
 31
0.0
  0
ARC
  5
8C6
  8
OUTLINE
  6
CONTINUOUS
 62
     3
 10
90.38033500000002
 20
-226.2869799999998
 30
0.0
 40
5.023005999999999
 50
359.9914249999363
 51
89.99144299999996
  0
ARC
  5
8C7
  8
OUTLINE
  6
CONTINUOUS
 62
     3
 10
77.62294699999998
 20
-216.580661
 30
0.0
 40
7.735428999999999
 50
219.9745859999999
 51
320.0082799999998
  0
LINE
  5
8C8
  8
OUTLINE
  6
CONTINUOUS
 62
     3
 10
71.695109
 20
-221.2009389999998
 30
0.0
 11
83.54940400000002
 21
-221.202713
 31
0.0
  0
LINE
  5
8C9
  8
OUTLINE
  6
CONTINUOUS
 62
     3
 10
83.54935
 20
-221.5520399999998
 30
0.0
 11
71.69505699999996
 21
-221.5502659999998
 31
0.0
  0
LINE
  5
8CA
  8
OUTLINE
  6
CONTINUOUS
 62
     3
 10
86.161366
 20
-221.2031039999998
 30
0.0
 11
70.590047
 21
-221.2007729999998
 31
0.0
  0
LINE
  5
8CB
  8
OUTLINE
  6
CONTINUOUS
 62
     3
 10
90.68178700000001
 20
-223.5143509999998
 30
0.0
 11
81.05526199999998
 21
-223.5129099999998
 31
0.0
  0
LINE
  5
8CC
  8
OUTLINE
  6
CONTINUOUS
 62
     3
 10
86.16166699999998
 20
-219.193901
 30
0.0
 11
79.93313899999998
 21
-219.192969
 31
0.0
  0
ARC
  5
8CD
  8
OUTLINE
  6
CONTINUOUS
 62
     3
 10
90.681381
 20
-226.2267859999998
 30
0.0
 40
2.712423999999999
 50
359.9914249999788
 51
89.99144299999992
  0
LINE
  5
8CE
  8
OUTLINE
  6
CONTINUOUS
 62
     3
 10
90.68216400000001
 20
-221.2037799999998
 30
0.0
 11
86.161366
 21
-221.2031039999998
 31
0.0
  0
LINE
  5
8CF
  8
OUTLINE
  6
CONTINUOUS
 62
     3
 10
83.549403
 20
-221.202713
 30
0.0
 11
83.54935
 21
-221.5520399999998
 31
0.0
  0
LINE
  5
8D0
  8
OUTLINE
  6
CONTINUOUS
 62
     3
 10
83.64954799999998
 20
-223.5132979999998
 30
0.0
 11
83.64989399999996
 21
-221.202728
 31
0.0
  0
LINE
  5
8D1
  8
OUTLINE
  6
CONTINUOUS
 62
     3
 10
75.313477
 20
-209.1462649999998
 30
0.0
 11
79.934643
 21
-209.146957
 31
0.0
  0
LINE
  5
8D2
  8
OUTLINE
  6
CONTINUOUS
 62
     3
 10
71.695109
 20
-221.2009389999998
 30
0.0
 11
71.69505699999996
 21
-221.5502659999998
 31
0.0
  0
LINE
  5
8D3
  8
OUTLINE
  6
CONTINUOUS
 62
     3
 10
68.580795
 20
-221.738819
 30
0.0
 11
68.58053000000001
 21
-223.511043
 31
0.0
  0
LINE
  5
8D4
  8
OUTLINE
  6
CONTINUOUS
 62
     3
 10
71.59433299999998
 20
-223.5114939999998
 30
0.0
 11
71.594679
 21
-221.2009239999998
 31
0.0
  0
LINE
  5
8D5
  8
OUTLINE
  6
CONTINUOUS
 62
     3
 10
75.313477
 20
-209.1462649999998
 30
0.0
 11
75.31167299999998
 21
-221.2014799999998
 31
0.0
  0
LINE
  5
8D6
  8
OUTLINE
  6
CONTINUOUS
 62
     3
 10
66.57104100000001
 20
-225.218577
 30
0.0
 11
66.57089099999999
 21
-226.2231779999999
 31
0.0
  0
LINE
  5
8D7
  8
OUTLINE
  6
CONTINUOUS
 62
     3
 10
74.188558
 20
-223.5118819999998
 30
0.0
 11
66.95227399999999
 21
-223.5107989999999
 31
0.0
  0
LINE
  5
8D8
  8
OUTLINE
  6
CONTINUOUS
 62
     3
 10
79.934643
 20
-209.146957
 30
0.0
 11
79.932839
 21
-221.202172
 31
0.0
  0
LINE
  5
8D9
  8
OUTLINE
  6
CONTINUOUS
 62
     3
 10
93.39380496957175
 20
-226.2271922861941
 30
0.0
 11
93.38898446681529
 21
-258.4346703458434
 31
0.0
  0
LINE
  5
8DA
  8
OUTLINE
  6
CONTINUOUS
 62
     3
 10
272.025527
 20
-26.079068
 30
0.0
 11
202.5380339999998
 21
-26.07906800000001
 31
0.0
  0
LINE
  5
8DB
  8
OUTLINE
  6
CONTINUOUS
 62
     3
 10
272.025527
 20
-20.06252699999999
 30
0.0
 11
202.5380339999998
 21
-20.06252699999999
 31
0.0
  0
LINE
  5
8DC
  8
OUTLINE
  6
CONTINUOUS
 62
     3
 10
226.3777739999998
 20
-169.770487
 30
0.0
 11
226.4068199999998
 21
-26.15351800000002
 31
0.0
  0
LINE
  5
8DD
  8
OUTLINE
  6
CONTINUOUS
 62
     3
 10
222.8091019999999
 20
-171.5185379999998
 30
0.0
 11
222.8368079999998
 21
-26.07906800000001
 31
0.0
  0
LINE
  5
8DE
  8
OUTLINE
  6
CONTINUOUS
 62
     3
 10
202.5380339999998
 20
-26.07906800000001
 30
0.0
 11
202.5381889999998
 21
-20.06036
 31
0.0
  0
LINE
  5
8DF
  8
OUTLINE
  6
CONTINUOUS
 62
     3
 10
229.3823989999999
 20
-26.07906800000001
 30
0.0
 11
209.7283659999999
 21
-26.07906800000001
 31
0.0
  0
LINE
  5
8E0
  8
OUTLINE
  6
DASHED
 62
     3
 10
214.5415989999998
 20
-10.03495999999996
 30
0.0
 11
224.5691659999999
 21
-10.03495999999996
 31
0.0
  0
ARC
  5
8E1
  8
OUTLINE
  6
CONTINUOUS
 62
     3
 10
293.3323859999998
 20
-14.04598699999997
 30
0.0
 40
4.011026999999999
 50
90.0
 51
180.0
  0
ARC
  5
8E2
  8
OUTLINE
  6
CONTINUOUS
 62
     3
 10
294.6311269999998
 20
-14.07609100000003
 30
0.0
 40
4.083815999999997
 50
91.01971299999973
 51
179.5776340000004
  0
ARC
  5
8E3
  8
OUTLINE
  6
CONTINUOUS
 62
     3
 10
272.1817908765186
 20
-92.1803866369894
 30
0.0000000000000142
 40
2.806872999999999
 50
265.6376980000003
 51
94.34515100000002
  0
LINE
  5
8E4
  8
OUTLINE
  6
CONTINUOUS
 62
     3
 10
250.475823
 20
-155.9888579999999
 30
0.0
 11
250.4952679999998
 21
-26.157124
 31
0.0
  0
LINE
  5
8E5
  8
OUTLINE
  6
CONTINUOUS
 62
     3
 10
271.968291705341
 20
-94.97912816525444
 30
0.0000000000000142
 11
250.4849679999998
 21
-94.97552999999999
 31
0.0
  0
ARC
  5
8E6
  8
OUTLINE
  6
CONTINUOUS
 62
     3
 10
285.3103319999998
 20
-16.05150000000003
 30
0.0
 40
4.011026999999999
 50
270.0000009999999
 51
0.0
  0
ARC
  5
8E7
  8
OUTLINE
  6
CONTINUOUS
 62
     3
 10
286.536395
 20
-16.05150000000003
 30
0.0
 40
4.011026999999999
 50
270.0
 51
0.0
  0
LINE
  5
8E8
  8
OUTLINE
  6
CONTINUOUS
 62
     3
 10
289.3213589999999
 20
-14.04598699999997
 30
0.0
 11
289.3213589999999
 21
-16.05150000000003
 31
0.0
  0
LINE
  5
8EA
  8
OUTLINE
  6
CONTINUOUS
 62
     3
 10
290.5474219999999
 20
-16.05150000000003
 30
0.0
 11
290.5474219999999
 21
-14.04598699999997
 31
0.0
  0
LINE
  5
8EB
  8
OUTLINE
  6
CONTINUOUS
 62
     3
 10
250.4858059999999
 20
-89.37798199999997
 30
0.0
 11
271.9691294941571
 21
-89.38158132497118
 31
0.0000000000000142
  0
ARC
  5
8EC
  8
OUTLINE
  6
CONTINUOUS
 62
     3
 10
307.5395369999998
 20
-2.313733000000013
 30
0.0
 40
2.306341
 50
343.2451950000001
 51
90.0
  0
ARC
  5
8ED
  8
OUTLINE
  6
CONTINUOUS
 62
     3
 10
307.349013
 20
-6.42503499999998
 30
0.0
 40
1.303584
 50
270.0
 51
343.2451950000001
  0
LINE
  5
8EE
  8
OUTLINE
  6
CONTINUOUS
 62
     3
 10
309.747967
 20
-2.978597000000022
 30
0.0
 11
308.597256
 21
-6.800828000000024
 31
0.0
  0
LINE
  5
8EF
  8
OUTLINE
  6
CONTINUOUS
 62
     3
 10
309.747967
 20
-2.978597000000022
 30
0.0
 11
308.597256
 21
-6.800828000000024
 31
0.0
  0
ARC
  5
8F0
  8
OUTLINE
  6
CONTINUOUS
 62
     3
 10
302.8831089999999
 20
-6.113894000000016
 30
0.0
 40
3.880569999999999
 50
268.4930029999996
 51
335.3655199999999
  0
LINE
  5
8F2
  8
OUTLINE
  6
CONTINUOUS
 62
     3
 10
272.025527
 20
-20.09219649080553
 30
0.0
 11
272.025527
 21
-26.079068
 31
0.0
  0
TEXT
  5
9E9
  8
ETC
  6
CONTINUOUS
 62
    61
 10
346.1593722170318
 20
496.7275021507485
 30
0.0
 40
50.0
  1
EF-45ETB3_1
 41
0.9
  0
TEXT
  5
9EA
  8
ETC
  6
CONTINUOUS
 62
    61
 10
452.1984827095046
 20
372.7982721507485
 30
0.0
 40
40.0
  1
EF-45ETB2
 41
0.9
  0
TEXT
  5
9EB
  8
ETC
  6
CONTINUOUS
 62
    61
 10
346.1593722170318
 20
435.5415891507485
 30
0.0
 40
50.0
  1
産業扇
 41
0.9
  0
TEXT
  5
9EC
  8
ETC
  6
CONTINUOUS
 62
    61
 10
452.1984827095046
 20
312.6987749809171
 30
0.0
 40
40.0
  1
EF-45ETB3
 41
0.9
  0
TEXT
  5
ACA
  8
ETC
  6
CONTINUOUS
 62
    61
 10
452.1984827095046
 20
251.7031811132731
 30
0.0
 40
40.0
  1
EG-45DTB3
 41
0.9
  0
ENDSEC
  0
EOF
