  0
SECTION
  2
HEADER
  9
$ACADVER
  1
AC1009
  9
$INSBASE
 10
0.0
 20
0.0
 30
0.0
  9
$EXTMIN
 10
-589.59501513698524
 20
-325.2410770222105
 30
-0.0015257624927045
  9
$EXTMAX
 10
892.77650066974445
 20
808.13599460308433
 30
50.001525995323327
  9
$LIMMIN
 10
-2970.0
 20
-2100.0
  9
$LIMMAX
 10
2970.0
 20
2100.0
  9
$ORTHOMODE
 70
     1
  9
$REGENMODE
 70
     1
  9
$FILLMODE
 70
     1
  9
$QTEXTMODE
 70
     0
  9
$MIRRTEXT
 70
     0
  9
$DRAGMODE
 70
     2
  9
$LTSCALE
 40
20.0
  9
$OSMODE
 70
    37
  9
$ATTMODE
 70
     1
  9
$TEXTSIZE
 40
64.0
  9
$TRACEWID
 40
0.05
  9
$TEXTSTYLE
  7
STANDARD
  9
$CLAYER
  8
ETC
  9
$CELTYPE
  6
CONTINUOUS
  9
$CECOLOR
 62
     7
  9
$DIMSCALE
 40
1.0
  9
$DIMASZ
 40
2.0
  9
$DIMEXO
 40
20.0
  9
$DIMDLI
 40
200.0
  9
$DIMRND
 40
0.0
  9
$DIMDLE
 40
0.0
  9
$DIMEXE
 40
30.0
  9
$DIMTP
 40
0.1
  9
$DIMTM
 40
0.1
  9
$DIMTXT
 40
64.0
  9
$DIMCEN
 40
0.09
  9
$DIMTSZ
 40
0.0
  9
$DIMTOL
 70
     0
  9
$DIMLIM
 70
     0
  9
$DIMTIH
 70
     0
  9
$DIMTOH
 70
     0
  9
$DIMSE1
 70
     0
  9
$DIMSE2
 70
     0
  9
$DIMTAD
 70
     1
  9
$DIMZIN
 70
     8
  9
$DIMBLK
  1
DOT1
  9
$DIMASO
 70
     1
  9
$DIMSHO
 70
     0
  9
$DIMPOST
  1
<>
  9
$DIMAPOST
  1
"
  9
$DIMALT
 70
     0
  9
$DIMALTD
 70
     2
  9
$DIMALTF
 40
0.03937
  9
$DIMLFAC
 40
1.0
  9
$DIMTOFL
 70
     1
  9
$DIMTVP
 40
0.0
  9
$DIMTIX
 70
     0
  9
$DIMSOXD
 70
     0
  9
$DIMSAH
 70
     1
  9
$DIMBLK1
  1

  9
$DIMBLK2
  1

  9
$DIMSTYLE
  2
GEN-ISO
  9
$DIMCLRD
 70
     7
  9
$DIMCLRE
 70
     7
  9
$DIMCLRT
 70
     7
  9
$DIMTFAC
 40
1.0
  9
$DIMGAP
 40
25.0
  9
$LUNITS
 70
     2
  9
$LUPREC
 70
     4
  9
$SKETCHINC
 40
0.1
  9
$FILLETRAD
 40
5.0
  9
$AUNITS
 70
     1
  9
$AUPREC
 70
     3
  9
$MENU
  1
ACAD
  9
$ELEVATION
 40
0.0
  9
$PELEVATION
 40
0.0
  9
$THICKNESS
 40
0.0
  9
$LIMCHECK
 70
     0
  9
$BLIPMODE
 70
     0
  9
$CHAMFERA
 40
0.0
  9
$CHAMFERB
 40
0.0
  9
$SKPOLY
 70
     0
  9
$TDCREATE
 40
2451372.5474537038
  9
$TDUPDATE
 40
2454949.4982084492
  9
$TDINDWG
 40
0.9181050463
  9
$TDUSRTIMER
 40
0.9181048727
  9
$USRTIMER
 70
     1
  9
$ANGBASE
 50
0.0
  9
$ANGDIR
 70
     0
  9
$PDMODE
 70
     3
  9
$PDSIZE
 40
-2.0
  9
$PLINEWID
 40
0.0
  9
$COORDS
 70
     0
  9
$SPLFRAME
 70
     0
  9
$SPLINETYPE
 70
     6
  9
$SPLINESEGS
 70
     8
  9
$ATTDIA
 70
     0
  9
$ATTREQ
 70
     1
  9
$HANDLING
 70
     1
  9
$HANDSEED
  5
4D7
  9
$SURFTAB1
 70
     6
  9
$SURFTAB2
 70
     6
  9
$SURFTYPE
 70
     6
  9
$SURFU
 70
     6
  9
$SURFV
 70
     6
  9
$UCSNAME
  2

  9
$UCSORG
 10
0.0
 20
0.0
 30
0.0
  9
$UCSXDIR
 10
1.0
 20
0.0
 30
0.0
  9
$UCSYDIR
 10
0.0
 20
1.0
 30
0.0
  9
$PUCSNAME
  2

  9
$PUCSORG
 10
0.0
 20
0.0
 30
0.0
  9
$PUCSXDIR
 10
1.0
 20
0.0
 30
0.0
  9
$PUCSYDIR
 10
0.0
 20
1.0
 30
0.0
  9
$USERI1
 70
     0
  9
$USERI2
 70
     0
  9
$USERI3
 70
     0
  9
$USERI4
 70
     0
  9
$USERI5
 70
     0
  9
$USERR1
 40
20.0
  9
$USERR2
 40
0.0
  9
$USERR3
 40
0.0
  9
$USERR4
 40
0.0
  9
$USERR5
 40
0.0
  9
$WORLDVIEW
 70
     1
  9
$SHADEDGE
 70
     3
  9
$SHADEDIF
 70
    70
  9
$TILEMODE
 70
     1
  9
$MAXACTVP
 70
    48
  9
$PLIMCHECK
 70
     0
  9
$PEXTMIN
 10
-1.0000000000000000E+020
 20
-1.0000000000000000E+020
 30
-1.0000000000000000E+020
  9
$PEXTMAX
 10
1.0000000000000000E+020
 20
1.0000000000000000E+020
 30
1.0000000000000000E+020
  9
$PLIMMIN
 10
0.0
 20
0.0
  9
$PLIMMAX
 10
12.0
 20
9.0
  9
$UNITMODE
 70
     0
  9
$VISRETAIN
 70
     0
  9
$PLINEGEN
 70
     0
  9
$PSLTSCALE
 70
     0
  0
ENDSEC
  0
SECTION
  2
TABLES
  0
TABLE
  2
VPORT
 70
     1
  0
VPORT
  2
*ACTIVE
 70
     0
 10
0.0
 20
0.0
 11
1.0
 21
1.0
 12
213.15756871413029
 22
201.59927712142621
 13
0.0
 23
0.0
 14
50.0
 24
50.0
 15
400.0
 25
400.0
 16
0.0
 26
0.0
 36
1.0
 17
0.0
 27
0.0
 37
0.0
 40
1282.075142100125
 41
1.3136094674556209
 42
50.0
 43
0.0
 44
0.0
 50
0.0
 51
0.0
 71
     0
 72
   500
 73
     1
 74
     0
 75
     0
 76
     0
 77
     0
 78
     0
  0
ENDTAB
  0
TABLE
  2
LTYPE
 70
     3
  0
LTYPE
  2
CONTINUOUS
 70
     0
  3
実線
 72
    65
 73
     0
 40
0.0
  0
LTYPE
  2
DASHDOT
 70
     0
  3
____ _ ____ _ ____ _ ____ _ ____ _ ____ _ ____
 72
    65
 73
     4
 40
5.5
 49
4.0
 49
-0.6
 49
0.3
 49
-0.6
  0
ENDTAB
  0
TABLE
  2
LAYER
 70
    12
  0
LAYER
  2
0
 70
     0
 62
     7
  6
CONTINUOUS
  0
LAYER
  2
ETC
 70
     0
 62
    61
  6
CONTINUOUS
  0
LAYER
  2
OUTLINE
 70
     0
 62
     3
  6
CONTINUOUS
  0
LAYER
  2
DETAIL
 70
     0
 62
     5
  6
CONTINUOUS
  0
LAYER
  2
BASIS
 70
     0
 62
     6
  6
DASHDOT
  0
LAYER
  2
NOTE
 70
     0
 62
     4
  6
CONTINUOUS
  0
LAYER
  2
DEFPOINTS
 70
     0
 62
     7
  6
CONTINUOUS
  0
LAYER
  2
SIZE
 70
     0
 62
    30
  6
CONTINUOUS
  0
LAYER
  2
FIX
 70
     0
 62
    11
  6
CONTINUOUS
  0
LAYER
  2
ARRANGE
 70
     0
 62
     1
  6
CONTINUOUS
  0
LAYER
  2
SERVICESPACE
 70
     0
 62
     2
  6
DASHDOT
  0
LAYER
  2
SYMBOLLINE
 70
     0
 62
    15
  6
CONTINUOUS
  0
ENDTAB
  0
TABLE
  2
STYLE
 70
     3
  0
STYLE
  2
STANDARD
 70
     0
 40
0.0
 41
0.9
 50
0.0
 71
     0
 42
64.0
  3
SIMPLEX
  4
BIGFONT
  0
STYLE
  2
ANNOTATIVE
 70
     0
 40
0.0
 41
1.0
 50
0.0
 71
     0
 42
0.2
  3
txt
  4

  0
STYLE
  2

 70
     1
 40
0.0
 41
1.0
 50
0.0
 71
     0
 42
64.0
  3
ltypeshp.shx
  4

  0
ENDTAB
  0
TABLE
  2
VIEW
 70
     1
  0
VIEW
  2
ALL
 70
     0
 40
4282.6198079999967
 10
0.0
 20
41.309903999999989
 41
5940.0
 11
0.0
 21
0.0
 31
1.0
 12
0.0
 22
0.0
 32
0.0
 42
50.0
 43
0.0
 44
0.0
 50
0.0
 71
     0
  0
ENDTAB
  0
TABLE
  2
UCS
 70
     0
  0
ENDTAB
  0
TABLE
  2
APPID
 70
    14
  0
APPID
  2
ACAD
 70
     0
  0
APPID
  2
ACADANNOTATIVE
 70
     0
  0
APPID
  2
ACAD_MLEADERVER
 70
     0
  0
APPID
  2
CONTENTBLOCKDESCRIPTION
 70
     0
  0
APPID
  2
CONTENTBLOCKICON
 70
     0
  0
APPID
  2
GENIUS_GENCFG_13
 70
     0
  0
APPID
  2
GENIUS_GENCFG0_13
 70
     0
  0
APPID
  2
GENIUS_GENCFG1_13
 70
     0
  0
APPID
  2
GENIUS_GENCFG2_13
 70
     0
  0
APPID
  2
GENIUS_GENCFG3_13
 70
     0
  0
APPID
  2
GENIUS_GENCFG4_13
 70
     0
  0
APPID
  2
GENIUS_GEVCFG0_13
 70
     0
  0
APPID
  2
GENIUS_GENOENT_13
 70
     0
  0
APPID
  2
ACAD_EXEMPT_FROM_CAD_STANDARDS
 70
     0
  0
ENDTAB
  0
TABLE
  2
DIMSTYLE
 70
     3
  0
DIMSTYLE
  2
STANDARD
 70
     0
  3

  4

  5

  6

  7

 40
1.0
 41
0.18
 42
0.0625
 43
0.38
 44
0.18
 45
0.0
 46
0.0
 47
0.0
 48
0.0
140
0.18
141
0.09
142
0.0
143
25.399999999999999
144
1.0
145
0.0
146
1.0
147
0.09
 71
     0
 72
     0
 73
     1
 74
     1
 75
     0
 76
     0
 77
     0
 78
     0
170
     0
171
     2
172
     0
173
     0
174
     0
175
     0
176
     0
177
     0
178
     0
  0
DIMSTYLE
  2
ANNOTATIVE
 70
     0
  3

  4

  5

  6

  7

 40
1.0
 41
0.18
 42
0.0625
 43
0.38
 44
0.18
 45
0.0
 46
0.0
 47
0.0
 48
0.0
140
0.18
141
0.09
142
0.0
143
25.399999999999999
144
1.0
145
0.0
146
1.0
147
0.09
 71
     0
 72
     0
 73
     1
 74
     1
 75
     0
 76
     0
 77
     0
 78
     0
170
     0
171
     2
172
     0
173
     0
174
     0
175
     0
176
     0
177
     0
178
     0
  0
DIMSTYLE
  2
GEN-ISO
 70
     0
  3

  4
"
  5

  6

  7

 40
1.0
 41
2.0
 42
20.0
 43
200.0
 44
30.0
 45
0.0
 46
0.0
 47
0.1
 48
0.1
140
64.0
141
0.09
142
0.0
143
0.03937
144
1.0
145
0.0
146
1.0
147
25.0
 71
     0
 72
     0
 73
     0
 74
     0
 75
     0
 76
     0
 77
     1
 78
     8
170
     0
171
     2
172
     1
173
     1
174
     0
175
     0
176
     7
177
     7
178
     7
  0
ENDTAB
  0
ENDSEC
  0
SECTION
  2
BLOCKS
  0
BLOCK
  8
0
  2
$MODEL_SPACE
 70
     0
 10
0.0
 20
0.0
 30
0.0
  3
$MODEL_SPACE
  1

  0
ENDBLK
  5
458
  8
0
  0
BLOCK
 67
     1
  8
0
  2
$PAPER_SPACE
 70
     0
 10
0.0
 20
0.0
 30
0.0
  3
$PAPER_SPACE
  1

  0
ENDBLK
  5
454
 67
     1
  8
0
  0
BLOCK
  8
OUTLINE
  2
DOT1
 70
     0
 10
0.0
 20
0.0
 30
0.0
  3
DOT1
  1

  0
CIRCLE
  5
250
  8
SIZE
  6
CONTINUOUS
 62
     7
 10
0.0
 20
0.0
 30
0.0
 40
3.0
  0
ENDBLK
  5
251
  8
OUTLINE
  0
BLOCK
  8
0
 62
    30
  2
_NONE
 70
     0
 10
0.0
 20
0.0
 30
0.0
  3
_NONE
  1

  0
ENDBLK
  5
480
  8
0
 62
    30
  0
ENDSEC
  0
SECTION
  2
ENTITIES
  0
LINE
  5
252
  8
SIZE
  6
CONTINUOUS
 62
    30
 10
280.0
 20
300.0
 30
0.0
 11
280.0
 21
434.48782699999992
 31
0.0
  0
LINE
  5
253
  8
SIZE
  6
CONTINUOUS
 62
    30
 10
-280.0
 20
300.0
 30
0.0
 11
-280.0
 21
434.48782699999992
 31
0.0
  0
LINE
  5
254
  8
SIZE
  6
CONTINUOUS
 62
    30
 10
278.0
 20
404.48782699999981
 30
0.0
 11
-278.0
 21
404.48782699999981
 31
0.0
  0
CIRCLE
  5
255
  8
SIZE
  6
CONTINUOUS
 62
    30
 10
280.0
 20
404.48782699999981
 30
0.0
 40
6.0
  0
CIRCLE
  5
256
  8
SIZE
  6
CONTINUOUS
 62
    30
 10
-280.0
 20
404.48782699999981
 30
0.0
 40
6.0
  0
TEXT
  5
257
  8
SIZE
  6
CONTINUOUS
 62
    30
 10
-74.05714285714285
 20
429.48782699999981
 30
0.0
 40
64.0
  1
560
 41
0.9
 72
     1
 11
0.0
 21
429.48782699999981
 31
0.0
  0
LINE
  5
258
  8
SIZE
  6
CONTINUOUS
 62
    30
 10
20.0
 20
310.0
 30
0.0
 11
643.68742899999995
 21
310.0
 31
0.0
  0
LINE
  5
259
  8
SIZE
  6
CONTINUOUS
 62
    30
 10
20.0
 20
-310.0
 30
0.0
 11
643.68742899999995
 21
-310.0
 31
0.0
  0
LINE
  5
25A
  8
SIZE
  6
CONTINUOUS
 62
    30
 10
613.68742899999995
 20
308.0
 30
0.0
 11
613.68742899999995
 21
-308.0
 31
0.0
  0
CIRCLE
  5
25B
  8
SIZE
  6
CONTINUOUS
 62
    30
 10
613.68742899999995
 20
310.0
 30
0.0
 40
6.0
  0
CIRCLE
  5
25C
  8
SIZE
  6
CONTINUOUS
 62
    30
 10
613.68742899999995
 20
-310.0
 30
0.0
 40
6.0
  0
TEXT
  5
25D
  8
SIZE
  6
CONTINUOUS
 62
    30
 10
588.68742899999995
 20
-74.05714285714285
 30
0.0
 40
64.0
  1
620
 50
90.0
 41
0.9
 72
     1
 11
588.68742899999995
 21
0.0
 31
0.0
  0
LINE
  5
25E
  8
SIZE
  6
CONTINUOUS
 62
    30
 10
310.0
 20
20.0
 30
0.0
 11
310.0
 21
564.34673599999985
 31
0.0
  0
LINE
  5
25F
  8
SIZE
  6
CONTINUOUS
 62
    30
 10
-310.0
 20
20.0
 30
0.0
 11
-310.0
 21
564.34673599999985
 31
0.0
  0
LINE
  5
260
  8
SIZE
  6
CONTINUOUS
 62
    30
 10
308.0
 20
534.34673599999985
 30
0.0
 11
-308.0
 21
534.34673599999985
 31
0.0
  0
CIRCLE
  5
261
  8
SIZE
  6
CONTINUOUS
 62
    30
 10
310.0
 20
534.34673599999985
 30
0.0
 40
6.0
  0
CIRCLE
  5
262
  8
SIZE
  6
CONTINUOUS
 62
    30
 10
-310.0
 20
534.34673599999985
 30
0.0
 40
6.0
  0
TEXT
  5
263
  8
SIZE
  6
CONTINUOUS
 62
    30
 10
-74.05714285714285
 20
559.34673599999985
 30
0.0
 40
64.0
  1
620
 41
0.9
 72
     1
 11
0.0
 21
559.34673599999985
 31
0.0
  0
ARC
  5
264
  8
DETAIL
  6
CONTINUOUS
 62
     5
 10
-0.000031
 20
-205.49996899999991
 30
0.0
 40
300.0
 50
88.326680000000025
 51
106.20706300000001
  0
ARC
  5
265
  8
DETAIL
  6
CONTINUOUS
 62
     5
 10
-0.6407510000000001
 20
-201.94489899999991
 30
0.0
 40
294.10762099999982
 50
88.106605999999999
 51
106.280507
  0
ARC
  5
266
  8
DETAIL
  6
CONTINUOUS
 62
     5
 10
0.0
 20
-11690.0
 30
0.0
 40
12000.0
 50
88.720708000000016
 51
91.279292000000027
  0
ARC
  5
267
  8
DETAIL
  6
CONTINUOUS
 62
     5
 10
0.0
 20
-11690.0
 30
0.0
 40
11996.209999999999
 50
88.720708000000016
 51
91.279292000000027
  0
ARC
  5
268
  8
DETAIL
  6
CONTINUOUS
 62
     5
 10
0.0
 20
-11690.0
 30
0.0
 40
11996.200000000001
 50
88.720708000000016
 51
91.279292000000027
  0
ARC
  5
269
  8
DETAIL
  6
CONTINUOUS
 62
     5
 10
0.0
 20
-11690.0
 30
0.0
 40
11980.0
 50
89.480284999999967
 51
90.519715000000005
  0
ARC
  5
26A
  8
DETAIL
  6
CONTINUOUS
 62
     5
 10
-0.000031
 20
205.49996899999991
 30
0.0
 40
297.69999999999982
 50
253.79293699999991
 51
265.59427899999991
  0
ARC
  5
26B
  8
DETAIL
  6
CONTINUOUS
 62
     5
 10
-0.000031
 20
205.49996899999991
 30
0.0
 40
300.0
 50
253.79293699999991
 51
265.77140900000001
  0
ARC
  5
26C
  8
DETAIL
  6
CONTINUOUS
 62
     5
 10
0.0
 20
11690.0
 30
0.0
 40
11980.0
 50
269.48028499999992
 51
270.51971499999991
  0
ARC
  5
26D
  8
DETAIL
  6
CONTINUOUS
 62
     5
 10
0.0
 20
11690.0
 30
0.0
 40
12000.0
 50
268.72070799999972
 51
271.12711899999999
  0
ARC
  5
26E
  8
DETAIL
  6
CONTINUOUS
 62
     5
 10
0.0
 20
11690.0
 30
0.0
 40
11996.209999999999
 50
268.72070799999972
 51
271.127476
  0
LINE
  5
26F
  8
BASIS
  6
DASHDOT
 62
     6
 10
325.0
 20
0.0
 30
0.0
 11
-325.0
 21
0.0
 31
0.0
  0
LINE
  5
270
  8
DETAIL
  6
CONTINUOUS
 62
     5
 10
-89.500004999999987
 20
88.772125000000003
 30
0.0
 11
-89.500004999999987
 21
69.523220999999992
 31
0.0
  0
LINE
  5
271
  8
DETAIL
  6
CONTINUOUS
 62
     5
 10
-95.500005000000016
 20
88.772125000000003
 30
0.0
 11
-95.500005000000016
 21
70.343582999999995
 31
0.0
  0
LINE
  5
272
  8
DETAIL
  6
CONTINUOUS
 62
     5
 10
-87.200000000000003
 20
-74.895741999999984
 30
0.0
 11
-87.200000000000003
 21
-42.274453999999992
 31
0.0
  0
LINE
  5
273
  8
DETAIL
  6
CONTINUOUS
 62
     5
 10
-89.500004999999987
 20
-45.61952999999999
 30
0.0
 11
-89.500000000000014
 21
-74.895741999999984
 31
0.0
  0
ARC
  5
274
  8
DETAIL
  6
CONTINUOUS
 62
     5
 10
11690.0
 20
0.0
 30
0.0
 40
12000.0
 50
178.7207079999998
 51
181.27929199999991
  0
ARC
  5
275
  8
DETAIL
  6
CONTINUOUS
 62
     5
 10
11690.0
 20
0.0
 30
0.0
 40
11996.209999999999
 50
178.7207079999998
 51
181.27929199999991
  0
ARC
  5
276
  8
DETAIL
  6
CONTINUOUS
 62
     5
 10
11690.0
 20
0.0
 30
0.0
 40
11996.200000000001
 50
178.7207079999998
 51
181.27929199999991
  0
ARC
  5
277
  8
DETAIL
  6
CONTINUOUS
 62
     5
 10
11690.0
 20
0.0
 30
0.0
 40
11980.0
 50
179.48028500000001
 51
180.51971499999991
  0
LINE
  5
278
  8
BASIS
  6
DASHDOT
 62
     6
 10
0.0
 20
-325.0
 30
0.0
 11
0.0
 21
325.0
 31
0.0
  0
CIRCLE
  5
279
  8
FIX
  6
CONTINUOUS
 62
    11
 39
50.0
 10
-280.0
 20
-280.0
 30
0.0
 40
5.5
  0
LINE
  5
27A
  8
DETAIL
  6
CONTINUOUS
 62
     5
 10
-120.73412500000001
 20
-124.9768159999999
 30
0.0
 11
-93.014722000000006
 21
-97.257403999999994
 31
0.0
  0
LINE
  5
27B
  8
DETAIL
  6
CONTINUOUS
 62
     5
 10
-97.257363999999995
 20
-93.014764999999997
 30
0.0
 11
-118.785079
 21
-114.5424379999999
 31
0.0
  0
ARC
  5
27C
  8
DETAIL
  6
CONTINUOUS
 62
     5
 10
-231.52159999999989
 20
-267.758893
 30
0.0
 40
20.0
 50
194.171323
 51
268.89079900000002
  0
ARC
  5
27D
  8
DETAIL
  6
CONTINUOUS
 62
     5
 10
-273.777308
 20
-171.04834299999999
 30
0.0
 40
15.0
 50
119.9999999999999
 51
180.81911299999999
  0
ARC
  5
27E
  8
DETAIL
  6
CONTINUOUS
 62
     5
 10
-267.758893
 20
-231.52159999999989
 30
0.0
 40
20.0
 50
181.10920100000001
 51
255.828677
  0
ARC
  5
27F
  8
DETAIL
  6
CONTINUOUS
 62
     5
 10
-267.01889699999992
 20
-267.01889699999992
 30
0.0
 40
40.0
 50
181.27929199999991
 51
268.72070799999972
  0
ARC
  5
280
  8
DETAIL
  6
CONTINUOUS
 62
     5
 10
-267.01889699999992
 20
-267.01889699999992
 30
0.0
 40
36.210000000000001
 50
181.27929199999991
 51
268.72070799999972
  0
ARC
  5
281
  8
DETAIL
  6
CONTINUOUS
 62
     5
 10
-267.01889699999992
 20
-267.01889699999992
 30
0.0
 40
36.200000000000003
 50
181.27929199999991
 51
268.72070799999972
  0
LINE
  5
282
  8
NOTE
  6
CONTINUOUS
 62
     4
 10
-260.0
 20
-280.0
 30
0.0
 11
-300.0
 21
-280.0
 31
0.0
  0
LINE
  5
283
  8
NOTE
  6
CONTINUOUS
 62
     4
 10
-280.0
 20
-300.0
 30
0.0
 11
-280.0
 21
-260.0
 31
0.0
  0
CIRCLE
  5
284
  8
DETAIL
  6
CONTINUOUS
 62
     5
 10
-280.0
 20
-280.0
 30
0.0
 40
7.0
  0
ARC
  5
285
  8
DETAIL
  6
CONTINUOUS
 62
     5
 10
-280.0
 20
-280.0
 30
0.0
 40
30.0
 50
14.17132299999999
 51
75.828676999999999
  0
CIRCLE
  5
286
  8
DETAIL
  6
CONTINUOUS
 62
     5
 10
-255.0
 20
-181.0
 30
0.0
 40
6.5
  0
LINE
  5
287
  8
DETAIL
  6
CONTINUOUS
 62
     5
 10
-288.77577500000001
 20
-171.26277899999991
 30
0.0
 11
-287.75514599999991
 21
-231.9087589999998
 31
0.0
  0
ARC
  5
288
  8
DETAIL
  6
CONTINUOUS
 62
     5
 10
11690.0
 20
0.0
 30
0.0
 40
11980.0
 50
180.81911299999999
 51
181.10920100000001
  0
ARC
  5
289
  8
DETAIL
  6
CONTINUOUS
 62
     5
 10
-274.50777299999987
 20
-108.529922
 30
0.0
 40
15.0
 50
180.51971499999991
 51
239.99999999999989
  0
LINE
  5
28A
  8
DETAIL
  6
CONTINUOUS
 62
     5
 10
-272.5
 20
-127.009619
 30
0.0
 11
-282.00777299999982
 21
-121.520304
 31
0.0
  0
LINE
  5
28B
  8
DETAIL
  6
CONTINUOUS
 62
     5
 10
-284.0
 20
-145.0
 30
0.0
 11
-284.0
 21
-140.0
 31
0.0
  0
LINE
  5
28C
  8
DETAIL
  6
CONTINUOUS
 62
     5
 10
-276.0
 20
-140.0
 30
0.0
 11
-276.0
 21
-145.0
 31
0.0
  0
LINE
  5
28D
  8
DETAIL
  6
CONTINUOUS
 62
     5
 10
-272.5
 20
-152.99038100000001
 30
0.0
 11
-281.27730799999989
 21
-158.0579619999998
 31
0.0
  0
ARC
  5
28E
  8
DETAIL
  6
CONTINUOUS
 62
     5
 10
-280.0
 20
-140.0
 30
0.0
 40
4.0
 50
0.0
 51
180.0
  0
ARC
  5
28F
  8
DETAIL
  6
CONTINUOUS
 62
     5
 10
-280.0
 20
-145.0
 30
0.0
 40
4.0
 50
180.0
 51
0.0
  0
ARC
  5
290
  8
DETAIL
  6
CONTINUOUS
 62
     5
 10
-280.0
 20
-140.0
 30
0.0
 40
15.0
 50
300.0
 51
60.0
  0
ARC
  5
291
  8
DETAIL
  6
CONTINUOUS
 62
     5
 10
-108.529922
 20
-274.50777299999987
 30
0.0
 40
15.0
 50
210.0
 51
269.48028499999992
  0
LINE
  5
292
  8
DETAIL
  6
CONTINUOUS
 62
     5
 10
-231.9087589999998
 20
-287.75514599999991
 30
0.0
 11
-171.26277899999991
 21
-288.77577500000001
 31
0.0
  0
ARC
  5
293
  8
DETAIL
  6
CONTINUOUS
 62
     5
 10
0.0
 20
11690.0
 30
0.0
 40
11980.0
 50
268.89079900000002
 51
269.18088699999998
  0
LINE
  5
294
  8
DETAIL
  6
CONTINUOUS
 62
     5
 10
-145.0
 20
-276.0
 30
0.0
 11
-140.0
 21
-276.0
 31
0.0
  0
ARC
  5
295
  8
DETAIL
  6
CONTINUOUS
 62
     5
 10
-140.0
 20
-280.0
 30
0.0
 40
15.0
 50
30.0
 51
150.0
  0
LINE
  5
296
  8
DETAIL
  6
CONTINUOUS
 62
     5
 10
-121.520304
 20
-282.00777299999982
 30
0.0
 11
-127.009619
 21
-272.5
 31
0.0
  0
LINE
  5
297
  8
DETAIL
  6
CONTINUOUS
 62
     5
 10
-140.0
 20
-284.0
 30
0.0
 11
-145.0
 21
-284.0
 31
0.0
  0
ARC
  5
298
  8
DETAIL
  6
CONTINUOUS
 62
     5
 10
-145.0
 20
-280.0
 30
0.0
 40
4.0
 50
90.0
 51
270.0
  0
ARC
  5
299
  8
DETAIL
  6
CONTINUOUS
 62
     5
 10
-140.0
 20
-280.0
 30
0.0
 40
4.0
 50
270.0
 51
90.0
  0
LINE
  5
29A
  8
DETAIL
  6
CONTINUOUS
 62
     5
 10
-152.99038100000001
 20
-272.5
 30
0.0
 11
-158.0579619999998
 21
-281.27730799999989
 31
0.0
  0
ARC
  5
29B
  8
DETAIL
  6
CONTINUOUS
 62
     5
 10
-171.04834299999999
 20
-273.777308
 30
0.0
 40
15.0
 50
269.18088699999998
 51
330.0
  0
ARC
  5
29C
  8
DETAIL
  6
CONTINUOUS
 62
     5
 10
-81.5
 20
-74.895741999999984
 30
0.0
 40
8.0
 50
180.0
 51
253.79293699999991
  0
LINE
  5
29D
  8
DETAIL
  6
CONTINUOUS
 62
     5
 10
-89.500004999999987
 20
-88.772125000000003
 30
0.0
 11
-89.500004999999987
 21
-45.61952999999999
 31
0.0
  0
LINE
  5
29E
  8
DETAIL
  6
CONTINUOUS
 62
     5
 10
-95.500005000000016
 20
-88.772125000000003
 30
0.0
 11
-95.500005000000016
 21
-55.111045999999988
 31
0.0
  0
ARC
  5
29F
  8
DETAIL
  6
CONTINUOUS
 62
     5
 10
-101.500005
 20
-88.772125000000003
 30
0.0
 40
12.0
 50
315.00000999999992
 51
0.0
  0
ARC
  5
2A0
  8
DETAIL
  6
CONTINUOUS
 62
     5
 10
-101.500005
 20
-88.772125000000003
 30
0.0
 40
6.0
 50
315.00000999999992
 51
0.0
  0
ARC
  5
2A1
  8
DETAIL
  6
CONTINUOUS
 62
     5
 10
-81.5
 20
-74.895741999999984
 30
0.0
 40
5.7000000000000002
 50
180.0
 51
253.79293699999991
  0
CIRCLE
  5
2A2
  8
FIX
  6
CONTINUOUS
 62
    11
 39
50.0
 10
-280.0
 20
280.0
 30
0.0
 40
5.5
  0
ARC
  5
2A3
  8
DETAIL
  6
CONTINUOUS
 62
     5
 10
-231.52159999999989
 20
267.758893
 30
0.0
 40
20.0
 50
91.109200999999985
 51
165.828677
  0
LINE
  5
2A4
  8
DETAIL
  6
CONTINUOUS
 62
     5
 10
-158.73145299999999
 20
162.97415699999999
 30
0.0
 11
-93.014722000000006
 21
97.257403999999994
 31
0.0
  0
LINE
  5
2A5
  8
DETAIL
  6
CONTINUOUS
 62
     5
 10
-97.257363999999995
 20
93.014764999999997
 30
0.0
 11
-162.97409400000001
 21
158.731517
 31
0.0
  0
ARC
  5
2A6
  8
DETAIL
  6
CONTINUOUS
 62
     5
 10
-273.777308
 20
171.04834299999999
 30
0.0
 40
15.0
 50
179.18088700000001
 51
239.99999999999989
  0
ARC
  5
2A7
  8
DETAIL
  6
CONTINUOUS
 62
     5
 10
-274.50777299999987
 20
108.529922
 30
0.0
 40
15.0
 50
119.9999999999999
 51
179.48028500000001
  0
LINE
  5
2A8
  8
DETAIL
  6
CONTINUOUS
 62
     5
 10
-284.0
 20
140.0
 30
0.0
 11
-284.0
 21
145.0
 31
0.0
  0
LINE
  5
2A9
  8
DETAIL
  6
CONTINUOUS
 62
     5
 10
-276.0
 20
145.0
 30
0.0
 11
-276.0
 21
140.0
 31
0.0
  0
LINE
  5
2AA
  8
DETAIL
  6
CONTINUOUS
 62
     5
 10
-272.5
 20
152.99038100000001
 30
0.0
 11
-281.27730799999989
 21
158.0579619999998
 31
0.0
  0
ARC
  5
2AB
  8
DETAIL
  6
CONTINUOUS
 62
     5
 10
-280.0
 20
145.0
 30
0.0
 40
4.0
 50
0.0
 51
180.0
  0
LINE
  5
2AC
  8
DETAIL
  6
CONTINUOUS
 62
     5
 10
-282.00777299999982
 20
121.520304
 30
0.0
 11
-272.5
 21
127.009619
 31
0.0
  0
ARC
  5
2AD
  8
DETAIL
  6
CONTINUOUS
 62
     5
 10
-280.0
 20
140.0
 30
0.0
 40
4.0
 50
180.0
 51
0.0
  0
ARC
  5
2AE
  8
DETAIL
  6
CONTINUOUS
 62
     5
 10
-280.0
 20
140.0
 30
0.0
 40
15.0
 50
300.0
 51
60.0
  0
ARC
  5
2AF
  8
DETAIL
  6
CONTINUOUS
 62
     5
 10
-267.758893
 20
231.52159999999989
 30
0.0
 40
20.0
 50
104.171323
 51
178.89079899999999
  0
ARC
  5
2B0
  8
DETAIL
  6
CONTINUOUS
 62
     5
 10
11690.0
 20
0.0
 30
0.0
 40
11980.0
 50
178.89079899999999
 51
179.18088700000001
  0
ARC
  5
2B1
  8
DETAIL
  6
CONTINUOUS
 62
     5
 10
-267.01889699999992
 20
267.01889699999992
 30
0.0
 40
40.0
 50
91.279292000000027
 51
178.7207079999998
  0
ARC
  5
2B2
  8
DETAIL
  6
CONTINUOUS
 62
     5
 10
-267.01889699999992
 20
267.01889699999992
 30
0.0
 40
36.210000000000001
 50
91.279292000000027
 51
178.7207079999998
  0
ARC
  5
2B3
  8
DETAIL
  6
CONTINUOUS
 62
     5
 10
-267.01889699999992
 20
267.01889699999992
 30
0.0
 40
36.200000000000003
 50
91.279292000000027
 51
178.7207079999998
  0
LINE
  5
2B4
  8
NOTE
  6
CONTINUOUS
 62
     4
 10
-260.0
 20
280.0
 30
0.0
 11
-300.0
 21
280.0
 31
0.0
  0
LINE
  5
2B5
  8
NOTE
  6
CONTINUOUS
 62
     4
 10
-280.0
 20
260.0
 30
0.0
 11
-280.0
 21
300.0
 31
0.0
  0
ARC
  5
2B6
  8
DETAIL
  6
CONTINUOUS
 62
     5
 10
-280.0
 20
280.0
 30
0.0
 40
30.0
 50
284.17132299999992
 51
345.82867700000008
  0
CIRCLE
  5
2B7
  8
DETAIL
  6
CONTINUOUS
 62
     5
 10
-280.0
 20
280.0
 30
0.0
 40
7.0
  0
ARC
  5
2B8
  8
DETAIL
  6
CONTINUOUS
 62
     5
 10
-81.5
 20
74.895741999999984
 30
0.0
 40
8.0
 50
106.20706300000001
 51
180.0
  0
ARC
  5
2B9
  8
DETAIL
  6
CONTINUOUS
 62
     5
 10
-81.5
 20
74.895741999999984
 30
0.0
 40
5.7000000000000002
 50
106.20706300000001
 51
180.0
  0
ARC
  5
2BA
  8
DETAIL
  6
CONTINUOUS
 62
     5
 10
-101.500005
 20
88.772125000000003
 30
0.0
 40
12.0
 50
0.0
 51
44.999989999999983
  0
ARC
  5
2BB
  8
DETAIL
  6
CONTINUOUS
 62
     5
 10
-101.500005
 20
88.772125000000003
 30
0.0
 40
6.0
 50
0.0
 51
44.999989999999983
  0
ARC
  5
2BC
  8
DETAIL
  6
CONTINUOUS
 62
     5
 10
-108.529922
 20
274.50777299999987
 30
0.0
 40
15.0
 50
90.519715000000005
 51
150.0
  0
ARC
  5
2BD
  8
DETAIL
  6
CONTINUOUS
 62
     5
 10
0.0
 20
-11690.0
 30
0.0
 40
11980.0
 50
90.819112999999987
 51
91.109200999999985
  0
CIRCLE
  5
2BE
  8
DETAIL
  6
CONTINUOUS
 62
     5
 10
-181.0
 20
255.0
 30
0.0
 40
6.5
  0
LINE
  5
2BF
  8
DETAIL
  6
CONTINUOUS
 62
     5
 10
-145.0
 20
284.0
 30
0.0
 11
-140.0
 21
284.0
 31
0.0
  0
LINE
  5
2C0
  8
DETAIL
  6
CONTINUOUS
 62
     5
 10
-140.0
 20
276.0
 30
0.0
 11
-145.0
 21
276.0
 31
0.0
  0
ARC
  5
2C1
  8
DETAIL
  6
CONTINUOUS
 62
     5
 10
-140.0
 20
280.0
 30
0.0
 40
15.0
 50
210.0
 51
330.0
  0
LINE
  5
2C2
  8
DETAIL
  6
CONTINUOUS
 62
     5
 10
-127.009619
 20
272.5
 30
0.0
 11
-121.520304
 21
282.00777299999982
 31
0.0
  0
ARC
  5
2C3
  8
DETAIL
  6
CONTINUOUS
 62
     5
 10
-145.0
 20
280.0
 30
0.0
 40
4.0
 50
90.0
 51
270.0
  0
ARC
  5
2C4
  8
DETAIL
  6
CONTINUOUS
 62
     5
 10
-140.0
 20
280.0
 30
0.0
 40
4.0
 50
270.0
 51
90.0
  0
LINE
  5
2C5
  8
DETAIL
  6
CONTINUOUS
 62
     5
 10
-158.0579619999998
 20
281.27730799999989
 30
0.0
 11
-152.99038100000001
 21
272.5
 31
0.0
  0
ARC
  5
2C6
  8
DETAIL
  6
CONTINUOUS
 62
     5
 10
-171.04834299999999
 20
273.777308
 30
0.0
 40
15.0
 50
30.0
 51
90.819112999999987
  0
LINE
  5
2C7
  8
SIZE
  6
CONTINUOUS
 62
    30
 10
300.0
 20
280.0
 30
0.0
 11
486.15679899999998
 21
280.0
 31
0.0
  0
LINE
  5
2C8
  8
SIZE
  6
CONTINUOUS
 62
    30
 10
300.0
 20
-280.0
 30
0.0
 11
486.15679899999998
 21
-280.0
 31
0.0
  0
LINE
  5
2C9
  8
SIZE
  6
CONTINUOUS
 62
    30
 10
456.15679899999992
 20
278.0
 30
0.0
 11
456.15679899999992
 21
-278.0
 31
0.0
  0
CIRCLE
  5
2CA
  8
SIZE
  6
CONTINUOUS
 62
    30
 10
456.15679899999992
 20
280.0
 30
0.0
 40
6.0
  0
CIRCLE
  5
2CB
  8
SIZE
  6
CONTINUOUS
 62
    30
 10
456.15679899999992
 20
-280.0
 30
0.0
 40
6.0
  0
TEXT
  5
2CC
  8
SIZE
  6
CONTINUOUS
 62
    30
 10
431.15679899999992
 20
-74.05714285714285
 30
0.0
 40
64.0
  1
560
 50
90.0
 41
0.9
 72
     1
 11
431.15679899999992
 21
0.0
 31
0.0
  0
LINE
  5
2CD
  8
DETAIL
  6
CONTINUOUS
 62
     5
 10
96.799999999999983
 20
32.888598999999999
 30
0.0
 11
95.500005000000016
 21
0.0
 31
0.0
  0
LINE
  5
2CE
  8
DETAIL
  6
CONTINUOUS
 62
     5
 10
87.590881000000024
 20
22.723298
 30
0.0
 11
88.172661000000005
 21
-54.929118000000003
 31
0.0
  0
LINE
  5
2CF
  8
DETAIL
  6
CONTINUOUS
 62
     5
 10
89.790821999999963
 20
25.066763000000002
 30
0.0
 11
90.258238000000006
 21
-55.019694999999999
 31
0.0
  0
ARC
  5
2D0
  8
DETAIL
  6
CONTINUOUS
 62
     5
 10
-11690.0
 20
0.0
 30
0.0
 40
11980.0
 50
359.48028499999992
 51
0.5197149999999999
  0
ARC
  5
2D1
  8
DETAIL
  6
CONTINUOUS
 62
     5
 10
-11690.0
 20
0.0
 30
0.0
 40
12000.0
 50
358.720708
 51
1.2792920000000001
  0
ARC
  5
2D2
  8
DETAIL
  6
CONTINUOUS
 62
     5
 10
-11690.0
 20
0.0
 30
0.0
 40
11996.209999999999
 50
358.720708
 51
1.2792920000000001
  0
ARC
  5
2D3
  8
DETAIL
  6
CONTINUOUS
 62
     5
 10
-11690.0
 20
0.0
 30
0.0
 40
11996.200000000001
 50
358.720708
 51
1.2792920000000001
  0
CIRCLE
  5
2D4
  8
FIX
  6
CONTINUOUS
 62
    11
 39
50.0
 10
274.5
 20
-280.0
 30
0.0
 40
5.5
  0
ARC
  5
2D5
  8
DETAIL
  6
CONTINUOUS
 62
     5
 10
108.529922
 20
-274.50777299999987
 30
0.0
 40
15.0
 50
270.51971499999991
 51
330.0
  0
ARC
  5
2D6
  8
DETAIL
  6
CONTINUOUS
 62
     5
 10
150.71018999999981
 20
1945.333466
 30
0.0
 40
2234.203775
 50
270.52707500000002
 51
272.189009
  0
LINE
  5
2D7
  8
DETAIL
  6
CONTINUOUS
 62
     5
 10
140.0
 20
-276.0
 30
0.0
 11
145.0
 21
-276.0
 31
0.0
  0
LINE
  5
2D8
  8
DETAIL
  6
CONTINUOUS
 62
     5
 10
158.0579619999998
 20
-281.27730799999989
 30
0.0
 11
152.99038100000001
 21
-272.5
 31
0.0
  0
LINE
  5
2D9
  8
DETAIL
  6
CONTINUOUS
 62
     5
 10
127.009619
 20
-272.5
 30
0.0
 11
121.520304
 21
-282.00777299999982
 31
0.0
  0
ARC
  5
2DA
  8
DETAIL
  6
CONTINUOUS
 62
     5
 10
140.0
 20
-280.0
 30
0.0
 40
15.0
 50
30.0
 51
150.0
  0
LINE
  5
2DB
  8
DETAIL
  6
CONTINUOUS
 62
     5
 10
145.0
 20
-284.0
 30
0.0
 11
140.0
 21
-284.0
 31
0.0
  0
ARC
  5
2DC
  8
DETAIL
  6
CONTINUOUS
 62
     5
 10
145.0
 20
-280.0
 30
0.0
 40
4.0
 50
270.0
 51
90.0
  0
ARC
  5
2DD
  8
DETAIL
  6
CONTINUOUS
 62
     5
 10
140.0
 20
-280.0
 30
0.0
 40
4.0
 50
90.0
 51
270.0
  0
ARC
  5
2DE
  8
DETAIL
  6
CONTINUOUS
 62
     5
 10
171.04834299999999
 20
-273.777308
 30
0.0
 40
15.0
 50
210.0
 51
270.81911300000002
  0
CIRCLE
  5
2DF
  8
DETAIL
  6
CONTINUOUS
 62
     5
 10
181.0
 20
-255.0
 30
0.0
 40
6.5
  0
LINE
  5
2E0
  8
DETAIL
  6
CONTINUOUS
 62
     5
 10
90.709843000000006
 20
-55.036406999999997
 30
0.0
 11
89.500004999999987
 21
0.0
 31
0.0
  0
LINE
  5
2E1
  8
DETAIL
  6
CONTINUOUS
 62
     5
 10
96.799999999999983
 20
-55.161027000000011
 30
0.0
 11
95.500005000000016
 21
0.0
 31
0.0
  0
ARC
  5
2E2
  8
DETAIL
  6
CONTINUOUS
 62
     5
 10
273.777308
 20
-171.04834299999999
 30
0.0
 40
15.0
 50
359.18088699999993
 51
60.0
  0
ARC
  5
2E3
  8
DETAIL
  6
CONTINUOUS
 62
     5
 10
267.758893
 20
-231.52159999999989
 30
0.0
 40
20.0
 50
284.17132299999992
 51
358.89079900000002
  0
ARC
  5
2E4
  8
DETAIL
  6
CONTINUOUS
 62
     5
 10
267.01889699999992
 20
-267.01889699999992
 30
0.0
 40
36.200000000000003
 50
271.279292
 51
358.720708
  0
ARC
  5
2E5
  8
DETAIL
  6
CONTINUOUS
 62
     5
 10
267.01889699999992
 20
-267.01889699999992
 30
0.0
 40
40.0
 50
271.279292
 51
358.720708
  0
ARC
  5
2E6
  8
DETAIL
  6
CONTINUOUS
 62
     5
 10
267.01889699999992
 20
-267.01889699999992
 30
0.0
 40
36.210000000000001
 50
271.279292
 51
358.720708
  0
LINE
  5
2E7
  8
NOTE
  6
CONTINUOUS
 62
     4
 10
294.49999999999972
 20
-280.0
 30
0.0
 11
254.49999999999989
 21
-280.0
 31
0.0
  0
LINE
  5
2E8
  8
NOTE
  6
CONTINUOUS
 62
     4
 10
274.5
 20
-300.0
 30
0.0
 11
274.5
 21
-260.0
 31
0.0
  0
ARC
  5
2E9
  8
DETAIL
  6
CONTINUOUS
 62
     5
 10
0.0
 20
11690.0
 30
0.0
 40
11996.209999999999
 50
271.127476
 51
271.279292
  0
CIRCLE
  5
2EA
  8
DETAIL
  6
CONTINUOUS
 62
     5
 10
280.0
 20
-280.0
 30
0.0
 40
7.0
  0
ARC
  5
2EB
  8
DETAIL
  6
CONTINUOUS
 62
     5
 10
231.52159999999989
 20
-267.758893
 30
0.0
 40
20.0
 50
283.08087199999972
 51
345.82867700000008
  0
ARC
  5
2EC
  8
DETAIL
  6
CONTINUOUS
 62
     5
 10
0.0
 20
11690.0
 30
0.0
 40
12000.0
 50
271.12711899999999
 51
271.279292
  0
ARC
  5
2ED
  8
DETAIL
  6
CONTINUOUS
 62
     5
 10
280.0
 20
-280.0
 30
0.0
 40
30.0
 50
104.171323
 51
165.828677
  0
ARC
  5
2EE
  8
DETAIL
  6
CONTINUOUS
 62
     5
 10
-11690.0
 20
0.0
 30
0.0
 40
11980.0
 50
358.89079900000002
 51
359.18088699999993
  0
ARC
  5
2EF
  8
DETAIL
  6
CONTINUOUS
 62
     5
 10
274.50777299999987
 20
-108.529922
 30
0.0
 40
15.0
 50
300.0
 51
359.48028499999992
  0
LINE
  5
2F0
  8
DETAIL
  6
CONTINUOUS
 62
     5
 10
282.00777299999982
 20
-121.520304
 30
0.0
 11
272.5
 21
-127.009619
 31
0.0
  0
LINE
  5
2F1
  8
DETAIL
  6
CONTINUOUS
 62
     5
 10
272.5
 20
-152.99038100000001
 30
0.0
 11
281.27730799999989
 21
-158.0579619999998
 31
0.0
  0
LINE
  5
2F2
  8
DETAIL
  6
CONTINUOUS
 62
     5
 10
276.0
 20
-145.0
 30
0.0
 11
276.0
 21
-140.0
 31
0.0
  0
LINE
  5
2F3
  8
DETAIL
  6
CONTINUOUS
 62
     5
 10
284.0
 20
-140.0
 30
0.0
 11
284.0
 21
-145.0
 31
0.0
  0
ARC
  5
2F4
  8
DETAIL
  6
CONTINUOUS
 62
     5
 10
280.0
 20
-140.0
 30
0.0
 40
4.0
 50
0.0
 51
180.0
  0
ARC
  5
2F5
  8
DETAIL
  6
CONTINUOUS
 62
     5
 10
280.0
 20
-145.0
 30
0.0
 40
4.0
 50
180.0
 51
0.0
  0
ARC
  5
2F6
  8
DETAIL
  6
CONTINUOUS
 62
     5
 10
280.0
 20
-140.0
 30
0.0
 40
15.0
 50
119.9999999999999
 51
239.99999999999989
  0
LINE
  5
2F7
  8
NOTE
  6
CONTINUOUS
 62
     4
 39
50.0
 10
280.0
 20
280.0
 30
0.0
 11
321.34750600000001
 21
368.71962600000001
 31
0.0
  0
CIRCLE
  5
2F8
  8
FIX
  6
CONTINUOUS
 62
    11
 39
50.0
 10
280.0
 20
280.0
 30
0.0
 40
5.5
  0
TEXT
  5
2F9
  8
NOTE
  6
CONTINUOUS
 62
     4
 10
337.35296399999999
 20
396.93433499999992
 30
0.0
 40
64.0
  1
4-φ14
 41
0.9
  0
LINE
  5
2FA
  8
NOTE
  6
CONTINUOUS
 62
     4
 10
321.34750600000001
 20
368.71962600000001
 30
0.0
 11
575.52888399999995
 21
368.71962600000001
 31
0.0
  0
LINE
  5
2FB
  8
NOTE
  6
CONTINUOUS
 62
     4
 10
321.34750600000001
 20
368.71962600000001
 30
0.0
 11
613.57257400000003
 21
368.71962600000001
 31
0.0
  0
ARC
  5
2FC
  8
DETAIL
  6
CONTINUOUS
 62
     5
 10
231.52159999999989
 20
267.758893
 30
0.0
 40
20.0
 50
14.17132299999999
 51
88.890799000000001
  0
ARC
  5
2FD
  8
DETAIL
  6
CONTINUOUS
 62
     5
 10
154.10855100000001
 20
155.60064699999981
 30
0.0
 40
6.0
 50
345.83985200000001
 51
2.4801809999999991
  0
ARC
  5
2FE
  8
DETAIL
  6
CONTINUOUS
 62
     5
 10
108.529922
 20
274.50777299999987
 30
0.0
 40
15.0
 50
30.0
 51
89.480284999999967
  0
LINE
  5
2FF
  8
DETAIL
  6
CONTINUOUS
 62
     5
 10
231.9087589999998
 20
287.75514599999991
 30
0.0
 11
171.26277899999991
 21
288.77577500000001
 31
0.0
  0
ARC
  5
300
  8
DETAIL
  6
CONTINUOUS
 62
     5
 10
0.0
 20
-11690.0
 30
0.0
 40
11980.0
 50
88.890799000000001
 51
89.180886999999998
  0
LINE
  5
301
  8
DETAIL
  6
CONTINUOUS
 62
     5
 10
140.0
 20
284.0
 30
0.0
 11
145.0
 21
284.0
 31
0.0
  0
LINE
  5
302
  8
DETAIL
  6
CONTINUOUS
 62
     5
 10
158.0579619999998
 20
281.27730799999989
 30
0.0
 11
152.99038100000001
 21
272.5
 31
0.0
  0
LINE
  5
303
  8
DETAIL
  6
CONTINUOUS
 62
     5
 10
145.0
 20
276.0
 30
0.0
 11
140.0
 21
276.0
 31
0.0
  0
LINE
  5
304
  8
DETAIL
  6
CONTINUOUS
 62
     5
 10
121.520304
 20
282.00777299999982
 30
0.0
 11
127.009619
 21
272.5
 31
0.0
  0
ARC
  5
305
  8
DETAIL
  6
CONTINUOUS
 62
     5
 10
140.0
 20
280.0
 30
0.0
 40
15.0
 50
210.0
 51
330.0
  0
ARC
  5
306
  8
DETAIL
  6
CONTINUOUS
 62
     5
 10
145.0
 20
280.0
 30
0.0
 40
4.0
 50
270.0
 51
90.0
  0
ARC
  5
307
  8
DETAIL
  6
CONTINUOUS
 62
     5
 10
140.0
 20
280.0
 30
0.0
 40
4.0
 50
90.0
 51
270.0
  0
ARC
  5
308
  8
DETAIL
  6
CONTINUOUS
 62
     5
 10
171.04834299999999
 20
273.777308
 30
0.0
 40
15.0
 50
89.180886999999998
 51
150.0
  0
ARC
  5
309
  8
DETAIL
  6
CONTINUOUS
 62
     5
 10
273.777308
 20
171.04834299999999
 30
0.0
 40
15.0
 50
300.0
 51
0.8191130000000001
  0
ARC
  5
30A
  8
DETAIL
  6
CONTINUOUS
 62
     5
 10
274.50777299999987
 20
108.529922
 30
0.0
 40
15.0
 50
0.5197149999999999
 51
60.0
  0
LINE
  5
30B
  8
DETAIL
  6
CONTINUOUS
 62
     5
 10
281.27730799999989
 20
158.0579619999998
 30
0.0
 11
272.5
 21
152.99038100000001
 31
0.0
  0
LINE
  5
30C
  8
DETAIL
  6
CONTINUOUS
 62
     5
 10
276.0
 20
140.0
 30
0.0
 11
276.0
 21
145.0
 31
0.0
  0
LINE
  5
30D
  8
DETAIL
  6
CONTINUOUS
 62
     5
 10
284.0
 20
145.0
 30
0.0
 11
284.0
 21
140.0
 31
0.0
  0
ARC
  5
30E
  8
DETAIL
  6
CONTINUOUS
 62
     5
 10
280.0
 20
145.0
 30
0.0
 40
4.0
 50
0.0
 51
180.0
  0
LINE
  5
30F
  8
DETAIL
  6
CONTINUOUS
 62
     5
 10
282.00777299999982
 20
121.520304
 30
0.0
 11
272.5
 21
127.009619
 31
0.0
  0
ARC
  5
310
  8
DETAIL
  6
CONTINUOUS
 62
     5
 10
280.0
 20
140.0
 30
0.0
 40
4.0
 50
180.0
 51
0.0
  0
ARC
  5
311
  8
DETAIL
  6
CONTINUOUS
 62
     5
 10
280.0
 20
140.0
 30
0.0
 40
15.0
 50
119.9999999999999
 51
239.99999999999989
  0
ARC
  5
312
  8
DETAIL
  6
CONTINUOUS
 62
     5
 10
267.758893
 20
231.52159999999989
 30
0.0
 40
20.0
 50
1.1092010000000001
 51
75.828676999999999
  0
CIRCLE
  5
313
  8
DETAIL
  6
CONTINUOUS
 62
     5
 10
255.0
 20
181.0
 30
0.0
 40
6.5
  0
LINE
  5
314
  8
DETAIL
  6
CONTINUOUS
 62
     5
 10
288.77577500000001
 20
171.26277899999991
 30
0.0
 11
287.75514599999991
 21
231.9087589999998
 31
0.0
  0
ARC
  5
315
  8
DETAIL
  6
CONTINUOUS
 62
     5
 10
-11690.0
 20
0.0
 30
0.0
 40
11980.0
 50
0.8191130000000001
 51
1.1092010000000001
  0
ARC
  5
316
  8
DETAIL
  6
CONTINUOUS
 62
     5
 10
267.01889699999992
 20
267.01889699999992
 30
0.0
 40
40.0
 50
1.2792920000000001
 51
88.720708000000016
  0
ARC
  5
317
  8
DETAIL
  6
CONTINUOUS
 62
     5
 10
267.01889699999992
 20
267.01889699999992
 30
0.0
 40
36.210000000000001
 50
1.2792920000000001
 51
88.720708000000016
  0
ARC
  5
318
  8
DETAIL
  6
CONTINUOUS
 62
     5
 10
267.01889699999992
 20
267.01889699999992
 30
0.0
 40
36.200000000000003
 50
1.2792920000000001
 51
88.720708000000016
  0
LINE
  5
319
  8
NOTE
  6
CONTINUOUS
 62
     4
 10
287.68685299999993
 20
319.25445599999989
 30
0.0
 11
280.0
 21
280.0
 31
0.0
  0
LINE
  5
31A
  8
NOTE
  6
CONTINUOUS
 62
     4
 10
280.0
 20
280.0
 30
0.0
 11
306.28423800000002
 21
310.151929
 31
0.0
  0
LINE
  5
31B
  8
NOTE
  6
CONTINUOUS
 62
     4
 10
300.0
 20
280.0
 30
0.0
 11
260.0
 21
280.0
 31
0.0
  0
LINE
  5
31C
  8
NOTE
  6
CONTINUOUS
 62
     4
 10
280.0
 20
260.0
 30
0.0
 11
280.0
 21
300.0
 31
0.0
  0
ARC
  5
31D
  8
DETAIL
  6
CONTINUOUS
 62
     5
 10
280.0
 20
280.0
 30
0.0
 40
30.0
 50
194.171323
 51
255.828677
  0
CIRCLE
  5
31E
  8
DETAIL
  6
CONTINUOUS
 62
     5
 10
280.0
 20
280.0
 30
0.0
 40
7.0
  0
ARC
  5
321
  8
DETAIL
  6
CONTINUOUS
 62
     5
 10
0.0
 20
0.0
 30
0.0
 40
225.0
 50
45.276158000000002
 51
114.217574
  0
CIRCLE
  5
322
  8
DETAIL
  6
CONTINUOUS
 62
     5
 10
0.0
 20
0.0
 30
0.0
 40
23.0
  0
CIRCLE
  5
323
  8
DETAIL
  6
CONTINUOUS
 62
     5
 10
0.0
 20
0.0
 30
0.0
 40
70.0
  0
ARC
  5
326
  8
DETAIL
  6
CONTINUOUS
 62
     5
 10
259.83111600000001
 20
-3.1170960000000001
 30
0.0
 40
296.14038099999982
 50
196.16887799999981
 51
225.839821
  0
ARC
  5
329
  8
DETAIL
  6
CONTINUOUS
 62
     5
 10
82.758331000000013
 20
-35.370255
 30
0.0
 40
20.0
 50
156.85851700000001
 51
247.6030989999999
  0
ARC
  5
32A
  8
DETAIL
  6
CONTINUOUS
 62
     5
 10
97.804107999999999
 20
142.78353899999999
 30
0.0
 40
197.947113
 50
263.42487699999992
 51
306.07099299999987
  0
ARC
  5
32B
  8
DETAIL
  6
CONTINUOUS
 62
     5
 10
0.0
 20
0.0
 30
0.0
 40
225.0
 50
285.27612699999992
 51
354.21754299999992
  0
ARC
  5
32E
  8
DETAIL
  6
CONTINUOUS
 62
     5
 10
57.699829000000001
 20
-211.26223799999991
 30
0.0
 40
6.0
 50
225.839821
 51
285.27612699999992
  0
ARC
  5
337
  8
DETAIL
  6
CONTINUOUS
 62
     5
 10
-127.2160639999998
 20
226.57888799999981
 30
0.0
 40
296.14038099999982
 50
316.16890899999999
 51
345.83985200000001
  0
ARC
  5
338
  8
DETAIL
  6
CONTINUOUS
 62
     5
 10
217.88565099999991
 20
-22.064426000000001
 30
0.0
 40
6.0
 50
354.21781600000008
 51
126.07087199999999
  0
ARC
  5
33B
  8
DETAIL
  6
CONTINUOUS
 62
     5
 10
77.695264294976482
 20
36.756035703905503
 30
0.0
 40
17.57957248273468
 50
208.33616728480709
 51
299.73723658179819
  0
ARC
  5
340
  8
DETAIL
  6
CONTINUOUS
 62
     5
 10
154.10855100000001
 20
155.60064699999981
 30
0.0
 40
6.0
 50
345.83985200000001
 51
45.276158000000002
  0
ARC
  5
346
  8
DETAIL
  6
CONTINUOUS
 62
     5
 10
0.0
 20
0.0
 30
0.0
 40
225.0
 50
165.27615099999991
 51
234.217567
  0
ARC
  5
348
  8
DETAIL
  6
CONTINUOUS
 62
     5
 10
74.752106000000026
 20
-156.09262100000001
 30
0.0
 40
197.947113
 50
143.42490100000001
 51
186.0710169999999
  0
ARC
  5
34E
  8
DETAIL
  6
CONTINUOUS
 62
     5
 10
-2.732150808405954
 20
-92.240765917807522
 30
0.0
 40
22.854324437418668
 50
88.033082738017015
 51
163.06460389132641
  0
ARC
  5
351
  8
DETAIL
  6
CONTINUOUS
 62
     5
 10
-72.010711999999998
 20
-53.985700999999999
 30
0.0
 40
20.0
 50
36.858522999999998
 51
127.6030809999998
  0
ARC
  5
354
  8
DETAIL
  6
CONTINUOUS
 62
     5
 10
-128.05117799999991
 20
-177.66229199999981
 30
0.0
 40
6.0
 50
234.2178399999998
 51
6.0708719999999996
  0
ARC
  5
358
  8
DETAIL
  6
CONTINUOUS
 62
     5
 10
-132.61505099999991
 20
-223.461792
 30
0.0
 40
296.14038099999982
 50
76.168885000000003
 51
105.8398279999998
  0
ARC
  5
35B
  8
DETAIL
  6
CONTINUOUS
 62
     5
 10
-172.5562129999999
 20
13.309082
 30
0.0
 40
197.947113
 50
23.42490699999999
 51
66.071023999999994
  0
LINE
  5
35F
  8
DETAIL
  6
CONTINUOUS
 62
     5
 10
-11.0
 20
-2.5
 30
0.0
 11
-11.0
 21
2.5
 31
0.0
  0
ARC
  5
360
  8
DETAIL
  6
CONTINUOUS
 62
     5
 10
0.0
 20
0.0
 30
0.0
 40
8.5
 50
359.99998099999982
 51
162.89533799999981
  0
LINE
  5
361
  8
DETAIL
  6
CONTINUOUS
 62
     5
 10
-8.1240229999999976
 20
2.5
 30
0.0
 11
-11.0
 21
2.5
 31
0.0
  0
LINE
  5
362
  8
DETAIL
  6
CONTINUOUS
 62
     5
 10
-8.1240229999999976
 20
-2.5
 30
0.0
 11
-11.0
 21
-2.5
 31
0.0
  0
CIRCLE
  5
363
  8
DETAIL
  6
CONTINUOUS
 62
     5
 10
0.0
 20
0.0
 30
0.0
 40
14.0
  0
ARC
  5
364
  8
DETAIL
  6
CONTINUOUS
 62
     5
 10
0.0
 20
0.0
 30
0.0
 40
8.5
 50
197.1046689999998
 51
359.99981700000001
  0
ARC
  5
366
  8
DETAIL
  6
CONTINUOUS
 62
     5
 10
-10.747619999999991
 20
89.355956999999961
 30
0.0
 40
20.0
 50
276.85854699999999
 51
7.603074999999996
  0
ARC
  5
367
  8
DETAIL
  6
CONTINUOUS
 62
     5
 10
-70.687411826889345
 20
50.442572943035309
 30
0.0
 40
16.276980523598908
 50
316.70227208717171
 51
56.989226811638282
  0
ARC
  5
36E
  8
DETAIL
  6
CONTINUOUS
 62
     5
 10
-89.834472999999988
 20
199.7267149999999
 30
0.0
 40
6.0
 50
114.21786400000001
 51
246.070896
  0
ARC
  5
371
  8
DETAIL
  6
CONTINUOUS
 62
     5
 10
-211.80837799999981
 20
55.661591000000001
 30
0.0
 40
6.0
 50
105.8398279999998
 51
165.276127
  0
LINE
  5
372
  8
DETAIL
  6
CONTINUOUS
 62
     5
 10
-87.200000000000003
 20
-42.274453999999992
 30
0.0
 11
-89.500004999999987
 21
-88.772125000000003
 31
0.0
  0
LINE
  5
373
  8
DETAIL
  6
CONTINUOUS
 62
     5
 10
-87.200000000000003
 20
-42.274453999999992
 30
0.0
 11
-87.200000000000003
 21
-74.895741999999984
 31
0.0
  0
LINE
  5
374
  8
DETAIL
  6
CONTINUOUS
 62
     5
 10
-87.200000000000003
 20
74.895741999999984
 30
0.0
 11
-87.200000000000003
 21
69.175522999999998
 31
0.0
  0
LINE
  5
375
  8
SIZE
  6
CONTINUOUS
 62
    30
 10
-589.31566499999985
 20
-222.26176599999999
 30
0.0
 11
-214.73521600000001
 21
-80.987882999999982
 31
0.0
  0
LINE
  5
376
  8
SIZE
  6
CONTINUOUS
 62
    30
 10
214.73521600000001
 20
80.987882999999982
 30
0.0
 11
216.6065459999999
 21
81.69365999999998
 31
0.0
  0
TEXT
  5
377
  8
SIZE
  6
CONTINUOUS
 62
    30
 10
-588.09151527507004
 20
-195.08109826541801
 30
0.0
 40
64.0
  1
φ455
 50
20.66407199999998
 41
0.9
 72
     1
 11
-481.07276899999999
 21
-154.7187549999999
 31
0.0
  0
LINE
  5
378
  8
SIZE
  6
CONTINUOUS
 62
    30
 10
212.86388500000001
 20
80.282105999999985
 30
0.0
 11
-212.86388500000001
 21
-80.282105999999985
 31
0.0
  0
CIRCLE
  5
379
  8
SIZE
  6
CONTINUOUS
 62
    30
 10
212.86388500000001
 20
80.282105999999985
 30
0.0
 40
6.0
  0
CIRCLE
  5
37A
  8
SIZE
  6
CONTINUOUS
 62
    30
 10
-212.86388500000001
 20
-80.282105999999985
 30
0.0
 40
6.0
  0
ARC
  5
37B
  8
DETAIL
  6
CONTINUOUS
 62
     5
 10
0.0
 20
0.0
 30
0.0
 40
225.0
 50
145.43983199999991
 51
165.27615099999991
  0
LINE
  5
37C
  8
SIZE
  6
CONTINUOUS
 62
    30
 10
-579.64306099999976
 20
234.05868699999999
 30
0.0
 11
-210.4874189999999
 21
84.994390999999979
 31
0.0
  0
LINE
  5
37D
  8
SIZE
  6
CONTINUOUS
 62
    30
 10
210.4874189999999
 20
-84.994390999999979
 30
0.0
 11
212.3419339999999
 21
-85.74324
 31
0.0
  0
TEXT
  5
37E
  8
SIZE
  6
CONTINUOUS
 62
    30
 10
-560.32634335573687
 20
253.2199255072216
 30
0.0
 40
64.0
  1
φ450
 50
338.01121699999982
 41
0.9
 72
     1
 11
-454.26931699999989
 21
210.39425600000001
 31
0.0
  0
LINE
  5
37F
  8
SIZE
  6
CONTINUOUS
 62
    30
 10
208.6329039999998
 20
-84.245542000000015
 30
0.0
 11
-208.6329039999998
 21
84.245542000000015
 31
0.0
  0
CIRCLE
  5
380
  8
SIZE
  6
CONTINUOUS
 62
    30
 10
208.6329039999998
 20
-84.245542000000015
 30
0.0
 40
6.0
  0
CIRCLE
  5
381
  8
SIZE
  6
CONTINUOUS
 62
    30
 10
-208.6329039999998
 20
84.245542000000015
 30
0.0
 40
6.0
  0
CIRCLE
  5
382
  8
DETAIL
  6
CONTINUOUS
 62
     5
 10
0.0
 20
0.0
 30
0.0
 40
227.49999999999989
  0
ARC
  5
386
  8
OUTLINE
  6
CONTINUOUS
 62
     3
 10
-11690.0
 20
0.0
 30
0.0
 40
12000.0
 50
358.720708
 51
1.2792920000000001
  0
ARC
  5
387
  8
OUTLINE
  6
CONTINUOUS
 62
     3
 10
-11690.0
 20
0.0
 30
0.0
 40
11996.209999999999
 50
358.720708
 51
1.2792920000000001
  0
ARC
  5
388
  8
OUTLINE
  6
CONTINUOUS
 62
     3
 10
-11690.0
 20
0.0
 30
0.0
 40
11996.200000000001
 50
358.720708
 51
1.2792920000000001
  0
ARC
  5
389
  8
OUTLINE
  6
CONTINUOUS
 62
     3
 10
11690.0
 20
0.0
 30
0.0
 40
12000.0
 50
178.7207079999998
 51
181.27929199999991
  0
ARC
  5
38A
  8
OUTLINE
  6
CONTINUOUS
 62
     3
 10
11690.0
 20
0.0
 30
0.0
 40
11996.209999999999
 50
178.7207079999998
 51
181.27929199999991
  0
ARC
  5
38B
  8
OUTLINE
  6
CONTINUOUS
 62
     3
 10
11690.0
 20
0.0
 30
0.0
 40
11996.200000000001
 50
178.7207079999998
 51
181.27929199999991
  0
POINT
  5
38C
  8
ARRANGE
  6
CONTINUOUS
 62
     1
 10
0.0
 20
0.0
 30
0.0
  0
CIRCLE
  5
38D
  8
ARRANGE
  6
CONTINUOUS
 62
     1
 10
0.0
 20
0.0
 30
0.0
 40
40.0
  0
ARC
  5
38E
  8
OUTLINE
  6
CONTINUOUS
 62
     3
 10
0.0
 20
11690.0
 30
0.0
 40
11996.209999999999
 50
271.08543800000001
 51
271.279292
  0
ARC
  5
38F
  8
OUTLINE
  6
CONTINUOUS
 62
     3
 10
0.0
 20
11689.999999
 30
0.0
 40
11999.999998999991
 50
271.08509500000002
 51
271.279292
  0
ARC
  5
390
  8
OUTLINE
  6
CONTINUOUS
 62
     3
 10
0.0
 20
11690.0
 30
0.0
 40
12000.0
 50
268.72070799999972
 51
271.08509500000002
  0
ARC
  5
391
  8
OUTLINE
  6
CONTINUOUS
 62
     3
 10
0.0
 20
11690.0
 30
0.0
 40
11996.209999999999
 50
268.72070799999972
 51
271.08543800000001
  0
ARC
  5
392
  8
OUTLINE
  6
CONTINUOUS
 62
     3
 10
-267.01889699999992
 20
-267.01889699999992
 30
0.0
 40
40.0
 50
181.27929199999991
 51
268.72070799999972
  0
ARC
  5
393
  8
OUTLINE
  6
CONTINUOUS
 62
     3
 10
-267.01889699999992
 20
-267.01889699999992
 30
0.0
 40
36.210000000000001
 50
181.27929199999991
 51
268.72070799999972
  0
ARC
  5
394
  8
OUTLINE
  6
CONTINUOUS
 62
     3
 10
-267.01889699999992
 20
-267.01889699999992
 30
0.0
 40
36.200000000000003
 50
181.27929199999991
 51
268.72070799999972
  0
ARC
  5
395
  8
OUTLINE
  6
CONTINUOUS
 62
     3
 10
267.01889699999992
 20
-267.01889699999992
 30
0.0
 40
40.0
 50
271.279292
 51
358.720708
  0
ARC
  5
396
  8
OUTLINE
  6
CONTINUOUS
 62
     3
 10
267.01889699999992
 20
-267.01889699999992
 30
0.0
 40
36.200000000000003
 50
271.279292
 51
358.720708
  0
ARC
  5
397
  8
OUTLINE
  6
CONTINUOUS
 62
     3
 10
267.01889699999992
 20
-267.01889699999992
 30
0.0
 40
36.210000000000001
 50
271.279292
 51
358.720708
  0
ARC
  5
398
  8
OUTLINE
  6
CONTINUOUS
 62
     3
 10
0.0
 20
-11690.0
 30
0.0
 40
12000.0
 50
88.720708000000016
 51
91.279292000000027
  0
ARC
  5
399
  8
OUTLINE
  6
CONTINUOUS
 62
     3
 10
0.0
 20
-11690.0
 30
0.0
 40
11996.209999999999
 50
88.720708000000016
 51
91.279292000000027
  0
ARC
  5
39A
  8
OUTLINE
  6
CONTINUOUS
 62
     3
 10
0.0
 20
-11690.0
 30
0.0
 40
11996.200000000001
 50
88.720708000000016
 51
91.279292000000027
  0
ARC
  5
39B
  8
OUTLINE
  6
CONTINUOUS
 62
     3
 10
-267.01889699999992
 20
267.01889699999992
 30
0.0
 40
40.0
 50
91.279292000000027
 51
178.7207079999998
  0
ARC
  5
39C
  8
OUTLINE
  6
CONTINUOUS
 62
     3
 10
-267.01889699999992
 20
267.01889699999992
 30
0.0
 40
36.210000000000001
 50
91.279292000000027
 51
178.7207079999998
  0
ARC
  5
39D
  8
OUTLINE
  6
CONTINUOUS
 62
     3
 10
-267.01889699999992
 20
267.01889699999992
 30
0.0
 40
36.200000000000003
 50
91.279292000000027
 51
178.7207079999998
  0
ARC
  5
39E
  8
OUTLINE
  6
CONTINUOUS
 62
     3
 10
267.01889699999992
 20
267.01889699999992
 30
0.0
 40
40.0
 50
1.2792920000000001
 51
88.720708000000016
  0
ARC
  5
39F
  8
OUTLINE
  6
CONTINUOUS
 62
     3
 10
267.01889699999992
 20
267.01889699999992
 30
0.0
 40
36.210000000000001
 50
1.2792920000000001
 51
88.720708000000016
  0
ARC
  5
3A0
  8
OUTLINE
  6
CONTINUOUS
 62
     3
 10
267.01889699999992
 20
267.01889699999992
 30
0.0
 40
36.200000000000003
 50
1.2792920000000001
 51
88.720708000000016
  0
TEXT
  5
4BF
  8
ETC
  6
CONTINUOUS
 62
    61
 10
423.41088911082483
 20
757.83950203114784
 30
0.0
 40
50.0
  1
EF-45ETB3_3
 41
0.9
  0
TEXT
  5
4C0
  8
ETC
  6
CONTINUOUS
 62
    61
 10
529.44999960329756
 20
633.91027203114766
 30
0.0
 40
40.0
  1
EF-45ETB2
 41
0.9
  0
TEXT
  5
4C1
  8
ETC
  6
CONTINUOUS
 62
    61
 10
423.41088911082483
 20
696.6535890311477
 30
0.0
 40
50.0
  1
産業扇
 41
0.9
  0
TEXT
  5
4C2
  8
ETC
  6
CONTINUOUS
 62
    61
 10
529.44999960329756
 20
573.81077486131619
 30
0.0
 40
40.0
  1
EF-45ETB3
 41
0.9
  0
TEXT
  5
4C3
  8
ETC
  6
CONTINUOUS
 62
    61
 10
529.44999960329756
 20
512.81518099367236
 30
0.0
 40
40.0
  1
EG-45DTB3
 41
0.9
  0
ENDSEC
  0
EOF
