  0
SECTION
  2
HEADER
  9
$ACADVER
  1
AC1009
  9
$DWGCODEPAGE
  3
ansi_932
  9
$INSBASE
 10
0.0
 20
0.0
 30
0.0
  9
$EXTMIN
 10
-771.7422577680547
 20
-472.0292419999998
 30
-100.110011
  9
$EXTMAX
 10
829.9174443837101
 20
519.1145118775243
 30
50.0
  9
$LIMMIN
 10
-2970.0
 20
-2100.0
  9
$LIMMAX
 10
2970.0
 20
2100.0
  9
$ORTHOMODE
 70
     1
  9
$REGENMODE
 70
     1
  9
$FILLMODE
 70
     1
  9
$QTEXTMODE
 70
     0
  9
$MIRRTEXT
 70
     0
  9
$DRAGMODE
 70
     2
  9
$LTSCALE
 40
20.0
  9
$OSMODE
 70
    37
  9
$ATTMODE
 70
     1
  9
$TEXTSIZE
 40
64.0
  9
$TRACEWID
 40
0.05
  9
$TEXTSTYLE
  7
STANDARD
  9
$CLAYER
  8
OUTLINE
  9
$CELTYPE
  6
CONTINUOUS
  9
$CECOLOR
 62
     3
  9
$DIMSCALE
 40
1.0
  9
$DIMASZ
 40
2.0
  9
$DIMEXO
 40
20.0
  9
$DIMDLI
 40
200.0
  9
$DIMRND
 40
0.0
  9
$DIMDLE
 40
0.0
  9
$DIMEXE
 40
30.0
  9
$DIMTP
 40
0.1
  9
$DIMTM
 40
0.1
  9
$DIMTXT
 40
64.0
  9
$DIMCEN
 40
0.09
  9
$DIMTSZ
 40
0.0
  9
$DIMTOL
 70
     0
  9
$DIMLIM
 70
     0
  9
$DIMTIH
 70
     0
  9
$DIMTOH
 70
     0
  9
$DIMSE1
 70
     0
  9
$DIMSE2
 70
     0
  9
$DIMTAD
 70
     1
  9
$DIMZIN
 70
     8
  9
$DIMBLK
  1
DOT1
  9
$DIMASO
 70
     1
  9
$DIMSHO
 70
     0
  9
$DIMPOST
  1
<>
  9
$DIMAPOST
  1
"
  9
$DIMALT
 70
     0
  9
$DIMALTD
 70
     2
  9
$DIMALTF
 40
0.03937
  9
$DIMLFAC
 40
1.0
  9
$DIMTOFL
 70
     1
  9
$DIMTVP
 40
0.0
  9
$DIMTIX
 70
     0
  9
$DIMSOXD
 70
     0
  9
$DIMSAH
 70
     1
  9
$DIMBLK1
  1

  9
$DIMBLK2
  1

  9
$DIMSTYLE
  2
GEN-ISO
  9
$DIMCLRD
 70
     7
  9
$DIMCLRE
 70
     7
  9
$DIMCLRT
 70
     7
  9
$DIMTFAC
 40
1.0
  9
$DIMGAP
 40
25.0
  9
$LUNITS
 70
     2
  9
$LUPREC
 70
     4
  9
$SKETCHINC
 40
0.1
  9
$FILLETRAD
 40
5.0
  9
$AUNITS
 70
     1
  9
$AUPREC
 70
     3
  9
$MENU
  1
ACAD
  9
$ELEVATION
 40
0.0
  9
$PELEVATION
 40
0.0
  9
$THICKNESS
 40
0.0
  9
$LIMCHECK
 70
     0
  9
$CHAMFERA
 40
0.0
  9
$CHAMFERB
 40
0.0
  9
$SKPOLY
 70
     0
  9
$TDCREATE
 40
2451372.547453704
  9
$TDUPDATE
 40
2457485.553477882
  9
$TDINDWG
 40
0.9196032755
  9
$TDUSRTIMER
 40
0.9196031019
  9
$USRTIMER
 70
     1
  9
$ANGBASE
 50
0.0
  9
$ANGDIR
 70
     0
  9
$PDMODE
 70
     3
  9
$PDSIZE
 40
-2.0
  9
$PLINEWID
 40
0.0
  9
$COORDS
 70
     1
  9
$SPLFRAME
 70
     0
  9
$SPLINETYPE
 70
     6
  9
$SPLINESEGS
 70
     8
  9
$ATTDIA
 70
     0
  9
$ATTREQ
 70
     1
  9
$HANDLING
 70
     1
  9
$HANDSEED
  5
16CB
  9
$SURFTAB1
 70
     6
  9
$SURFTAB2
 70
     6
  9
$SURFTYPE
 70
     6
  9
$SURFU
 70
     6
  9
$SURFV
 70
     6
  9
$UCSNAME
  2
W_UCS
  9
$UCSORG
 10
-0.1211497680544765
 20
0.0
 30
0.0
  9
$UCSXDIR
 10
1.0
 20
0.0
 30
0.0
  9
$UCSYDIR
 10
0.0
 20
1.0
 30
0.0
  9
$PUCSNAME
  2

  9
$PUCSORG
 10
0.0
 20
0.0
 30
0.0
  9
$PUCSXDIR
 10
1.0
 20
0.0
 30
0.0
  9
$PUCSYDIR
 10
0.0
 20
1.0
 30
0.0
  9
$USERI1
 70
     0
  9
$USERI2
 70
     0
  9
$USERI3
 70
     0
  9
$USERI4
 70
     0
  9
$USERI5
 70
     0
  9
$USERR1
 40
20.0
  9
$USERR2
 40
0.0
  9
$USERR3
 40
0.0
  9
$USERR4
 40
0.0
  9
$USERR5
 40
0.0
  9
$WORLDVIEW
 70
     1
  9
$SHADEDGE
 70
     3
  9
$SHADEDIF
 70
    70
  9
$TILEMODE
 70
     1
  9
$MAXACTVP
 70
    48
  9
$PLIMCHECK
 70
     0
  9
$PEXTMIN
 10
-1.000000000000000E+20
 20
-1.000000000000000E+20
 30
-1.000000000000000E+20
  9
$PEXTMAX
 10
1.000000000000000E+20
 20
1.000000000000000E+20
 30
1.000000000000000E+20
  9
$PLIMMIN
 10
0.0
 20
0.0
  9
$PLIMMAX
 10
12.0
 20
9.0
  9
$UNITMODE
 70
     0
  9
$VISRETAIN
 70
     0
  9
$PLINEGEN
 70
     0
  9
$PSLTSCALE
 70
     0
  0
ENDSEC
  0
SECTION
  2
TABLES
  0
TABLE
  2
VPORT
 70
     1
  0
VPORT
  2
*ACTIVE
 70
     0
 10
0.0
 20
0.0
 11
1.0
 21
1.0
 12
29.54806816470398
 22
23.54701809052778
 13
0.0
 23
0.0
 14
50.0
 24
50.0
 15
400.0
 25
400.0
 16
0.0
 26
0.0
 36
1.0
 17
0.0
 27
0.0
 37
0.0
 40
1298.200230969853
 41
1.493654822335025
 42
50.0
 43
0.0
 44
0.0
 50
0.0
 51
0.0
 71
     0
 72
   500
 73
     1
 74
     0
 75
     0
 76
     0
 77
     0
 78
     0
  0
ENDTAB
  0
TABLE
  2
LTYPE
 70
     3
  0
LTYPE
  2
CONTINUOUS
 70
     0
  3
実線
 72
    65
 73
     0
 40
0.0
  0
LTYPE
  2
DASHDOT
 70
     0
  3
____ _ ____ _ ____ _ ____ _ ____ _ ____ _ ____
 72
    65
 73
     4
 40
5.5
 49
4.0
 49
-0.6
 49
0.3
 49
-0.6
  0
LTYPE
  2
DASHED
 70
     0
  3
-- -- -- -- -- -- -- -- -- -- -- -- -- -- --
 72
    65
 73
     2
 40
0.75
 49
0.5
 49
-0.25
  0
ENDTAB
  0
TABLE
  2
LAYER
 70
    12
  0
LAYER
  2
0
 70
     0
 62
     7
  6
CONTINUOUS
  0
LAYER
  2
OUTLINE
 70
     0
 62
     3
  6
CONTINUOUS
  0
LAYER
  2
ETC
 70
     0
 62
    61
  6
CONTINUOUS
  0
LAYER
  2
DETAIL
 70
     0
 62
     5
  6
CONTINUOUS
  0
LAYER
  2
BASIS
 70
     0
 62
     6
  6
DASHDOT
  0
LAYER
  2
NOTE
 70
     0
 62
     4
  6
CONTINUOUS
  0
LAYER
  2
DEFPOINTS
 70
     0
 62
     7
  6
CONTINUOUS
  0
LAYER
  2
SIZE
 70
     0
 62
    30
  6
CONTINUOUS
  0
LAYER
  2
ARRANGE
 70
     0
 62
     1
  6
CONTINUOUS
  0
LAYER
  2
FIX
 70
     0
 62
    11
  6
CONTINUOUS
  0
LAYER
  2
SERVICESPACE
 70
     0
 62
     2
  6
DASHDOT
  0
LAYER
  2
SYMBOLLINE
 70
     0
 62
    15
  6
CONTINUOUS
  0
ENDTAB
  0
TABLE
  2
STYLE
 70
     2
  0
STYLE
  2
STANDARD
 70
     0
 40
0.0
 41
0.9
 50
0.0
 71
     0
 42
64.0
  3
SIMPLEX
  4
BIGFONT
  0
STYLE
  2
ANNOTATIVE
 70
     0
 40
0.0
 41
1.0
 50
0.0
 71
     0
 42
0.2
  3
txt
  4

  0
STYLE
  2

 70
     1
 40
0.0
 41
1.0
 50
0.0
 71
     0
 42
64.0
  3
ltypeshp.shx
  4

  0
ENDTAB
  0
TABLE
  2
VIEW
 70
     1
  0
VIEW
  2
ALL
 70
     0
 40
4282.619807999997
 10
0.0
 20
41.30990399999999
 41
5940.0
 11
0.0
 21
0.0
 31
1.0
 12
0.0
 22
0.0
 32
0.0
 42
50.0
 43
0.0
 44
0.0
 50
0.0
 71
     0
  0
ENDTAB
  0
TABLE
  2
UCS
 70
     1
  0
UCS
  2
W_UCS
 70
     0
 10
0.0
 20
0.0
 30
0.0
 11
1.0
 21
0.0
 31
0.0
 12
0.0
 22
1.0
 32
0.0
  0
ENDTAB
  0
TABLE
  2
APPID
 70
    14
  0
APPID
  2
ACAD
 70
     0
  0
APPID
  2
ACADANNOTATIVE
 70
     0
  0
APPID
  2
ACAD_MLEADERVER
 70
     0
  0
APPID
  2
CONTENTBLOCKDESCRIPTION
 70
     0
  0
APPID
  2
CONTENTBLOCKICON
 70
     0
  0
APPID
  2
GENIUS_GENCFG_13
 70
     0
  0
APPID
  2
GENIUS_GENCFG0_13
 70
     0
  0
APPID
  2
GENIUS_GENCFG1_13
 70
     0
  0
APPID
  2
GENIUS_GENCFG2_13
 70
     0
  0
APPID
  2
GENIUS_GENCFG3_13
 70
     0
  0
APPID
  2
GENIUS_GENCFG4_13
 70
     0
  0
APPID
  2
GENIUS_GEVCFG0_13
 70
     0
  0
APPID
  2
GENIUS_GENOENT_13
 70
     0
  0
APPID
  2
ACAD_EXEMPT_FROM_CAD_STAND
 70
     0
  0
ENDTAB
  0
TABLE
  2
DIMSTYLE
 70
     3
  0
DIMSTYLE
  2
STANDARD
 70
     0
  3

  4

  5

  6

  7

 40
1.0
 41
0.18
 42
0.0625
 43
0.38
 44
0.18
 45
0.0
 46
0.0
 47
0.0
 48
0.0
140
0.18
141
0.09
142
0.0
143
25.4
144
1.0
145
0.0
146
1.0
147
0.09
 71
     0
 72
     0
 73
     1
 74
     1
 75
     0
 76
     0
 77
     0
 78
     0
170
     0
171
     2
172
     0
173
     0
174
     0
175
     0
176
     0
177
     0
178
     0
  0
DIMSTYLE
  2
ANNOTATIVE
 70
     0
  3

  4

  5

  6

  7

 40
1.0
 41
0.18
 42
0.0625
 43
0.38
 44
0.18
 45
0.0
 46
0.0
 47
0.0
 48
0.0
140
0.18
141
0.09
142
0.0
143
25.4
144
1.0
145
0.0
146
1.0
147
0.09
 71
     0
 72
     0
 73
     1
 74
     1
 75
     0
 76
     0
 77
     0
 78
     0
170
     0
171
     2
172
     0
173
     0
174
     0
175
     0
176
     0
177
     0
178
     0
  0
DIMSTYLE
  2
GEN-ISO
 70
     0
  3

  4
"
  5

  6

  7

 40
1.0
 41
2.0
 42
20.0
 43
200.0
 44
30.0
 45
0.0
 46
0.0
 47
0.1
 48
0.1
140
64.0
141
0.09
142
0.0
143
0.03937
144
1.0
145
0.0
146
1.0
147
25.0
 71
     0
 72
     0
 73
     0
 74
     0
 75
     0
 76
     0
 77
     1
 78
     8
170
     0
171
     2
172
     1
173
     1
174
     0
175
     0
176
     7
177
     7
178
     7
  0
ENDTAB
  0
ENDSEC
  0
SECTION
  2
BLOCKS
  0
BLOCK
  8
0
  2
$MODEL_SPACE
 70
     0
 10
0.0
 20
0.0
 30
0.0
  3
$MODEL_SPACE
  1

  0
ENDBLK
  5
1383
  8
0
  0
BLOCK
 67
     1
  8
0
  2
$PAPER_SPACE
 70
     0
 10
0.0
 20
0.0
 30
0.0
  3
$PAPER_SPACE
  1

  0
ENDBLK
  5
137F
 67
     1
  8
0
  0
BLOCK
  8
OUTLINE
  2
DOT1
 70
     0
 10
0.0
 20
0.0
 30
0.0
  3
DOT1
  1

  0
CIRCLE
  5
13B2
  8
SIZE
  6
CONTINUOUS
 62
     7
 10
0.0
 20
0.0
 30
0.0
 40
3.0
  0
ENDBLK
  5
13B3
  8
OUTLINE
  0
ENDSEC
  0
SECTION
  2
ENTITIES
  0
ARC
  5
13B4
  8
DETAIL
  6
CONTINUOUS
 62
     5
 39
50.0
 10
268.1217319999998
 20
-45.499979
 30
0.0
 40
2.5
 50
270.0
 51
0.0
  0
LINE
  5
13B5
  8
DETAIL
  6
CONTINUOUS
 62
     5
 39
50.0
 10
268.1217319999998
 20
-47.999979
 30
0.0
 11
248.9951219999999
 21
-47.999979
 31
0.0
  0
ARC
  5
13B6
  8
DETAIL
  6
CONTINUOUS
 62
     5
 39
50.0
 10
268.1217319999998
 20
-42.501668
 30
0.0
 40
2.5
 50
0.0
 51
90.0
  0
LINE
  5
13B7
  8
DETAIL
  6
CONTINUOUS
 62
     5
 39
50.0
 10
248.4951219999999
 20
-39.999979
 30
0.0
 11
268.1217319999998
 21
-39.999979
 31
0.0
  0
ARC
  5
13B8
  8
DETAIL
  6
CONTINUOUS
 62
     5
 39
50.0
 10
248.9951219999999
 20
-52.99997900000001
 30
0.0
 40
5.0
 50
90.0
 51
180.0
  0
ARC
  5
13B9
  8
DETAIL
  6
CONTINUOUS
 62
     5
 39
50.0
 10
248.4951219999999
 20
-52.499979
 30
0.0
 40
12.5
 50
90.0
 51
180.0
  0
LINE
  5
13BA
  8
DETAIL
  6
CONTINUOUS
 62
     5
 39
50.0
 10
252.4662799999999
 20
-56.84200699999998
 30
0.0
 11
223.3488529999999
 21
-56.84166499999999
 31
0.0
  0
LINE
  5
13BB
  8
DETAIL
  6
CONTINUOUS
 62
     5
 39
50.0
 10
223.3488529999999
 20
-64.842159
 30
0.0
 11
252.465303
 21
-64.86853
 31
0.0
  0
LINE
  5
13BC
  8
DETAIL
  6
CONTINUOUS
 62
     5
 39
50.0
 10
236.5610819999998
 20
-64.855347
 30
0.0
 11
236.5602079999999
 21
-73.33842
 31
0.0
  0
LINE
  5
13BD
  8
DETAIL
  6
CONTINUOUS
 62
     5
 10
236.5610819999998
 20
-64.855347
 30
0.0
 11
236.5610819999998
 21
-158.686952
 31
0.0
  0
LINE
  5
13BE
  8
DETAIL
  6
CONTINUOUS
 62
     5
 10
244.561085
 20
-64.862974
 30
0.0
 11
244.561085
 21
-158.686952
 31
0.0
  0
LINE
  5
13BF
  8
DETAIL
  6
CONTINUOUS
 62
     5
 10
235.9951219999999
 20
-52.499979
 30
0.0
 11
235.9951219999999
 21
-56.84171
 31
0.0
  0
LINE
  5
13C0
  8
DETAIL
  6
CONTINUOUS
 62
     5
 10
243.9951219999999
 20
-52.99997900000001
 30
0.0
 11
243.9951219999999
 21
-56.84171
 31
0.0
  0
ARC
  5
13C1
  8
DETAIL
  6
CONTINUOUS
 62
     5
 10
150.145553
 20
-154.690505
 30
0.0
 40
94.515668
 50
272.140974
 51
357.362338
  0
ARC
  5
13C2
  8
DETAIL
  6
CONTINUOUS
 62
     5
 10
149.3128259999996
 20
-153.966257
 30
0.0
 40
87.37587299999998
 50
273.8087759999999
 51
356.9029469999999
  0
LINE
  5
13C3
  8
DETAIL
  6
CONTINUOUS
 62
     5
 39
50.0
 10
136.2699549759293
 20
-249.13951
 30
0.0
 11
145.920702
 21
-249.13951
 31
0.0
  0
LINE
  5
13C4
  8
DETAIL
  6
CONTINUOUS
 62
     5
 39
50.0
 10
136.2699549759293
 20
-241.13951
 30
0.0
 11
145.920702
 21
-241.13951
 31
0.0
  0
LINE
  5
13C5
  8
DETAIL
  6
CONTINUOUS
 62
     5
 10
145.9313339999999
 20
-229.072105
 30
0.0
 11
145.9178129999999
 21
-261.215166
 31
0.0
  0
LINE
  5
13C6
  8
DETAIL
  6
CONTINUOUS
 62
     5
 10
153.855141
 20
-229.393922
 30
0.0
 11
153.847451
 21
-261.533471
 31
0.0
  0
LINE
  5
13C7
  8
DETAIL
  6
CONTINUOUS
 62
     5
 10
153.8514639999999
 20
-241.4690579999999
 30
0.0
 11
153.8511279999999
 21
-249.458335
 31
0.0
  0
LINE
  5
13C8
  8
DETAIL
  6
CONTINUOUS
 62
     5
 10
270.6217319999997
 20
-42.501668
 30
0.0
 11
270.6217319999997
 21
-45.499979
 31
0.0
  0
LINE
  5
13C9
  8
SIZE
  6
CONTINUOUS
 62
    30
 10
-81.35576899999998
 20
-291.374775
 30
0.0
 11
-81.35576899999998
 21
-472.0292419999998
 31
0.0
  0
LINE
  5
13CA
  8
SIZE
  6
CONTINUOUS
 62
    30
 10
81.63988999999995
 20
-290.0103619999999
 30
0.0
 11
81.63988999999995
 21
-472.0292419999998
 31
0.0
  0
LINE
  5
13CB
  8
SIZE
  6
CONTINUOUS
 62
    30
 10
-79.35576899999998
 20
-442.0292419999998
 30
0.0
 11
79.63988999999995
 21
-442.0292419999998
 31
0.0
  0
LINE
  5
13CC
  8
SIZE
  6
CONTINUOUS
 62
    30
 10
81.63988999999995
 20
-442.0292419999998
 30
0.0
 11
322.897033
 21
-442.0292419999998
 31
0.0
  0
CIRCLE
  5
13CD
  8
SIZE
  6
CONTINUOUS
 62
    30
 10
-81.35576899999998
 20
-442.0292419999998
 30
0.0
 40
6.0
  0
CIRCLE
  5
13CE
  8
SIZE
  6
CONTINUOUS
 62
    30
 10
81.63988999999995
 20
-442.0292419999998
 30
0.0
 40
6.0
  0
TEXT
  5
13CF
  8
SIZE
  6
CONTINUOUS
 62
    30
 10
103.332461
 20
-417.0292419999998
 30
0.0
 40
64.0
  1
φ163
 41
0.9
 72
     1
 11
203.268461
 21
-417.0292419999998
 31
0.0
  0
LINE
  5
13D0
  8
DETAIL
  6
CONTINUOUS
 62
     5
 10
-223.3488529999999
 20
-88.97399699999998
 30
0.0
 11
223.3488529999999
 21
-88.97399699999998
 31
0.0
  0
LINE
  5
13D1
  8
DETAIL
  6
CONTINUOUS
 62
     5
 10
69.29619100000001
 20
-297.7042819999999
 30
0.0
 11
0.0
 21
-296.985644
 31
0.0
  0
LINE
  5
13D2
  8
DETAIL
  6
CONTINUOUS
 62
     5
 10
69.29374700000001
 20
-129.0500659999999
 30
0.0
 11
-0.002904
 21
-129.274299
 31
0.0
  0
LINE
  5
13D3
  8
DETAIL
  6
CONTINUOUS
 62
     5
 10
-8.549094999999998
 20
-126.748662
 30
0.0
 11
26.10855099999999
 21
-126.748662
 31
0.0
  0
LINE
  5
13D4
  8
DETAIL
  6
CONTINUOUS
 62
     5
 10
15.05306299999998
 20
-112.185603
 30
0.0
 11
-0.012139
 21
-112.185603
 31
0.0
  0
LINE
  5
13D5
  8
DETAIL
  6
CONTINUOUS
 62
     5
 10
-0.012139
 20
-107.666084
 30
0.0
 11
10.031281
 21
-107.666084
 31
0.0
  0
LINE
  5
13D6
  8
SIZE
  6
CONTINUOUS
 62
    30
 10
309.8834979999999
 20
18.64997299999998
 30
0.0
 11
309.8834979999999
 21
218.275572
 31
0.0
  0
LINE
  5
13D7
  8
SIZE
  6
CONTINUOUS
 62
    30
 10
-310.116502
 20
17.620429
 30
0.0
 11
-310.116502
 21
218.275572
 31
0.0
  0
LINE
  5
13D8
  8
SIZE
  6
CONTINUOUS
 62
    30
 10
307.8834979999999
 20
188.275572
 30
0.0
 11
-308.116502
 21
188.275572
 31
0.0
  0
CIRCLE
  5
13D9
  8
SIZE
  6
CONTINUOUS
 62
    30
 10
309.8834979999999
 20
188.275572
 30
0.0
 40
6.0
  0
CIRCLE
  5
13DA
  8
SIZE
  6
CONTINUOUS
 62
    30
 10
-310.116502
 20
188.275572
 30
0.0
 40
6.0
  0
TEXT
  5
13DB
  8
SIZE
  6
CONTINUOUS
 62
    30
 10
-81.073302
 20
213.275572
 30
0.0
 40
64.0
  1
620
 41
0.9
 72
     1
 11
-0.116502
 21
213.275572
 31
0.0
  0
LINE
  5
13DC
  8
SIZE
  6
CONTINUOUS
 62
    30
 10
279.9999999999999
 20
40.0
 30
0.0
 11
279.9999999999999
 21
114.74447
 31
0.0
  0
LINE
  5
13DD
  8
SIZE
  6
CONTINUOUS
 62
    30
 10
-279.9999999999999
 20
40.0
 30
0.0
 11
-279.9999999999999
 21
114.74447
 31
0.0
  0
LINE
  5
13DE
  8
SIZE
  6
CONTINUOUS
 62
    30
 10
277.9999999999999
 20
84.74446999999996
 30
0.0
 11
-277.9999999999999
 21
84.74446999999996
 31
0.0
  0
CIRCLE
  5
13DF
  8
SIZE
  6
CONTINUOUS
 62
    30
 10
279.9999999999999
 20
84.74446999999996
 30
0.0
 40
6.0
  0
CIRCLE
  5
13E0
  8
SIZE
  6
CONTINUOUS
 62
    30
 10
-279.9999999999999
 20
84.74446999999996
 30
0.0
 40
6.0
  0
TEXT
  5
13E1
  8
SIZE
  6
CONTINUOUS
 62
    30
 10
-80.9568
 20
109.74447
 30
0.0
 40
64.0
  1
560
 41
0.9
 72
     1
 11
0.0
 21
109.74447
 31
0.0
  0
LINE
  5
13E2
  8
DETAIL
  6
CONTINUOUS
 62
     5
 10
138.097822
 20
-229.995646
 30
0.0
 11
-122.6363049999999
 21
-229.995646
 31
0.0
  0
LINE
  5
13E3
  8
DETAIL
  6
CONTINUOUS
 62
     5
 10
-223.3488529999999
 20
-95.0
 30
0.0
 11
8.536955999999998
 21
-95.0
 31
0.0
  0
LINE
  5
13E4
  8
DETAIL
  6
CONTINUOUS
 62
     5
 10
-133.8440519278785
 20
-223.9777904233356
 30
-0.0000000000000279
 11
134.1559833136979
 21
-223.9610974102332
 31
-0.0000000000000145
  0
LINE
  5
13E5
  8
DETAIL
  6
CONTINUOUS
 62
     5
 10
287.2434699999999
 20
-20.0
 30
0.0
 11
0.0
 21
-20.0
 31
0.0
  0
LINE
  5
13E6
  8
DETAIL
  6
CONTINUOUS
 62
     5
 10
303.3360129999998
 20
-9.981011
 30
0.0
 11
-0.1778919999999999
 21
-9.981011
 31
0.0
  0
LINE
  5
13E7
  8
DETAIL
  6
CONTINUOUS
 62
     5
 10
307.5915889999999
 20
-7.733477999999998
 30
0.0
 11
0.0
 21
-7.733477999999998
 31
0.0
  0
LINE
  5
13E8
  8
DETAIL
  6
CONTINUOUS
 62
     5
 10
8.536955999999998
 20
-126.748662
 30
0.0
 11
-26.12068999999999
 21
-126.748662
 31
0.0
  0
LINE
  5
13E9
  8
DETAIL
  6
CONTINUOUS
 62
     5
 10
-72.31295899999996
 20
-131.2682569999994
 30
0.0
 11
0.000042
 21
-131.28299
 31
0.0
  0
LINE
  5
13EA
  8
DETAIL
  6
CONTINUOUS
 62
     5
 10
-78.46257099999998
 20
-133.578257
 30
0.0
 11
0.003468
 21
-133.618545
 31
0.0
  0
LINE
  5
13EB
  8
DETAIL
  6
CONTINUOUS
 62
     5
 10
138.097822
 20
-261.130428
 30
0.0
 11
-15.06521699999998
 21
-261.130428
 31
0.0
  0
LINE
  5
13EC
  8
DETAIL
  6
CONTINUOUS
 62
     5
 10
307.7824149999998
 20
0.0
 30
0.0
 11
0.0
 21
0.0
 31
0.0
  0
LINE
  5
13ED
  8
BASIS
  6
DASHDOT
 62
     6
 39
100.110011
 10
0.2656449999999999
 20
-312.351217
 30
-100.110011
 11
-0.195981
 21
60.42883472925177
 31
-100.110011
  0
CIRCLE
  5
13EE
  8
ARRANGE
  6
CONTINUOUS
 62
     1
 10
0.0
 20
0.0
 30
0.0
 40
40.0
  0
LINE
  5
13EF
  8
SIZE
  6
CONTINUOUS
 62
    30
 10
-299.9999999999997
 20
0.0
 30
0.0
 11
-549.9739419999999
 21
0.0
 31
0.0
  0
LINE
  5
13F0
  8
SIZE
  6
CONTINUOUS
 62
    30
 10
-339.9999999999999
 20
-95.0
 30
0.0
 11
-549.9739419999999
 21
-95.0
 31
0.0
  0
LINE
  5
13F1
  8
SIZE
  6
CONTINUOUS
 62
    30
 10
-519.9739419999996
 20
-2.0
 30
0.0
 11
-519.9739419999996
 21
-93.0
 31
0.0
  0
LINE
  5
13F2
  8
SIZE
  6
CONTINUOUS
 62
    30
 10
-519.9739419999996
 20
-95.0
 30
0.0
 11
-519.9739419999996
 21
-240.257143
 31
0.0
  0
CIRCLE
  5
13F3
  8
SIZE
  6
CONTINUOUS
 62
    30
 10
-519.9739419999996
 20
0.0
 30
0.0
 40
6.0
  0
CIRCLE
  5
13F4
  8
SIZE
  6
CONTINUOUS
 62
    30
 10
-519.9739419999996
 20
-95.0
 30
0.0
 40
6.0
  0
TEXT
  5
13F5
  8
SIZE
  6
CONTINUOUS
 62
    30
 10
-544.9739419999996
 20
-222.5997709999999
 30
0.0
 40
64.0
  1
95
 50
90.0
 41
0.9
 72
     1
 11
-544.9739419999996
 21
-168.6285709999999
 31
0.0
  0
LINE
  5
13F6
  8
SIZE
  6
CONTINUOUS
 62
    30
 10
-319.9999999999999
 20
0.0
 30
0.0
 11
-712.621108
 21
0.0
 31
0.0
  0
LINE
  5
13F7
  8
SIZE
  6
CONTINUOUS
 62
    30
 10
-85.204949
 20
-297.0
 30
0.0
 11
-712.621108
 21
-297.0
 31
0.0
  0
LINE
  5
13F8
  8
SIZE
  6
CONTINUOUS
 62
    30
 10
-682.621108
 20
-2.0
 30
0.0
 11
-682.621108
 21
-295.0
 31
0.0
  0
CIRCLE
  5
13F9
  8
SIZE
  6
CONTINUOUS
 62
    30
 10
-682.621108
 20
0.0
 30
0.0
 40
6.0
  0
CIRCLE
  5
13FA
  8
SIZE
  6
CONTINUOUS
 62
    30
 10
-682.621108
 20
-297.0
 30
0.0
 40
6.0
  0
TEXT
  5
13FB
  8
SIZE
  6
CONTINUOUS
 62
    30
 10
-707.621108
 20
-229.4568
 30
0.0
 40
64.0
  1
297
 50
90.0
 41
0.9
 72
     1
 11
-707.621108
 21
-148.5
 31
0.0
  0
LINE
  5
13FC
  8
SIZE
  6
CONTINUOUS
 62
    30
 10
-319.9999999999999
 20
0.0
 30
0.0
 11
-399.7487659999998
 21
0.0
 31
0.0
  0
LINE
  5
13FD
  8
SIZE
  6
CONTINUOUS
 62
    30
 10
-323.5139049999999
 20
-10.0
 30
0.0
 11
-399.7487659999998
 21
-10.0
 31
0.0
  0
LINE
  5
13FE
  8
SIZE
  6
CONTINUOUS
 62
    30
 10
-369.7487659999998
 20
-12.0
 30
0.0
 11
-369.7487659999998
 21
-14.0
 31
0.0
  0
LINE
  5
13FF
  8
SIZE
  6
CONTINUOUS
 62
    30
 10
-369.7487659999998
 20
2.0
 30
0.0
 11
-369.7487659999998
 21
136.285714
 31
0.0
  0
LINE
  5
1400
  8
SIZE
  6
CONTINUOUS
 62
    30
 10
-369.7487659999998
 20
-10.0
 30
0.0
 11
-369.7487659999998
 21
0.0
 31
0.0
  0
CIRCLE
  5
1401
  8
SIZE
  6
CONTINUOUS
 62
    30
 10
-369.7487659999998
 20
-10.0
 30
0.0
 40
6.0
  0
CIRCLE
  5
1402
  8
SIZE
  6
CONTINUOUS
 62
    30
 10
-369.7487659999998
 20
0.0
 30
0.0
 40
6.0
  0
TEXT
  5
1403
  8
SIZE
  6
CONTINUOUS
 62
    30
 10
-394.7487659999998
 20
21.58605699999999
 30
0.0
 40
64.0
  1
10
 50
90.0
 41
0.9
 72
     1
 11
-394.7487659999998
 21
70.14285699999999
 31
0.0
  0
ARC
  5
1404
  8
DETAIL
  6
CONTINUOUS
 62
     5
 10
-307.7907069999999
 20
-2.310000999999996
 30
0.0
 40
2.31
 50
90.0
 51
196.754805
  0
LINE
  5
1405
  8
NOTE
  6
CONTINUOUS
 62
     4
 10
-259.9999999999999
 20
0.0
 30
0.0
 11
-299.9999999999997
 21
0.0
 31
0.0
  0
LINE
  5
1406
  8
NOTE
  6
CONTINUOUS
 62
     4
 10
-279.9999999999999
 20
20.0
 30
0.0
 11
-279.9999999999999
 21
-20.0
 31
0.0
  0
LINE
  5
1407
  8
DETAIL
  6
CONTINUOUS
 62
     5
 10
-203.1086899999997
 20
-20.086956
 30
0.0
 11
-272.7064419999999
 21
-20.086956
 31
0.0
  0
LINE
  5
1408
  8
DETAIL
  6
CONTINUOUS
 62
     5
 10
-203.1086899999997
 20
-26.113043
 30
0.0
 11
-272.7064419999999
 21
-26.113043
 31
0.0
  0
LINE
  5
1409
  8
DETAIL
  6
CONTINUOUS
 62
     5
 10
-307.601824
 20
-7.733477999999998
 30
0.0
 11
0.0
 21
-7.733477999999998
 31
0.0
  0
LINE
  5
140A
  8
DETAIL
  6
CONTINUOUS
 62
     5
 10
-303.513905
 20
-10.0
 30
0.0
 11
0.0
 21
-10.0
 31
0.0
  0
LINE
  5
140B
  8
DETAIL
  6
CONTINUOUS
 62
     5
 10
-287.2434699999997
 20
-20.086956
 30
0.0
 11
0.0
 21
-20.086956
 31
0.0
  0
ARC
  5
140C
  8
DETAIL
  6
CONTINUOUS
 62
     5
 10
-143.6311739999996
 20
-158.686952
 30
0.0
 40
102.443476
 50
180.0
 51
270.0
  0
ARC
  5
140D
  8
DETAIL
  6
CONTINUOUS
 62
     5
 10
-150.0228039999999
 20
-158.686952
 30
0.0
 40
102.443476
 50
180.0
 51
270.0
  0
ARC
  5
140E
  8
DETAIL
  6
CONTINUOUS
 62
     5
 10
-153.0445069999999
 20
-158.686952
 30
0.0
 40
70.304346
 50
180.0
 51
270.0
  0
LINE
  5
140F
  8
DETAIL
  6
CONTINUOUS
 62
     5
 10
-307.7907069999999
 20
-0.000001
 30
0.0
 11
0.0
 21
0.0
 31
0.0
  0
LINE
  5
1410
  8
SIZE
  6
CONTINUOUS
 62
    30
 10
-319.9999999999999
 20
-20.0
 30
0.0
 11
-399.5228439999997
 21
-20.0
 31
0.0
  0
LINE
  5
1411
  8
SIZE
  6
CONTINUOUS
 62
    30
 10
-323.5139049999999
 20
-10.0
 30
0.0
 11
-399.5228439999997
 21
-10.0
 31
0.0
  0
LINE
  5
1412
  8
SIZE
  6
CONTINUOUS
 62
    30
 10
-369.522844
 20
-8.0
 30
0.0
 11
-369.522844
 21
-6.0
 31
0.0
  0
LINE
  5
1413
  8
SIZE
  6
CONTINUOUS
 62
    30
 10
-369.522844
 20
-22.0
 30
0.0
 11
-369.522844
 21
-156.285714
 31
0.0
  0
LINE
  5
1414
  8
SIZE
  6
CONTINUOUS
 62
    30
 10
-369.522844
 20
-10.0
 30
0.0
 11
-369.522844
 21
-20.0
 31
0.0
  0
CIRCLE
  5
1415
  8
SIZE
  6
CONTINUOUS
 62
    30
 10
-369.522844
 20
-10.0
 30
0.0
 40
6.0
  0
CIRCLE
  5
1416
  8
SIZE
  6
CONTINUOUS
 62
    30
 10
-369.522844
 20
-20.0
 30
0.0
 40
6.0
  0
TEXT
  5
1417
  8
SIZE
  6
CONTINUOUS
 62
    30
 10
-394.5228439999997
 20
-138.699657
 30
0.0
 40
64.0
  1
10
 50
90.0
 41
0.9
 72
     1
 11
-394.5228439999997
 21
-90.142857
 31
0.0
  0
ARC
  5
1418
  8
DETAIL
  6
CONTINUOUS
 62
     5
 10
-307.1295569999997
 20
-44.79239299999998
 30
0.0
 40
50.21739
 50
297.3204439999999
 51
0.0
  0
LINE
  5
1419
  8
DETAIL
  6
CONTINUOUS
 62
     5
 10
-246.0746489999998
 20
-26.113043
 30
0.0
 11
-246.0746489999998
 21
-158.686952
 31
0.0
  0
LINE
  5
141A
  8
DETAIL
  6
CONTINUOUS
 62
     5
 10
-252.4662799999999
 20
-26.113043
 30
0.0
 11
-252.4662799999999
 21
-158.686952
 31
0.0
  0
LINE
  5
141B
  8
DETAIL
  6
CONTINUOUS
 62
     5
 10
-300.8021659999999
 20
-88.97399699999998
 30
0.0
 11
-252.4662799999999
 21
-88.97399699999998
 31
0.0
  0
LINE
  5
141C
  8
DETAIL
  6
CONTINUOUS
 62
     5
 10
-300.8246399999998
 20
-95.0
 30
0.0
 11
-252.4662799999999
 21
-95.0
 31
0.0
  0
ARC
  5
141D
  8
DETAIL
  6
CONTINUOUS
 62
     5
 10
-300.8021659999999
 20
-91.98704
 30
0.0
 40
3.013043
 50
90.0
 51
269.5726369999999
  0
ARC
  5
141E
  8
DETAIL
  6
CONTINUOUS
 62
     5
 10
-294.1243109999998
 20
-14.091548
 30
0.0
 40
4.091573
 50
0.429616999999646
 51
90.19654600000031
  0
ARC
  5
141F
  8
DETAIL
  6
CONTINUOUS
 62
     5
 10
-286.0154619999997
 20
-16.069565
 30
0.0
 40
4.017390999999999
 50
180.0
 51
269.9999990000001
  0
ARC
  5
1420
  8
DETAIL
  6
CONTINUOUS
 62
     5
 10
-287.2434709999997
 20
-16.069565
 30
0.0
 40
4.017390999999999
 50
180.0
 51
270.0
  0
ARC
  5
1421
  8
DETAIL
  6
CONTINUOUS
 62
     5
 10
-307.5998809999999
 20
-6.427826999999997
 30
0.0
 40
1.305652
 50
196.7548049999997
 51
270.0
  0
LINE
  5
1422
  8
DETAIL
  6
CONTINUOUS
 62
     5
 10
-310.0026409999998
 20
-2.975919999999998
 30
0.0
 11
-308.8501049999999
 21
-6.804216
 31
0.0
  0
ARC
  5
1423
  8
DETAIL
  6
CONTINUOUS
 62
     5
 10
-303.6198509999999
 20
-6.119477999999999
 30
0.0
 40
3.881968
 50
204.613319
 51
271.5465809999995
  0
ARC
  5
1424
  8
DETAIL
  6
CONTINUOUS
 62
     5
 10
-295.3534519999999
 20
-14.09201799999999
 30
0.0
 40
4.092708
 50
0.4360640000000702
 51
88.94719799999977
  0
LINE
  5
1425
  8
DETAIL
  6
CONTINUOUS
 62
     5
 10
-291.2608619999999
 20
-16.069565
 30
0.0
 11
-291.2608619999999
 21
-14.060869
 31
0.0
  0
LINE
  5
1426
  8
DETAIL
  6
DASHED
 62
     5
 10
-263.9479679999998
 20
-10.244353
 30
0.0
 11
-247.3762099999999
 21
-10.244353
 31
0.0
  0
LINE
  5
1427
  8
DETAIL
  6
CONTINUOUS
 62
     5
 10
-265.5046969999999
 20
-26.113043
 30
0.0
 11
-252.4662799999999
 21
-26.113043
 31
0.0
  0
LINE
  5
1428
  8
DETAIL
  6
CONTINUOUS
 62
     5
 10
-263.9479679999998
 20
-34.14781899999999
 30
0.0
 11
-252.4662799999999
 21
-34.14781899999999
 31
0.0
  0
ARC
  5
1429
  8
DETAIL
  6
CONTINUOUS
 62
     5
 10
-263.0440429999999
 20
-30.346616
 30
0.0
 40
3.801200999999999
 50
270.000018
 51
310.3409759999997
  0
ARC
  5
142A
  8
DETAIL
  6
CONTINUOUS
 62
     5
 10
-276.9991229999998
 20
-40.173912
 30
0.0
 40
20.086956
 50
77.660442
 51
90.0
  0
LINE
  5
142B
  8
DETAIL
  6
CONTINUOUS
 62
     5
 10
-272.7064419999999
 20
-26.113043
 30
0.0
 11
-272.7064419999999
 21
-20.086956
 31
0.0
  0
LINE
  5
142C
  8
DETAIL
  6
CONTINUOUS
 62
     5
 10
-263.947962
 20
-34.14783099999999
 30
0.0
 11
-265.5047009999998
 21
-33.243919
 31
0.0
  0
LINE
  5
142D
  8
DETAIL
  6
CONTINUOUS
 62
     5
 10
-265.5046969999999
 20
-33.243912
 30
0.0
 11
-265.5046969999999
 21
-26.113043
 31
0.0
  0
LINE
  5
142E
  8
DETAIL
  6
CONTINUOUS
 62
     5
 10
-290.0328529999998
 20
-14.060869
 30
0.0
 11
-290.0328529999998
 21
-16.069565
 31
0.0
  0
LINE
  5
142F
  8
DETAIL
  6
DASHED
 62
     5
 10
-260.1816539999999
 20
-10.244353
 30
0.0
 11
-260.1816539999999
 21
-10.043478
 31
0.0
  0
LINE
  5
1430
  8
DETAIL
  6
DASHED
 62
     5
 10
-251.1425239999997
 20
-10.244353
 30
0.0
 11
-251.1425239999997
 21
-10.043478
 31
0.0
  0
LINE
  5
1431
  8
DETAIL
  6
DASHED
 62
     5
 10
-250.6403499999999
 20
-10.244353
 30
0.0
 11
-250.6403499999999
 21
-10.043478
 31
0.0
  0
LINE
  5
1432
  8
DETAIL
  6
DASHED
 62
     5
 10
-250.6403499999999
 20
-10.043478
 30
0.0
 11
-260.6838279999999
 21
-10.043478
 31
0.0
  0
LINE
  5
1433
  8
DETAIL
  6
DASHED
 62
     5
 10
-260.6838279999999
 20
-10.244353
 30
0.0
 11
-260.6838279999999
 21
-10.043478
 31
0.0
  0
LINE
  5
1434
  8
DETAIL
  6
CONTINUOUS
 62
     5
 10
-261.3435439999998
 20
-26.113043
 30
0.0
 11
-261.3435439999998
 21
-20.086956
 31
0.0
  0
LINE
  5
1435
  8
DETAIL
  6
CONTINUOUS
 62
     5
 10
-249.9806459999997
 20
-20.086956
 30
0.0
 11
-249.9806459999997
 21
-26.113043
 31
0.0
  0
LINE
  5
1436
  8
DETAIL
  6
CONTINUOUS
 62
     5
 10
-256.9121669999997
 20
-44.79239299999998
 30
0.0
 11
-256.9121669999997
 21
-40.173912
 31
0.0
  0
ARC
  5
1437
  8
DETAIL
  6
CONTINUOUS
 62
     5
 10
-255.6620889999998
 20
-20.298973
 30
0.0
 40
13.848846
 50
249.184661
 51
283.3420300000001
  0
ARC
  5
1438
  8
DETAIL
  6
CONTINUOUS
 62
     5
 10
-276.9991229999998
 20
-40.173912
 30
0.0
 40
20.086956
 50
0.0
 51
17.45762000000004
  0
LINE
  5
1439
  8
DETAIL
  6
CONTINUOUS
 62
     5
 10
-260.5833919999999
 20
-26.11304399999999
 30
0.0
 11
-260.5833919999999
 21
-33.243912
 31
0.0
  0
LINE
  5
143A
  8
DETAIL
  6
CONTINUOUS
 62
     5
 10
-81.65347599999998
 20
-140.6086919999999
 30
0.0
 11
-81.65347599999998
 21
-177.9695589999995
 31
0.0
  0
ARC
  5
143B
  8
DETAIL
  6
CONTINUOUS
 62
     5
 10
-83.461302
 20
-162.4030389999998
 30
0.0
 40
1.506521999999999
 50
180.0
 51
270.0
  0
ARC
  5
143C
  8
DETAIL
  6
CONTINUOUS
 62
     5
 10
-306.9285929999998
 20
184.6096239999999
 30
0.0
 40
366.402871
 50
283.385214
 51
289.359912
  0
LINE
  5
143D
  8
DETAIL
  6
CONTINUOUS
 62
     5
 10
-150.0228039999999
 20
-261.130428
 30
0.0
 11
-15.06521699999998
 21
-261.130428
 31
0.0
  0
LINE
  5
143E
  8
DETAIL
  6
CONTINUOUS
 62
     5
 10
-122.6363049999999
 20
-229.995646
 30
0.0
 11
-153.0445069999999
 21
-228.9912979999999
 31
0.0
  0
LINE
  5
143F
  8
DETAIL
  6
CONTINUOUS
 62
     5
 10
-72.31295899999996
 20
-294.9769489999998
 30
0.0
 11
0.0
 21
-294.9769489999998
 31
0.0
  0
LINE
  5
1440
  8
DETAIL
  6
CONTINUOUS
 62
     5
 10
-69.29991800000002
 20
-296.985644
 30
0.0
 11
0.0
 21
-296.985644
 31
0.0
  0
LINE
  5
1441
  8
DETAIL
  6
CONTINUOUS
 62
     5
 10
-65.78478100000001
 20
-296.985644
 30
0.0
 11
-56.745651
 21
-296.985644
 31
0.0
  0
LINE
  5
1442
  8
DETAIL
  6
CONTINUOUS
 62
     5
 10
-69.299998
 20
-296.985644
 30
0.0
 11
-71.30869399999997
 21
-294.9769489999998
 31
0.0
  0
LINE
  5
1443
  8
DETAIL
  6
CONTINUOUS
 62
     5
 10
-81.35576799999998
 20
-269.16521
 30
0.0
 11
-81.35576799999998
 21
-271.3747759999999
 31
0.0
  0
LINE
  5
1444
  8
DETAIL
  6
CONTINUOUS
 62
     5
 10
-81.35576799999998
 20
-269.16521
 30
0.0
 11
-81.35576799999998
 21
-285.6365139999999
 31
0.0
  0
ARC
  5
1445
  8
DETAIL
  6
CONTINUOUS
 62
     5
 10
-83.163594
 20
-269.8682539999999
 30
0.0
 40
1.506521999999999
 50
180.0
 51
270.0
  0
LINE
  5
1446
  8
DETAIL
  6
CONTINUOUS
 62
     5
 10
-84.67011599999996
 20
-269.16521
 30
0.0
 11
-84.67011599999996
 21
-269.8682539999999
 31
0.0
  0
LINE
  5
1447
  8
DETAIL
  6
CONTINUOUS
 62
     5
 10
-83.163594
 20
-271.3747759999999
 30
0.0
 11
-81.35576799999998
 21
-271.3747759999999
 31
0.0
  0
ARC
  5
1448
  8
DETAIL
  6
CONTINUOUS
 62
     5
 10
-72.00677299999998
 20
-285.6329679999999
 30
0.0
 40
9.348996
 50
180.0217310000012
 51
268.123188
  0
LINE
  5
1449
  8
DETAIL
  6
CONTINUOUS
 62
     5
 10
-38.600615
 20
-297.275343
 30
0.0
 11
-48.04148399999997
 21
-297.275343
 31
0.0
  0
LINE
  5
144A
  8
DETAIL
  6
CONTINUOUS
 62
     5
 10
-48.04148399999997
 20
-296.985644
 30
0.0
 11
-38.600615
 21
-296.985644
 31
0.0
  0
LINE
  5
144B
  8
DETAIL
  6
CONTINUOUS
 62
     5
 10
-41.09661599999999
 20
-294.9769489999998
 30
0.0
 11
-39.684439
 21
-295.8764259999999
 31
0.0
  0
LINE
  5
144C
  8
DETAIL
  6
CONTINUOUS
 62
     5
 10
-48.04148399999997
 20
-296.985644
 30
0.0
 11
-48.04148399999997
 21
-297.275343
 31
0.0
  0
LINE
  5
144D
  8
DETAIL
  6
CONTINUOUS
 62
     5
 10
-38.600615
 20
-296.985644
 30
0.0
 11
-38.600615
 21
-297.275343
 31
0.0
  0
LINE
  5
144E
  8
DETAIL
  6
CONTINUOUS
 62
     5
 10
-39.684439
 20
-295.8764259999999
 30
0.0
 11
-37.92508199999999
 21
-296.985644
 31
0.0
  0
LINE
  5
144F
  8
DETAIL
  6
CONTINUOUS
 62
     5
 10
-105.9586199999998
 20
-223.9695589999997
 30
0.0
 11
0.0
 21
-223.9695589999997
 31
0.0
  0
LINE
  5
1450
  8
DETAIL
  6
CONTINUOUS
 62
     5
 10
-182.5062499999997
 20
-160.421919
 30
0.0
 11
-60.61463499999999
 21
-95.413041
 31
0.0
  0
LINE
  5
1451
  8
DETAIL
  6
CONTINUOUS
 62
     5
 10
-223.3488529999999
 20
-34.14781899999999
 30
0.0
 11
-223.3488529999999
 21
-158.686952
 31
0.0
  0
ARC
  5
1452
  8
DETAIL
  6
CONTINUOUS
 62
     5
 10
-1264.058444999998
 20
1026.112091
 30
0.0
 40
1594.422039999999
 50
312.399533
 51
315.2991350000001
  0
ARC
  5
1453
  8
DETAIL
  6
CONTINUOUS
 62
     5
 10
-1264.058444999998
 20
1026.112091
 30
0.0
 40
1598.439039
 50
312.504346
 51
315.441453
  0
ARC
  5
1454
  8
DETAIL
  6
CONTINUOUS
 62
     5
 10
-1264.058444999998
 20
1026.112091
 30
0.0
 40
1578.352866
 50
311.250111
 51
314.7189500000001
  0
ARC
  5
1455
  8
DETAIL
  6
CONTINUOUS
 62
     5
 10
-181.3653349999999
 20
-155.260404
 30
0.0
 40
4.017389999999998
 50
132.5041769999999
 51
298.072607
  0
ARC
  5
1456
  8
DETAIL
  6
CONTINUOUS
 62
     5
 10
-185.1530079999997
 20
-155.4592749999999
 30
0.0
 40
5.624347
 50
132.3994289999999
 51
298.0723879999998
  0
LINE
  5
1457
  8
DETAIL
  6
DASHED
 62
     5
 10
-228.4389169999998
 20
-10.244353
 30
0.0
 11
-211.8671589999998
 21
-10.244353
 31
0.0
  0
LINE
  5
1458
  8
DETAIL
  6
DASHED
 62
     5
 10
-224.6726029999999
 20
-10.244353
 30
0.0
 11
-224.6726029999999
 21
-10.043478
 31
0.0
  0
LINE
  5
1459
  8
DETAIL
  6
DASHED
 62
     5
 10
-215.6334729999999
 20
-10.244353
 30
0.0
 11
-215.6334729999999
 21
-10.043478
 31
0.0
  0
LINE
  5
145A
  8
DETAIL
  6
DASHED
 62
     5
 10
-215.1312989999999
 20
-10.244353
 30
0.0
 11
-215.1312989999999
 21
-10.043478
 31
0.0
  0
LINE
  5
145B
  8
DETAIL
  6
DASHED
 62
     5
 10
-215.1312989999999
 20
-10.043478
 30
0.0
 11
-225.1747769999999
 21
-10.043478
 31
0.0
  0
LINE
  5
145C
  8
DETAIL
  6
DASHED
 62
     5
 10
-225.1747769999999
 20
-10.244353
 30
0.0
 11
-225.1747769999999
 21
-10.043478
 31
0.0
  0
LINE
  5
145D
  8
DETAIL
  6
CONTINUOUS
 62
     5
 10
-229.9956459999999
 20
-26.113043
 30
0.0
 11
-210.3104289999997
 21
-26.113043
 31
0.0
  0
LINE
  5
145E
  8
DETAIL
  6
CONTINUOUS
 62
     5
 10
-203.1086899999997
 20
-20.086956
 30
0.0
 11
-203.1086899999997
 21
-26.113043
 31
0.0
  0
LINE
  5
145F
  8
DETAIL
  6
CONTINUOUS
 62
     5
 10
-228.4389169999998
 20
-34.14781899999999
 30
0.0
 11
-211.8671589999998
 21
-34.14781899999999
 31
0.0
  0
ARC
  5
1460
  8
DETAIL
  6
CONTINUOUS
 62
     5
 10
-212.7710839999996
 20
-30.346616
 30
0.0
 40
3.801200999999999
 50
229.6590629999998
 51
270.000018
  0
ARC
  5
1461
  8
DETAIL
  6
CONTINUOUS
 62
     5
 10
-220.1530379999997
 20
-20.298973
 30
0.0
 40
13.848846
 50
249.184661
 51
290.8154290000001
  0
ARC
  5
1462
  8
DETAIL
  6
CONTINUOUS
 62
     5
 10
-227.5349919999998
 20
-30.346616
 30
0.0
 40
3.801200999999999
 50
270.000018
 51
310.340976
  0
LINE
  5
1463
  8
DETAIL
  6
CONTINUOUS
 62
     5
 10
-228.4389109999999
 20
-34.14783099999999
 30
0.0
 11
-229.9956499999998
 21
-33.243919
 31
0.0
  0
LINE
  5
1464
  8
DETAIL
  6
CONTINUOUS
 62
     5
 10
-210.3104249999997
 20
-33.243919
 30
0.0
 11
-211.8671649999997
 21
-34.14783099999999
 31
0.0
  0
LINE
  5
1465
  8
DETAIL
  6
CONTINUOUS
 62
     5
 10
-215.2317349999999
 20
-26.113042
 30
0.0
 11
-215.2317349999999
 21
-33.243912
 31
0.0
  0
LINE
  5
1466
  8
DETAIL
  6
CONTINUOUS
 62
     5
 10
-225.0743409999999
 20
-26.11304399999999
 30
0.0
 11
-225.0743409999999
 21
-33.243912
 31
0.0
  0
LINE
  5
1467
  8
DETAIL
  6
CONTINUOUS
 62
     5
 10
-229.9956459999999
 20
-33.243912
 30
0.0
 11
-229.9956459999999
 21
-26.113043
 31
0.0
  0
LINE
  5
1468
  8
DETAIL
  6
CONTINUOUS
 62
     5
 10
-210.3104289999997
 20
-26.113043
 30
0.0
 11
-210.3104289999997
 21
-33.243912
 31
0.0
  0
LINE
  5
1469
  8
DETAIL
  6
CONTINUOUS
 62
     5
 10
-56.745651
 20
-129.2595619999999
 30
0.0
 11
-65.78478100000001
 21
-129.2595619999999
 31
0.0
  0
ARC
  5
146A
  8
DETAIL
  6
CONTINUOUS
 62
     5
 10
-58.25217199999998
 20
-127.451736
 30
0.0
 40
1.506521999999999
 50
0.0
 51
90.0
  0
LINE
  5
146B
  8
DETAIL
  6
CONTINUOUS
 62
     5
 10
-69.29991800000002
 20
-129.2595619999999
 30
0.0
 11
-0.002904
 21
-129.274299
 31
0.0
  0
LINE
  5
146C
  8
DETAIL
  6
CONTINUOUS
 62
     5
 10
-69.299998
 20
-129.2595619999999
 30
0.0
 11
-71.30869399999997
 21
-131.2682569999994
 31
0.0
  0
LINE
  5
146D
  8
DETAIL
  6
CONTINUOUS
 62
     5
 10
-65.78478100000001
 20
-127.451736
 30
0.0
 11
-65.78478100000001
 21
-129.2595619999999
 31
0.0
  0
ARC
  5
146E
  8
DETAIL
  6
CONTINUOUS
 62
     5
 10
-64.27825899999999
 20
-127.451736
 30
0.0
 40
1.506521999999999
 50
90.0
 51
180.0
  0
LINE
  5
146F
  8
DETAIL
  6
CONTINUOUS
 62
     5
 10
-58.25217199999998
 20
-125.945214
 30
0.0
 11
-64.27825899999999
 21
-125.945214
 31
0.0
  0
LINE
  5
1470
  8
DETAIL
  6
CONTINUOUS
 62
     5
 10
-81.65347599999998
 20
-154.8704309999999
 30
0.0
 11
-81.65347599999998
 21
-163.909561
 31
0.0
  0
ARC
  5
1471
  8
DETAIL
  6
CONTINUOUS
 62
     5
 10
-83.461302
 20
-156.3769519999999
 30
0.0
 40
1.506521999999999
 50
90.0
 51
180.0
  0
LINE
  5
1472
  8
DETAIL
  6
CONTINUOUS
 62
     5
 10
-84.96782399999998
 20
-156.3769519999999
 30
0.0
 11
-84.96782399999998
 21
-162.4030389999998
 31
0.0
  0
ARC
  5
1473
  8
DETAIL
  6
CONTINUOUS
 62
     5
 10
-72.31304200000002
 20
-140.6086919999999
 30
0.0
 40
9.340435
 50
90.0
 51
180.0
  0
LINE
  5
1474
  8
DETAIL
  6
CONTINUOUS
 62
     5
 10
-83.461302
 20
-154.8704309999999
 30
0.0
 11
-81.65347599999998
 21
-154.8704309999999
 31
0.0
  0
LINE
  5
1475
  8
DETAIL
  6
CONTINUOUS
 62
     5
 10
-83.461302
 20
-163.909561
 30
0.0
 11
-81.65347599999998
 21
-163.909561
 31
0.0
  0
LINE
  5
1476
  8
DETAIL
  6
DASHED
 62
     5
 10
-60.61463499999999
 20
-95.413041
 30
0.0
 11
-60.61463499999999
 21
-95.413041
 31
0.0
  0
LINE
  5
1477
  8
DETAIL
  6
CONTINUOUS
 62
     5
 10
-25.289288
 20
-117.2456929999996
 30
0.0
 11
-26.12069199999999
 21
-126.7486639999999
 31
0.0
  0
LINE
  5
1478
  8
DETAIL
  6
CONTINUOUS
 62
     5
 10
-39.67543999999999
 20
-130.363074
 30
0.0
 11
-41.09661599999999
 21
-131.2682569999994
 31
0.0
  0
LINE
  5
1479
  8
DETAIL
  6
CONTINUOUS
 62
     5
 10
-37.92508199999999
 20
-129.2595619999999
 30
0.0
 11
-39.67543999999999
 21
-130.363074
 31
0.0
  0
LINE
  5
147A
  8
DETAIL
  6
CONTINUOUS
 62
     5
 10
-56.745651
 20
-127.451736
 30
0.0
 11
-56.745651
 21
-129.2595619999999
 31
0.0
  0
ARC
  5
147B
  8
DETAIL
  6
CONTINUOUS
 62
     5
 10
-11.54999999999999
 20
-128.510736
 30
0.0
 40
1.807826
 50
180.0
 51
204.4698010000004
  0
LINE
  5
147C
  8
DETAIL
  6
CONTINUOUS
 62
     5
 10
-13.35782599999998
 20
-126.748662
 30
0.0
 11
-13.35782599999998
 21
-128.510736
 31
0.0
  0
LINE
  5
147D
  8
DETAIL
  6
CONTINUOUS
 62
     5
 10
-20.724317
 20
-112.6807139999999
 30
0.0
 11
-15.06517199999998
 21
-112.185606
 31
0.0
  0
LINE
  5
147E
  8
DETAIL
  6
CONTINUOUS
 62
     5
 10
-14.06086899999998
 20
-95.412957
 30
0.0
 11
-14.06086899999998
 21
-104.150867
 31
0.0
  0
LINE
  5
147F
  8
DETAIL
  6
CONTINUOUS
 62
     5
 10
-13.05652099999999
 20
-110.169237
 30
0.0
 11
-13.05652099999999
 21
-109.6747719999999
 31
0.0
  0
ARC
  5
1480
  8
DETAIL
  6
CONTINUOUS
 62
     5
 10
-15.06520899999998
 20
-110.169237
 30
0.0
 40
2.008694999999999
 50
274.999972
 51
0.0
  0
LINE
  5
1481
  8
DETAIL
  6
CONTINUOUS
 62
     5
 10
-15.06520199999998
 20
-112.185603
 30
0.0
 11
0.0
 21
-112.185603
 31
0.0
  0
LINE
  5
1482
  8
DETAIL
  6
CONTINUOUS
 62
     5
 10
-10.04347799999998
 20
-107.666084
 30
0.0
 11
-14.06086899999998
 21
-107.666084
 31
0.0
  0
LINE
  5
1483
  8
DETAIL
  6
CONTINUOUS
 62
     5
 10
-14.06086899999998
 20
-107.666084
 30
0.0
 11
-14.06086899999998
 21
-105.1552149999996
 31
0.0
  0
LINE
  5
1484
  8
DETAIL
  6
CONTINUOUS
 62
     5
 10
-10.04347799999998
 20
-109.6747719999999
 30
0.0
 11
-10.04347799999998
 21
-107.666084
 31
0.0
  0
LINE
  5
1485
  8
DETAIL
  6
CONTINUOUS
 62
     5
 10
0.0
 20
-107.666084
 30
0.0
 11
-10.04341899999999
 21
-107.666084
 31
0.0
  0
LINE
  5
1486
  8
DETAIL
  6
CONTINUOUS
 62
     5
 10
-13.05652099999999
 20
-105.1552149999996
 30
0.0
 11
-14.06086899999998
 21
-104.150867
 31
0.0
  0
ARC
  5
1487
  8
DETAIL
  6
CONTINUOUS
 62
     5
 10
-20.28664199999998
 20
-117.683387
 30
0.0
 40
5.021736999999999
 50
94.99998999999997
 51
174.99981
  0
LINE
  5
1488
  8
DETAIL
  6
CONTINUOUS
 62
     5
 10
-24.65060100000001
 20
-115.198693
 30
0.0
 11
-0.023533
 21
-115.21125
 31
0.0
  0
LINE
  5
1489
  8
DETAIL
  6
CONTINUOUS
 62
     5
 10
-13.05652099999999
 20
-109.6747719999999
 30
0.0
 11
-0.042856
 21
-109.6747719999999
 31
0.0
  0
LINE
  5
148A
  8
DETAIL
  6
CONTINUOUS
 62
     5
 10
-0.042856
 20
-105.1552149999996
 30
0.0
 11
-14.06086899999998
 21
-105.1552149999996
 31
0.0
  0
LINE
  5
148B
  8
DETAIL
  6
CONTINUOUS
 62
     5
 10
-0.042856
 20
-104.150867
 30
0.0
 11
-14.06086899999998
 21
-104.150867
 31
0.0
  0
ARC
  5
148C
  8
DETAIL
  6
CONTINUOUS
 62
     5
 10
307.5673349999998
 20
-2.31
 30
0.0
 40
2.31
 50
343.2451949999999
 51
90.0
  0
LINE
  5
148D
  8
NOTE
  6
CONTINUOUS
 62
     4
 10
299.9999999999999
 20
0.0
 30
0.0
 11
259.9999999999999
 21
0.0
 31
0.0
  0
LINE
  5
148E
  8
NOTE
  6
CONTINUOUS
 62
     4
 10
279.9999999999999
 20
20.0
 30
0.0
 11
279.9999999999999
 21
-20.0
 31
0.0
  0
LINE
  5
148F
  8
DETAIL
  6
CONTINUOUS
 62
     5
 10
203.10869
 20
-26.113043
 30
0.0
 11
272.706442
 21
-26.113043
 31
0.0
  0
LINE
  5
1490
  8
DETAIL
  6
CONTINUOUS
 62
     5
 10
203.10869
 20
-20.086956
 30
0.0
 11
272.706442
 21
-20.086956
 31
0.0
  0
ARC
  5
1491
  8
DETAIL
  6
CONTINUOUS
 62
     5
 10
153.044507
 20
-158.686952
 30
0.0
 40
70.304346
 50
270.0
 51
0.0
  0
ARC
  5
1492
  8
DETAIL
  6
CONTINUOUS
 62
     5
 10
159.436137
 20
-158.686952
 30
0.0
 40
70.304346
 50
270.0
 51
0.0
  0
ARC
  5
1493
  8
DETAIL
  6
CONTINUOUS
 62
     5
 10
150.022804
 20
-158.686952
 30
0.0
 40
102.443476
 50
270.0
 51
0.0
  0
LINE
  5
1494
  8
DETAIL
  6
CONTINUOUS
 62
     5
 10
81.68156
 20
-140.3617969999999
 30
0.0
 11
81.774918
 21
-177.9695589999995
 31
0.0
  0
ARC
  5
1495
  8
DETAIL
  6
CONTINUOUS
 62
     5
 10
78.06253599999998
 20
-203.8442609999999
 30
0.0
 40
104.0472869999996
 50
15.62445
 51
27.925675
  0
ARC
  5
1496
  8
DETAIL
  6
CONTINUOUS
 62
     5
 10
33.97481599999998
 20
-26.464267
 30
0.0
 40
207.670792
 50
314.011478
 51
335.7686080000001
  0
LINE
  5
1497
  8
DETAIL
  6
CONTINUOUS
 62
     5
 10
72.32990099999998
 20
-295.726939
 30
0.0
 11
0.02083
 21
-294.977057
 31
0.0
  0
LINE
  5
1498
  8
DETAIL
  6
CONTINUOUS
 62
     5
 10
65.781244
 20
-297.6678299999999
 30
0.0
 11
56.7426
 21
-297.574094
 31
0.0
  0
LINE
  5
1499
  8
DETAIL
  6
CONTINUOUS
 62
     5
 10
38.595535
 20
-297.6756149999999
 30
0.0
 11
48.03589699999997
 21
-297.7735159999999
 31
0.0
  0
LINE
  5
149A
  8
DETAIL
  6
CONTINUOUS
 62
     5
 10
48.038901
 20
-297.483833
 30
0.0
 11
38.59854
 21
-297.385931
 31
0.0
  0
LINE
  5
149B
  8
DETAIL
  6
CONTINUOUS
 62
     5
 10
41.115237
 20
-295.403227
 30
0.0
 11
39.69380800000001
 21
-296.288011
 31
0.0
  0
LINE
  5
149C
  8
DETAIL
  6
CONTINUOUS
 62
     5
 10
48.038901
 20
-297.483833
 30
0.0
 11
48.03589699999997
 21
-297.7735159999999
 31
0.0
  0
LINE
  5
149D
  8
DETAIL
  6
CONTINUOUS
 62
     5
 10
38.59854
 20
-297.385931
 30
0.0
 11
38.595535
 21
-297.6756149999999
 31
0.0
  0
LINE
  5
149E
  8
DETAIL
  6
CONTINUOUS
 62
     5
 10
39.69380800000001
 20
-296.288011
 30
0.0
 11
37.923043
 21
-297.3789259999999
 31
0.0
  0
LINE
  5
149F
  8
DETAIL
  6
CONTINUOUS
 62
     5
 10
69.296272
 20
-297.7042819999999
 30
0.0
 11
71.32569000000002
 21
-295.716525
 31
0.0
  0
LINE
  5
14A0
  8
DETAIL
  6
CONTINUOUS
 62
     5
 10
81.63988999999995
 20
-270.0103619999998
 30
0.0
 11
81.61697699999998
 21
-272.219808
 31
0.0
  0
LINE
  5
14A1
  8
DETAIL
  6
CONTINUOUS
 62
     5
 10
81.63988999999995
 20
-270.0103619999998
 30
0.0
 11
81.46908399999995
 21
-286.4807799999999
 31
0.0
  0
ARC
  5
14A2
  8
DETAIL
  6
CONTINUOUS
 62
     5
 10
83.44032899999998
 20
-270.732115
 30
0.0
 40
1.506521999999999
 50
269.405835
 51
359.4058350000008
  0
LINE
  5
14A3
  8
DETAIL
  6
CONTINUOUS
 62
     5
 10
84.95405999999997
 20
-270.044732
 30
0.0
 11
84.94676899999996
 21
-270.7477369999998
 31
0.0
  0
LINE
  5
14A4
  8
DETAIL
  6
CONTINUOUS
 62
     5
 10
83.424706
 20
-272.238555
 30
0.0
 11
81.61697699999998
 21
-272.219808
 31
0.0
  0
ARC
  5
14A5
  8
DETAIL
  6
CONTINUOUS
 62
     5
 10
72.12062799999998
 20
-286.380286
 30
0.0
 40
9.348996
 50
271.2826459999999
 51
359.3841040000007
  0
LINE
  5
14A6
  8
DETAIL
  6
CONTINUOUS
 62
     5
 10
138.097822
 20
-261.130428
 30
0.0
 11
150.022804
 21
-261.130428
 31
0.0
  0
LINE
  5
14A7
  8
DETAIL
  6
CONTINUOUS
 62
     5
 10
138.097822
 20
-261.130428
 30
0.0
 11
138.097822
 21
-261.130428
 31
0.0
  0
LINE
  5
14A8
  8
DETAIL
  6
CONTINUOUS
 62
     5
 10
138.097822
 20
-229.995646
 30
0.0
 11
159.436137
 21
-228.9912979999999
 31
0.0
  0
LINE
  5
14A9
  8
DETAIL
  6
CONTINUOUS
 62
     5
 10
143.9632499999999
 20
-134.887745
 30
0.0
 11
86.14982799999996
 21
-120.872387
 31
0.0
  0
LINE
  5
14AA
  8
DETAIL
  6
CONTINUOUS
 62
     5
 10
86.55524799999998
 20
-100.120939
 30
0.0
 11
163.4367249999999
 21
-118.8651679999999
 31
0.0
  0
LINE
  5
14AB
  8
DETAIL
  6
CONTINUOUS
 62
     5
 10
223.3488529999999
 20
-95.0
 30
0.0
 11
8.536955999999998
 21
-95.0
 31
0.0
  0
LINE
  5
14AC
  8
DETAIL
  6
CONTINUOUS
 62
     5
 10
85.79397399999998
 20
-103.2433889999996
 30
0.0
 11
166.065334
 21
-122.814095
 31
0.0
  0
ARC
  5
14AD
  8
DETAIL
  6
CONTINUOUS
 62
     5
 10
58.240587
 20
-127.275647
 30
0.0
 40
1.506521999999999
 50
90.17321499999996
 51
180.1732149999987
  0
LINE
  5
14AE
  8
DETAIL
  6
CONTINUOUS
 62
     5
 10
56.739538
 20
-129.0880189999994
 30
0.0
 11
65.778627
 21
-129.0606929999997
 31
0.0
  0
LINE
  5
14AF
  8
DETAIL
  6
CONTINUOUS
 62
     5
 10
78.46941499999997
 20
-133.3410409999999
 30
0.0
 11
0.003857
 21
-133.618545
 31
0.0
  0
LINE
  5
14B0
  8
DETAIL
  6
CONTINUOUS
 62
     5
 10
72.31284799999999
 20
-131.049643
 30
0.0
 11
0.000222
 21
-131.28299
 31
0.0
  0
LINE
  5
14B1
  8
DETAIL
  6
CONTINUOUS
 62
     5
 10
14.06086899999999
 20
-95.0
 30
0.0
 11
69.00825300000001
 21
-95.0
 31
0.0
  0
LINE
  5
14B2
  8
DETAIL
  6
CONTINUOUS
 62
     5
 10
56.734073
 20
-127.280202
 30
0.0
 11
56.739538
 21
-129.0880189999994
 31
0.0
  0
LINE
  5
14B3
  8
DETAIL
  6
CONTINUOUS
 62
     5
 10
39.672741
 20
-130.243133
 30
0.0
 11
41.096648
 21
-131.1440149999999
 31
0.0
  0
LINE
  5
14B4
  8
DETAIL
  6
CONTINUOUS
 62
     5
 10
37.91905599999999
 20
-129.1449169999999
 30
0.0
 11
39.672741
 21
-130.243133
 31
0.0
  0
ARC
  5
14B5
  8
DETAIL
  6
CONTINUOUS
 62
     5
 10
11.54182999999999
 20
-128.4758309999999
 30
0.0
 40
1.807826
 50
335.7034139999997
 51
0.1732150000007648
  0
ARC
  5
14B6
  8
DETAIL
  6
CONTINUOUS
 62
     5
 10
11.53658499999998
 20
-128.510736
 30
0.0
 40
1.807826
 50
335.5301989999996
 51
0.0
  0
LINE
  5
14B7
  8
DETAIL
  6
CONTINUOUS
 62
     5
 10
13.344411
 20
-126.748662
 30
0.0
 11
13.344411
 21
-128.510736
 31
0.0
  0
LINE
  5
14B8
  8
DETAIL
  6
CONTINUOUS
 62
     5
 10
25.27715
 20
-117.2456929999996
 30
0.0
 11
26.108553
 21
-126.7486639999999
 31
0.0
  0
LINE
  5
14B9
  8
DETAIL
  6
CONTINUOUS
 62
     5
 10
20.71217799999999
 20
-112.6807139999999
 30
0.0
 11
15.05303299999999
 21
-112.185606
 31
0.0
  0
LINE
  5
14BA
  8
DETAIL
  6
CONTINUOUS
 62
     5
 10
14.048731
 20
-95.412957
 30
0.0
 11
14.048731
 21
-104.150867
 31
0.0
  0
LINE
  5
14BB
  8
DETAIL
  6
CONTINUOUS
 62
     5
 10
13.044383
 20
-110.169237
 30
0.0
 11
13.044383
 21
-109.6747719999999
 31
0.0
  0
ARC
  5
14BC
  8
DETAIL
  6
CONTINUOUS
 62
     5
 10
15.05307099999999
 20
-110.169237
 30
0.0
 40
2.008694999999999
 50
180.0
 51
265.0000279999998
  0
LINE
  5
14BD
  8
DETAIL
  6
CONTINUOUS
 62
     5
 10
10.03133899999999
 20
-107.666084
 30
0.0
 11
14.048731
 21
-107.666084
 31
0.0
  0
LINE
  5
14BE
  8
DETAIL
  6
CONTINUOUS
 62
     5
 10
14.048731
 20
-107.666084
 30
0.0
 11
14.048731
 21
-105.1552149999996
 31
0.0
  0
LINE
  5
14BF
  8
DETAIL
  6
CONTINUOUS
 62
     5
 10
10.03133899999999
 20
-109.6747719999999
 30
0.0
 11
10.03133899999999
 21
-107.666084
 31
0.0
  0
LINE
  5
14C0
  8
DETAIL
  6
CONTINUOUS
 62
     5
 10
13.044383
 20
-105.1552149999996
 30
0.0
 11
14.048731
 21
-104.150867
 31
0.0
  0
ARC
  5
14C1
  8
DETAIL
  6
CONTINUOUS
 62
     5
 10
20.274504
 20
-117.683387
 30
0.0
 40
5.021736999999999
 50
5.000190000000051
 51
85.00000999999999
  0
LINE
  5
14C2
  8
DETAIL
  6
CONTINUOUS
 62
     5
 10
24.63846299999999
 20
-115.198693
 30
0.0
 11
0.011394
 21
-115.21125
 31
0.0
  0
LINE
  5
14C3
  8
DETAIL
  6
CONTINUOUS
 62
     5
 10
13.044383
 20
-109.6747719999999
 30
0.0
 11
0.030717
 21
-109.6747719999999
 31
0.0
  0
LINE
  5
14C4
  8
DETAIL
  6
CONTINUOUS
 62
     5
 10
0.030717
 20
-105.1552149999996
 30
0.0
 11
14.048731
 21
-105.1552149999996
 31
0.0
  0
LINE
  5
14C5
  8
DETAIL
  6
CONTINUOUS
 62
     5
 10
0.030717
 20
-104.150867
 30
0.0
 11
14.048731
 21
-104.150867
 31
0.0
  0
ARC
  5
14C6
  8
DETAIL
  6
CONTINUOUS
 62
     5
 10
64.26664699999998
 20
-127.257429
 30
0.0
 40
1.506521999999999
 50
0.1732149999986607
 51
90.17321500000021
  0
LINE
  5
14C7
  8
DETAIL
  6
CONTINUOUS
 62
     5
 10
58.236033
 20
-125.769132
 30
0.0
 11
64.26209200000001
 21
-125.750914
 31
0.0
  0
LINE
  5
14C8
  8
DETAIL
  6
CONTINUOUS
 62
     5
 10
81.724675
 20
-154.623471
 30
0.0
 11
81.75200199999998
 21
-163.66256
 31
0.0
  0
ARC
  5
14C9
  8
DETAIL
  6
CONTINUOUS
 62
     5
 10
83.53704799999997
 20
-156.1245199999999
 30
0.0
 40
1.506521999999999
 50
0.1732149999986607
 51
90.17321500000021
  0
LINE
  5
14CA
  8
DETAIL
  6
CONTINUOUS
 62
     5
 10
85.04356199999998
 20
-156.1199659999996
 30
0.0
 11
85.06178
 21
-162.146025
 31
0.0
  0
LINE
  5
14CB
  8
DETAIL
  6
CONTINUOUS
 62
     5
 10
83.53249299999996
 20
-154.618005
 30
0.0
 11
81.724675
 21
-154.623471
 31
0.0
  0
LINE
  5
14CC
  8
DETAIL
  6
CONTINUOUS
 62
     5
 10
83.55982000000002
 20
-163.657094
 30
0.0
 11
81.75200199999998
 21
-163.66256
 31
0.0
  0
LINE
  5
14CD
  8
DETAIL
  6
CONTINUOUS
 62
     5
 10
69.29382800000002
 20
-129.050065
 30
0.0
 11
71.30858699999999
 21
-131.052679
 31
0.0
  0
LINE
  5
14CE
  8
DETAIL
  6
CONTINUOUS
 62
     5
 10
65.773161
 20
-127.2528749999999
 30
0.0
 11
65.778627
 21
-129.0606929999997
 31
0.0
  0
ARC
  5
14CF
  8
DETAIL
  6
CONTINUOUS
 62
     5
 10
72.34116800000002
 20
-140.390035
 30
0.0
 40
9.340435
 50
0.1732150000007648
 51
90.17321499999996
  0
ARC
  5
14D0
  8
DETAIL
  6
CONTINUOUS
 62
     5
 10
83.555265
 20
-162.150579
 30
0.0
 40
1.506521999999999
 50
270.1732150000002
 51
0.1732149999986607
  0
LINE
  5
14D1
  8
DETAIL
  6
CONTINUOUS
 62
     5
 10
74.58012499999998
 20
-94.483755
 30
0.0
 11
86.55526999999996
 21
-100.1209489999999
 31
0.0
  0
LINE
  5
14D2
  8
DETAIL
  6
CONTINUOUS
 62
     5
 10
69.00825300000001
 20
-95.412957
 30
0.0
 11
86.77801399999996
 21
-103.777943
 31
0.0
  0
ARC
  5
14D3
  8
DETAIL
  6
CONTINUOUS
 62
     5
 10
-19.65790499999997
 20
-108.4254889999999
 30
0.0
 40
106.537315
 50
353.6045749999997
 51
2.660626000000053
  0
LINE
  5
14D4
  8
DETAIL
  6
CONTINUOUS
 62
     5
 10
223.3488529999999
 20
-34.14781899999999
 30
0.0
 11
223.3488529999999
 21
-158.686952
 31
0.0
  0
LINE
  5
14D5
  8
DETAIL
  6
CONTINUOUS
 62
     5
 10
229.7404829999999
 20
-26.113043
 30
0.0
 11
229.7404829999999
 21
-158.686952
 31
0.0
  0
ARC
  5
14D6
  8
DETAIL
  6
CONTINUOUS
 62
     5
 10
79.496302
 20
-266.432773
 30
0.0
 40
188.46521
 50
59.86859799999998
 51
65.45365799999999
  0
ARC
  5
14D7
  8
DETAIL
  6
CONTINUOUS
 62
     5
 10
168.1862549999999
 20
-112.364346
 30
0.0
 40
10.662812
 50
258.5268800000001
 51
55.81536399999997
  0
ARC
  5
14D8
  8
DETAIL
  6
CONTINUOUS
 62
     5
 10
165.815709
 20
-109.10751
 30
0.0
 40
10.043478
 50
256.29821
 51
34.39737700000005
  0
ARC
  5
14D9
  8
DETAIL
  6
CONTINUOUS
 62
     5
 10
134.4982909999998
 20
-173.930755
 30
0.0
 40
40.17389
 50
27.92567500000003
 51
76.37302599999995
  0
LINE
  5
14DA
  8
DETAIL
  6
CONTINUOUS
 62
     5
 10
228.4389109999999
 20
-34.14783099999999
 30
0.0
 11
229.9956499999999
 21
-33.243919
 31
0.0
  0
LINE
  5
14DB
  8
DETAIL
  6
CONTINUOUS
 62
     5
 10
229.9956459999999
 20
-26.113043
 30
0.0
 11
210.310429
 21
-26.113043
 31
0.0
  0
LINE
  5
14DC
  8
DETAIL
  6
DASHED
 62
     5
 10
225.174777
 20
-10.244353
 30
0.0
 11
225.174777
 21
-10.043478
 31
0.0
  0
LINE
  5
14DD
  8
DETAIL
  6
DASHED
 62
     5
 10
215.1312989999998
 20
-10.043478
 30
0.0
 11
225.174777
 21
-10.043478
 31
0.0
  0
LINE
  5
14DE
  8
DETAIL
  6
DASHED
 62
     5
 10
215.1312989999998
 20
-10.244353
 30
0.0
 11
215.1312989999998
 21
-10.043478
 31
0.0
  0
LINE
  5
14DF
  8
DETAIL
  6
DASHED
 62
     5
 10
215.6334729999999
 20
-10.244353
 30
0.0
 11
215.6334729999999
 21
-10.043478
 31
0.0
  0
LINE
  5
14E0
  8
DETAIL
  6
DASHED
 62
     5
 10
224.6726029999999
 20
-10.244353
 30
0.0
 11
224.6726029999999
 21
-10.043478
 31
0.0
  0
LINE
  5
14E1
  8
DETAIL
  6
DASHED
 62
     5
 10
228.438917
 20
-10.244353
 30
0.0
 11
211.8671589999999
 21
-10.244353
 31
0.0
  0
ARC
  5
14E2
  8
DETAIL
  6
CONTINUOUS
 62
     5
 10
227.5349919999999
 20
-30.346616
 30
0.0
 40
3.801200999999999
 50
229.6590239999998
 51
269.999982
  0
ARC
  5
14E3
  8
DETAIL
  6
CONTINUOUS
 62
     5
 10
220.1530379999999
 20
-20.298973
 30
0.0
 40
13.848846
 50
249.184571
 51
290.8153389999998
  0
ARC
  5
14E4
  8
DETAIL
  6
CONTINUOUS
 62
     5
 10
212.7710839999995
 20
-30.346616
 30
0.0
 40
3.801200999999999
 50
269.999982
 51
310.3409370000001
  0
LINE
  5
14E5
  8
DETAIL
  6
CONTINUOUS
 62
     5
 10
228.438917
 20
-34.14781899999999
 30
0.0
 11
211.8671589999999
 21
-34.14781899999999
 31
0.0
  0
LINE
  5
14E6
  8
DETAIL
  6
CONTINUOUS
 62
     5
 10
225.074341
 20
-26.11304399999999
 30
0.0
 11
225.074341
 21
-33.243912
 31
0.0
  0
LINE
  5
14E7
  8
DETAIL
  6
CONTINUOUS
 62
     5
 10
215.2317349999998
 20
-26.113042
 30
0.0
 11
215.2317349999998
 21
-33.243912
 31
0.0
  0
LINE
  5
14E8
  8
DETAIL
  6
CONTINUOUS
 62
     5
 10
203.10869
 20
-20.086956
 30
0.0
 11
203.10869
 21
-26.113043
 31
0.0
  0
LINE
  5
14E9
  8
DETAIL
  6
CONTINUOUS
 62
     5
 10
210.310429
 20
-26.113043
 30
0.0
 11
210.310429
 21
-33.243912
 31
0.0
  0
LINE
  5
14EA
  8
DETAIL
  6
CONTINUOUS
 62
     5
 10
210.3104249999999
 20
-33.243919
 30
0.0
 11
211.867165
 21
-34.14783099999999
 31
0.0
  0
LINE
  5
14EB
  8
DETAIL
  6
CONTINUOUS
 62
     5
 10
229.9956459999999
 20
-33.243912
 30
0.0
 11
229.9956459999999
 21
-26.113043
 31
0.0
  0
ARC
  5
14EC
  8
DETAIL
  6
CONTINUOUS
 62
     5
 10
307.1295569999999
 20
-44.79239299999998
 30
0.0
 40
50.21739
 50
180.0
 51
242.6795559999999
  0
LINE
  5
14ED
  8
DETAIL
  6
CONTINUOUS
 62
     5
 10
252.4662799999999
 20
-26.113043
 30
0.0
 11
252.4662799999999
 21
-158.686952
 31
0.0
  0
LINE
  5
14EE
  8
DETAIL
  6
CONTINUOUS
 62
     5
 10
300.8246399999996
 20
-95.0
 30
0.0
 11
252.4662799999999
 21
-95.0
 31
0.0
  0
LINE
  5
14EF
  8
DETAIL
  6
CONTINUOUS
 62
     5
 10
300.8021659999999
 20
-88.97399699999998
 30
0.0
 11
252.4662799999999
 21
-88.97399699999998
 31
0.0
  0
ARC
  5
14F0
  8
DETAIL
  6
CONTINUOUS
 62
     5
 10
300.8021659999999
 20
-91.98704
 30
0.0
 40
3.013043
 50
270.4273630000001
 51
90.0
  0
ARC
  5
14F1
  8
DETAIL
  6
CONTINUOUS
 62
     5
 10
287.3504040000001
 20
-16.113858
 30
0.0
 40
3.910708999999999
 50
276.4255910000001
 51
0.6489520000000354
  0
ARC
  5
14F2
  8
DETAIL
  6
CONTINUOUS
 62
     5
 10
286.1180219999997
 20
-16.11204599999998
 30
0.0
 40
3.915061999999999
 50
276.7464110000004
 51
0.6217159999996397
  0
ARC
  5
14F3
  8
DETAIL
  6
CONTINUOUS
 62
     5
 10
294.1356610000001
 20
-14.09625
 30
0.0
 40
4.102959999999999
 50
91.20738499999969
 51
179.5059229999997
  0
LINE
  5
14F4
  8
DETAIL
  6
CONTINUOUS
 62
     5
 10
290.0328529999996
 20
-14.060869
 30
0.0
 11
290.0328529999996
 21
-16.069565
 31
0.0
  0
LINE
  5
14F5
  8
DETAIL
  6
CONTINUOUS
 62
     5
 10
249.980646
 20
-20.086956
 30
0.0
 11
249.980646
 21
-26.113043
 31
0.0
  0
LINE
  5
14F6
  8
DETAIL
  6
CONTINUOUS
 62
     5
 10
261.3435439999997
 20
-26.113043
 30
0.0
 11
261.3435439999997
 21
-20.086956
 31
0.0
  0
LINE
  5
14F7
  8
DETAIL
  6
CONTINUOUS
 62
     5
 10
272.706442
 20
-26.113043
 30
0.0
 11
272.706442
 21
-20.086956
 31
0.0
  0
ARC
  5
14F8
  8
DETAIL
  6
CONTINUOUS
 62
     5
 10
278.3957789999999
 20
-48.745295
 30
0.0
 40
28.762595
 50
91.98729300000001
 51
101.408532
  0
LINE
  5
14F9
  8
DETAIL
  6
CONTINUOUS
 62
     5
 10
265.504697
 20
-26.113043
 30
0.0
 11
252.4662799999999
 21
-26.113043
 31
0.0
  0
LINE
  5
14FA
  8
DETAIL
  6
DASHED
 62
     5
 10
260.6838279999999
 20
-10.244353
 30
0.0
 11
260.6838279999999
 21
-10.043478
 31
0.0
  0
LINE
  5
14FB
  8
DETAIL
  6
DASHED
 62
     5
 10
250.6403499999999
 20
-10.043478
 30
0.0
 11
260.6838279999999
 21
-10.043478
 31
0.0
  0
LINE
  5
14FC
  8
DETAIL
  6
DASHED
 62
     5
 10
250.6403499999999
 20
-10.244353
 30
0.0
 11
250.6403499999999
 21
-10.043478
 31
0.0
  0
LINE
  5
14FD
  8
DETAIL
  6
DASHED
 62
     5
 10
251.1425239999999
 20
-10.244353
 30
0.0
 11
251.1425239999999
 21
-10.043478
 31
0.0
  0
LINE
  5
14FE
  8
DETAIL
  6
DASHED
 62
     5
 10
260.1816539999998
 20
-10.244353
 30
0.0
 11
260.1816539999998
 21
-10.043478
 31
0.0
  0
LINE
  5
14FF
  8
DETAIL
  6
DASHED
 62
     5
 10
263.9479679999999
 20
-10.244353
 30
0.0
 11
247.3762099999999
 21
-10.244353
 31
0.0
  0
ARC
  5
1500
  8
DETAIL
  6
CONTINUOUS
 62
     5
 10
276.9991229999999
 20
-40.173912
 30
0.0
 40
20.086956
 50
162.54238
 51
180.0
  0
ARC
  5
1501
  8
DETAIL
  6
CONTINUOUS
 62
     5
 10
255.6620889999999
 20
-20.298973
 30
0.0
 40
13.848846
 50
256.6579700000002
 51
290.8153389999998
  0
LINE
  5
1502
  8
DETAIL
  6
CONTINUOUS
 62
     5
 10
263.947962
 20
-34.14783099999999
 30
0.0
 11
265.5047009999998
 21
-33.243919
 31
0.0
  0
ARC
  5
1503
  8
DETAIL
  6
CONTINUOUS
 62
     5
 10
263.044043
 20
-30.346616
 30
0.0
 40
3.801200999999999
 50
229.6590239999995
 51
269.999982
  0
LINE
  5
1504
  8
DETAIL
  6
CONTINUOUS
 62
     5
 10
263.9479679999999
 20
-34.14781899999999
 30
0.0
 11
252.4662799999999
 21
-34.14781899999999
 31
0.0
  0
LINE
  5
1505
  8
DETAIL
  6
CONTINUOUS
 62
     5
 10
256.9121669999998
 20
-44.79239299999998
 30
0.0
 11
256.9121669999998
 21
-40.173912
 31
0.0
  0
LINE
  5
1506
  8
DETAIL
  6
CONTINUOUS
 62
     5
 10
260.5833919999999
 20
-26.11304399999999
 30
0.0
 11
260.5833919999999
 21
-33.243912
 31
0.0
  0
LINE
  5
1507
  8
DETAIL
  6
CONTINUOUS
 62
     5
 10
265.504697
 20
-33.243912
 30
0.0
 11
265.504697
 21
-26.113043
 31
0.0
  0
ARC
  5
1508
  8
DETAIL
  6
CONTINUOUS
 62
     5
 10
303.6409759999997
 20
-6.13806
 30
0.0
 40
3.855031999999999
 50
265.4627249999999
 51
335.5069980000001
  0
ARC
  5
1509
  8
DETAIL
  6
CONTINUOUS
 62
     5
 10
307.3765089999999
 20
-6.427825999999999
 30
0.0
 40
1.305652
 50
270.0
 51
343.2451950000002
  0
LINE
  5
150A
  8
DETAIL
  6
CONTINUOUS
 62
     5
 10
309.7792689999999
 20
-2.975918999999998
 30
0.0
 11
308.6267319999999
 21
-6.804214999999999
 31
0.0
  0
LINE
  5
150B
  8
DETAIL
  6
CONTINUOUS
 62
     5
 10
291.2608619999999
 20
-16.069565
 30
0.0
 11
291.2608619999999
 21
-14.060869
 31
0.0
  0
ARC
  5
150C
  8
DETAIL
  6
CONTINUOUS
 62
     5
 10
295.3636689999998
 20
-14.09625
 30
0.0
 40
4.102959999999999
 50
91.19287900000002
 51
179.5059229999997
  0
LINE
  5
150D
  8
NOTE
  6
CONTINUOUS
 62
     4
 39
50.0
 10
327.5408459999996
 20
97.974938
 30
0.0
 11
279.9999999999999
 21
0.000021
 31
0.0
  0
LINE
  5
150E
  8
NOTE
  6
CONTINUOUS
 62
     4
 39
50.0
 10
602.2501419999998
 20
97.974938
 30
0.0
 11
327.5408459999996
 21
97.974938
 31
0.0
  0
TEXT
  5
150F
  8
NOTE
  6
CONTINUOUS
 62
     4
 10
335.3519659999999
 20
116.711778
 30
0.0
 40
64.0
  1
4-φ14
 41
0.9
  0
LINE
  5
1510
  8
NOTE
  6
CONTINUOUS
 62
     4
 10
305.581891
 20
30.750092
 30
0.0
 11
279.9999999999999
 21
0.000021
 31
0.0
  0
LINE
  5
1511
  8
NOTE
  6
CONTINUOUS
 62
     4
 10
279.9999999999999
 20
0.000021
 30
0.0
 11
286.7795319999997
 21
39.421309
 31
0.0
  0
TEXT
  5
1512
  8
ETC
  6
CONTINUOUS
 62
    61
 10
219.3243084374788
 20
469.1145118775243
 30
0.0
 40
50.0
  1
EF-50FTB3-PR_6
 41
0.9
  0
TEXT
  5
1513
  8
ETC
  6
CONTINUOUS
 62
    61
 10
219.3243084374788
 20
400.2002595498121
 30
0.0
 40
50.0
  1
産業扇
 41
0.9
  0
TEXT
  5
1514
  8
ETC
  6
CONTINUOUS
 62
    61
 10
261.7061136426689
 20
337.4569425498123
 30
0.0
 40
40.0
  1
EF-50FTB3-PR
 41
0.9
  0
LINE
  5
1515
  8
DETAIL
  6
CONTINUOUS
 62
     5
 10
-98.99999999999999
 20
-177.9695589999995
 30
0.0
 11
99.00000000000006
 21
-177.969559
 31
0.0
  0
LINE
  5
1516
  8
DETAIL
  6
CONTINUOUS
 62
     5
 10
0.0
 20
-223.9695589999997
 30
0.0
 11
0.0000000000000198
 21
-177.9695589999995
 31
0.0
  0
LINE
  5
1517
  8
DETAIL
  6
CONTINUOUS
 62
     5
 10
-11.99999999999999
 20
-223.9695589999997
 30
0.0
 11
-11.99999999999996
 21
-177.9695589999995
 31
0.0
  0
LINE
  5
1518
  8
DETAIL
  6
CONTINUOUS
 62
     5
 10
-23.99999999999999
 20
-223.9695589999997
 30
0.0
 11
-23.99999999999996
 21
-177.9695589999995
 31
0.0
  0
LINE
  5
1519
  8
DETAIL
  6
CONTINUOUS
 62
     5
 10
11.99999999999999
 20
-223.9695589999997
 30
0.0
 11
11.99999999999999
 21
-177.9695589999995
 31
0.0
  0
LINE
  5
151A
  8
DETAIL
  6
CONTINUOUS
 62
     5
 10
24.0
 20
-223.9695589999997
 30
0.0
 11
24.0
 21
-177.9695589999995
 31
0.0
  0
LINE
  5
151B
  8
DETAIL
  6
CONTINUOUS
 62
     5
 10
29.0
 20
-223.9695589999997
 30
0.0
 11
29.0
 21
-177.9695589999995
 31
0.0
  0
LINE
  5
151C
  8
DETAIL
  6
CONTINUOUS
 62
     5
 10
-28.99999999999999
 20
-223.9695589999997
 30
0.0
 11
-28.99999999999996
 21
-177.9695589999995
 31
0.0
  0
LINE
  5
151D
  8
DETAIL
  6
CONTINUOUS
 62
     5
 10
-40.99999999999999
 20
-223.9695589999997
 30
0.0
 11
-40.99999999999994
 21
-177.9695589999995
 31
0.0
  0
LINE
  5
151E
  8
DETAIL
  6
CONTINUOUS
 62
     5
 10
-52.99999999999998
 20
-223.9695589999997
 30
0.0
 11
-52.99999999999998
 21
-177.9695589999995
 31
0.0
  0
LINE
  5
151F
  8
DETAIL
  6
CONTINUOUS
 62
     5
 10
41.0
 20
-223.9695589999997
 30
0.0
 11
41.0
 21
-177.9695589999995
 31
0.0
  0
LINE
  5
1520
  8
DETAIL
  6
CONTINUOUS
 62
     5
 10
53.00000000000002
 20
-223.9695589999997
 30
0.0
 11
53.00000000000002
 21
-177.9695589999995
 31
0.0
  0
LINE
  5
1521
  8
DETAIL
  6
CONTINUOUS
 62
     5
 10
-57.99999999999998
 20
-223.9695589999997
 30
0.0
 11
-57.99999999999998
 21
-177.9695589999995
 31
0.0
  0
LINE
  5
1522
  8
DETAIL
  6
CONTINUOUS
 62
     5
 10
58.00000000000002
 20
-223.9695589999997
 30
0.0
 11
58.00000000000002
 21
-177.9695589999995
 31
0.0
  0
LINE
  5
1523
  8
DETAIL
  6
CONTINUOUS
 62
     5
 10
-70.0
 20
-223.9695589999997
 30
0.0
 11
-69.99999999999997
 21
-177.9695589999995
 31
0.0
  0
LINE
  5
1524
  8
DETAIL
  6
CONTINUOUS
 62
     5
 10
-82.0
 20
-223.9695589999997
 30
0.0
 11
-81.99999999999997
 21
-177.9695589999995
 31
0.0
  0
LINE
  5
1525
  8
DETAIL
  6
CONTINUOUS
 62
     5
 10
70.0
 20
-223.9695589999997
 30
0.0
 11
70.00000000000003
 21
-177.9695589999995
 31
0.0
  0
LINE
  5
1526
  8
DETAIL
  6
CONTINUOUS
 62
     5
 10
81.99999999999997
 20
-223.9695589999997
 30
0.0
 11
82.00000000000003
 21
-177.9695589999995
 31
0.0
  0
LINE
  5
1527
  8
DETAIL
  6
CONTINUOUS
 62
     5
 10
-87.0
 20
-223.9695589999997
 30
0.0
 11
-86.99999999999996
 21
-177.9695589999995
 31
0.0
  0
LINE
  5
1528
  8
DETAIL
  6
CONTINUOUS
 62
     5
 10
86.99999999999996
 20
-223.9695589999997
 30
0.0
 11
87.00000000000003
 21
-177.9695589999995
 31
0.0
  0
LINE
  5
1529
  8
DETAIL
  6
CONTINUOUS
 62
     5
 10
-98.99999999999999
 20
-223.9695589999997
 30
0.0
 11
-98.99999999999999
 21
-177.9695589999995
 31
0.0
  0
LINE
  5
152A
  8
DETAIL
  6
CONTINUOUS
 62
     5
 10
99.0
 20
-223.9695589999997
 30
0.0
 11
99.00000000000006
 21
-177.9695589999995
 31
0.0
  0
LINE
  5
152B
  8
OUTLINE
  6
CONTINUOUS
 62
     3
 10
-223.3488529999999
 20
-88.97361428906326
 30
0.0
 11
222.8929219710603
 21
-88.97361428906326
 31
0.0
  0
LINE
  5
152C
  8
OUTLINE
  6
CONTINUOUS
 62
     3
 10
222.8929219710603
 20
-94.99961728906328
 30
0.0
 11
-223.3488529999999
 21
-94.99961728906328
 31
0.0
  0
POINT
  5
152D
  8
ARRANGE
  6
CONTINUOUS
 62
     1
 10
-0.4559310289395929
 20
0.0003827109367194
 30
0.0
  0
LINE
  5
152E
  8
OUTLINE
  6
CONTINUOUS
 62
     3
 10
307.3264839710604
 20
0.0003827109367194
 30
0.0
 11
-0.4559310289395929
 21
0.0003827109367194
 31
0.0
  0
LINE
  5
152F
  8
OUTLINE
  6
CONTINUOUS
 62
     3
 10
137.6418909710604
 20
-261.1300452890631
 30
0.0
 11
-15.52114802893959
 21
-261.1300452890631
 31
0.0
  0
LINE
  5
1530
  8
OUTLINE
  6
CONTINUOUS
 62
     3
 10
307.1356579710601
 20
-7.73309528906327
 30
0.0
 11
-0.4559310289395929
 21
-7.73309528906327
 31
0.0
  0
LINE
  5
1531
  8
OUTLINE
  6
CONTINUOUS
 62
     3
 10
302.8800819710603
 20
-9.980628289063247
 30
0.0
 11
-0.8116170289395925
 21
-9.993796289063312
 31
0.0
  0
LINE
  5
1532
  8
OUTLINE
  6
CONTINUOUS
 62
     3
 10
286.7875389710601
 20
-20.08657328906326
 30
0.0
 11
-0.4559310289395929
 21
-20.08657328906326
 31
0.0
  0
LINE
  5
1533
  8
OUTLINE
  6
CONTINUOUS
 62
     3
 10
137.6418909710604
 20
-229.9952632890632
 30
0.0
 11
-123.0922360289395
 21
-229.9952632890632
 31
0.0
  0
LINE
  5
1534
  8
OUTLINE
  6
CONTINUOUS
 62
     3
 10
68.8402599710604
 20
-297.7038992890632
 30
0.0
 11
-0.4559310289395929
 21
-296.9852612890631
 31
0.0
  0
LINE
  5
1535
  8
OUTLINE
  6
CONTINUOUS
 62
     3
 10
71.87396997106042
 20
-295.7265562890631
 30
0.0
 11
-0.4351010289395929
 21
-294.9766742890632
 31
0.0
  0
LINE
  5
1539
  8
OUTLINE
  6
CONTINUOUS
 62
     3
 10
-150.4787350289394
 20
-261.1300452890631
 30
0.0
 11
-15.52114802893959
 21
-261.1300452890631
 31
0.0
  0
LINE
  5
153A
  8
OUTLINE
  6
CONTINUOUS
 62
     3
 10
-123.0922360289395
 20
-229.9952632890632
 30
0.0
 11
-153.5004380289394
 21
-228.9909152890631
 31
0.0
  0
LINE
  5
153B
  8
OUTLINE
  6
CONTINUOUS
 62
     3
 10
-39.05654602893959
 20
-296.9852612890631
 30
0.0
 11
-39.05654602893959
 21
-297.2749602890633
 31
0.0
  0
LINE
  5
153C
  8
OUTLINE
  6
CONTINUOUS
 62
     3
 10
-48.49741502893957
 20
-296.9852612890631
 30
0.0
 11
-48.49741502893957
 21
-297.2749602890633
 31
0.0
  0
LINE
  5
153D
  8
OUTLINE
  6
CONTINUOUS
 62
     3
 10
-39.05654602893959
 20
-297.2749602890633
 30
0.0
 11
-48.49741502893957
 21
-297.2749602890633
 31
0.0
  0
LINE
  5
153E
  8
OUTLINE
  6
CONTINUOUS
 62
     3
 10
-66.24071202893958
 20
-296.9852612890631
 30
0.0
 11
-57.2015820289396
 21
-296.9852612890631
 31
0.0
  0
LINE
  5
153F
  8
OUTLINE
  6
CONTINUOUS
 62
     3
 10
-69.7558490289396
 20
-296.9852612890631
 30
0.0
 11
-0.4559310289395929
 21
-296.9852612890631
 31
0.0
  0
LINE
  5
1540
  8
OUTLINE
  6
CONTINUOUS
 62
     3
 10
-72.76889002893957
 20
-294.9765662890628
 30
0.0
 11
-0.4559310289395929
 21
-294.9765662890628
 31
0.0
  0
ARC
  5
1541
  8
OUTLINE
  6
CONTINUOUS
 62
     3
 10
-72.46270402893958
 20
-285.6325852890631
 30
0.0
 40
9.348996
 50
180.0217310000012
 51
268.123188
  0
LINE
  5
1542
  8
OUTLINE
  6
CONTINUOUS
 62
     3
 10
-83.61952502893959
 20
-271.3743932890629
 30
0.0
 11
-81.81169902893959
 21
-271.3743932890629
 31
0.0
  0
LINE
  5
1543
  8
OUTLINE
  6
CONTINUOUS
 62
     3
 10
-85.12604702893955
 20
-269.1648272890633
 30
0.0
 11
-85.12604702893955
 21
-269.8678712890631
 31
0.0
  0
ARC
  5
1544
  8
OUTLINE
  6
CONTINUOUS
 62
     3
 10
-83.61952502893959
 20
-269.8678712890631
 30
0.0
 40
1.506521999999999
 50
180.0
 51
270.0
  0
LINE
  5
1545
  8
OUTLINE
  6
CONTINUOUS
 62
     3
 10
-81.81169902893959
 20
-269.1648272890633
 30
0.0
 11
-81.81169902893959
 21
-285.6361312890632
 31
0.0
  0
LINE
  5
1546
  8
OUTLINE
  6
CONTINUOUS
 62
     3
 10
-81.81169902893959
 20
-269.1648272890633
 30
0.0
 11
-81.81169902893959
 21
-271.3743932890629
 31
0.0
  0
LINE
  5
1547
  8
OUTLINE
  6
CONTINUOUS
 62
     3
 10
-69.75592902893958
 20
-296.9852612890631
 30
0.0
 11
-71.76462502893956
 21
-294.9765662890628
 31
0.0
  0
LINE
  5
1548
  8
OUTLINE
  6
CONTINUOUS
 62
     3
 10
-40.14037002893959
 20
-295.8760432890631
 30
0.0
 11
-38.3810130289396
 21
-296.9852612890631
 31
0.0
  0
LINE
  5
1549
  8
OUTLINE
  6
CONTINUOUS
 62
     3
 10
-41.55254702893956
 20
-294.9765662890628
 30
0.0
 11
-40.14037002893959
 21
-295.8760432890631
 31
0.0
  0
LINE
  5
154A
  8
OUTLINE
  6
CONTINUOUS
 62
     3
 10
-48.49741502893957
 20
-296.9852612890631
 30
0.0
 11
-39.05654602893959
 21
-296.9852612890631
 31
0.0
  0
LINE
  5
154B
  8
OUTLINE
  6
CONTINUOUS
 62
     3
 10
-308.2466380289395
 20
0.0003817109367219
 30
0.0
 11
-0.4559310289395929
 21
0.0003827109367194
 31
0.0
  0
LINE
  5
154C
  8
OUTLINE
  6
CONTINUOUS
 62
     3
 10
-287.6994010289395
 20
-20.08657328906326
 30
0.0
 11
-0.4559310289395929
 21
-20.08657328906326
 31
0.0
  0
LINE
  5
154D
  8
OUTLINE
  6
CONTINUOUS
 62
     3
 10
-303.9698360289395
 20
-9.99961728906328
 30
0.0
 11
-0.4559310289395929
 21
-9.99961728906328
 31
0.0
  0
LINE
  5
154E
  8
OUTLINE
  6
CONTINUOUS
 62
     3
 10
-308.0577550289395
 20
-7.73309528906327
 30
0.0
 11
-0.4559310289395929
 21
-7.73309528906327
 31
0.0
  0
LINE
  5
154F
  8
OUTLINE
  6
CONTINUOUS
 62
     3
 10
-203.5646210289393
 20
-26.11266028906323
 30
0.0
 11
-273.1623730289396
 21
-26.11266028906323
 31
0.0
  0
LINE
  5
1550
  8
OUTLINE
  6
CONTINUOUS
 62
     3
 10
-203.5646210289393
 20
-20.08657328906326
 30
0.0
 11
-273.1623730289396
 21
-20.08657328906326
 31
0.0
  0
ARC
  5
1553
  8
OUTLINE
  6
CONTINUOUS
 62
     3
 10
-306.2807220289394
 20
-45.15802428906328
 30
0.0
 40
48.91399299999999
 50
296.3927509999999
 51
0.4287370000007439
  0
LINE
  5
1554
  8
OUTLINE
  6
CONTINUOUS
 62
     3
 10
-301.2805710289393
 20
-94.99961728906328
 30
0.0
 11
-252.9222110289395
 21
-94.99961728906328
 31
0.0
  0
LINE
  5
1555
  8
OUTLINE
  6
CONTINUOUS
 62
     3
 10
-301.2580970289395
 20
-88.97361428906326
 30
0.0
 11
-252.9222110289395
 21
-88.97361428906326
 31
0.0
  0
ARC
  5
1556
  8
OUTLINE
  6
CONTINUOUS
 62
     3
 10
-301.2580970289395
 20
-91.98665728906325
 30
0.0
 40
3.013043
 50
90.0
 51
269.5726369999999
  0
ARC
  5
1557
  8
OUTLINE
  6
CONTINUOUS
 62
     3
 10
-287.6994020289391
 20
-16.06918228906328
 30
0.0
 40
4.017390999999999
 50
180.0
 51
270.0
  0
ARC
  5
1558
  8
OUTLINE
  6
CONTINUOUS
 62
     3
 10
-286.4713930289395
 20
-16.06918228906328
 30
0.0
 40
4.017390999999999
 50
180.0
 51
269.9999990000001
  0
ARC
  5
1559
  8
OUTLINE
  6
CONTINUOUS
 62
     3
 10
-294.5802420289392
 20
-14.09116528906326
 30
0.0
 40
4.091573
 50
0.429616999999646
 51
90.19654600000031
  0
LINE
  5
155A
  8
OUTLINE
  6
CONTINUOUS
 62
     3
 10
-291.7167930289392
 20
-16.06918228906328
 30
0.0
 11
-291.7167930289392
 21
-14.0604862890633
 31
0.0
  0
ARC
  5
155B
  8
OUTLINE
  6
CONTINUOUS
 62
     3
 10
-295.8093830289395
 20
-14.09163528906321
 30
0.0
 40
4.092708
 50
0.4360640000000702
 51
88.94719799999977
  0
ARC
  5
155C
  8
OUTLINE
  6
CONTINUOUS
 62
     3
 10
-304.0757820289394
 20
-6.119095289063237
 30
0.0
 40
3.881968
 50
204.613319
 51
271.5639079999999
  0
LINE
  5
155D
  8
OUTLINE
  6
CONTINUOUS
 62
     3
 10
-310.4585720289394
 20
-2.975537289063252
 30
0.0
 11
-309.3060360289396
 21
-6.803833289063275
 31
0.0
  0
ARC
  5
155E
  8
OUTLINE
  6
CONTINUOUS
 62
     3
 10
-308.0558120289394
 20
-6.427444289063259
 30
0.0
 40
1.305652
 50
196.7548049999997
 51
270.0
  0
LINE
  5
155F
  8
OUTLINE
  6
CONTINUOUS
 62
     3
 10
-290.4887840289394
 20
-14.0604862890633
 30
0.0
 11
-290.4887840289394
 21
-16.06918228906328
 31
0.0
  0
ARC
  5
1560
  8
OUTLINE
  6
CONTINUOUS
 62
     3
 10
-308.2466380289395
 20
-2.309618289063223
 30
0.0
 40
2.31
 50
90.0
 51
196.754805
  0
LINE
  5
1561
  8
OUTLINE
  6
CONTINUOUS
 62
     3
 10
-250.4365770289395
 20
-20.08657328906326
 30
0.0
 11
-250.4365770289395
 21
-26.11266028906323
 31
0.0
  0
LINE
  5
1562
  8
OUTLINE
  6
CONTINUOUS
 62
     3
 10
-261.0393230289395
 20
-26.11266128906321
 30
0.0
 11
-261.0393230289395
 21
-33.24352928906328
 31
0.0
  0
ARC
  5
1563
  8
OUTLINE
  6
CONTINUOUS
 62
     3
 10
-277.4550540289395
 20
-40.17352928906325
 30
0.0
 40
20.086956
 50
0.0
 51
17.45762000000004
  0
ARC
  5
1564
  8
OUTLINE
  6
CONTINUOUS
 62
     3
 10
-256.1180200289396
 20
-20.29859028906332
 30
0.0
 40
13.848846
 50
249.1846609999999
 51
283.3420300000001
  0
LINE
  5
1565
  8
OUTLINE
  6
CONTINUOUS
 62
     3
 10
-257.3680980289394
 20
-44.79201028906328
 30
0.0
 11
-257.3680980289394
 21
-40.17352928906325
 31
0.0
  0
LINE
  5
1566
  8
OUTLINE
  6
CONTINUOUS
 62
     3
 10
-261.7994750289394
 20
-26.11266028906323
 30
0.0
 11
-261.7994750289394
 21
-20.08657328906326
 31
0.0
  0
LINE
  5
1567
  8
OUTLINE
  6
DASHED
 62
     3
 10
-261.1397590289395
 20
-10.2439702890633
 30
0.0
 11
-261.1397590289395
 21
-10.04309528906333
 31
0.0
  0
LINE
  5
1568
  8
OUTLINE
  6
DASHED
 62
     3
 10
-251.0962810289396
 20
-10.04309528906333
 30
0.0
 11
-261.1397590289395
 21
-10.04309528906333
 31
0.0
  0
LINE
  5
1569
  8
OUTLINE
  6
DASHED
 62
     3
 10
-251.0962810289396
 20
-10.2439702890633
 30
0.0
 11
-251.0962810289396
 21
-10.04309528906333
 31
0.0
  0
LINE
  5
156A
  8
OUTLINE
  6
DASHED
 62
     3
 10
-251.5984550289395
 20
-10.2439702890633
 30
0.0
 11
-251.5984550289395
 21
-10.04309528906333
 31
0.0
  0
LINE
  5
156B
  8
OUTLINE
  6
DASHED
 62
     3
 10
-260.6375850289394
 20
-10.2439702890633
 30
0.0
 11
-260.6375850289394
 21
-10.04309528906333
 31
0.0
  0
LINE
  5
156C
  8
OUTLINE
  6
CONTINUOUS
 62
     3
 10
-265.9606280289395
 20
-33.24352928906328
 30
0.0
 11
-265.9606280289395
 21
-26.11266028906323
 31
0.0
  0
LINE
  5
156D
  8
OUTLINE
  6
CONTINUOUS
 62
     3
 10
-264.4038930289395
 20
-34.14744828906327
 30
0.0
 11
-265.9606320289394
 21
-33.24353628906328
 31
0.0
  0
LINE
  5
156E
  8
OUTLINE
  6
CONTINUOUS
 62
     3
 10
-273.1623730289396
 20
-26.11266028906323
 30
0.0
 11
-273.1623730289396
 21
-20.08657328906326
 31
0.0
  0
ARC
  5
156F
  8
OUTLINE
  6
CONTINUOUS
 62
     3
 10
-277.4550540289395
 20
-40.17352928906325
 30
0.0
 40
20.086956
 50
77.660442
 51
90.0
  0
ARC
  5
1570
  8
OUTLINE
  6
CONTINUOUS
 62
     3
 10
-263.4999740289396
 20
-30.34623328906332
 30
0.0
 40
3.801200999999999
 50
270.000018
 51
310.3409759999997
  0
LINE
  5
1571
  8
OUTLINE
  6
CONTINUOUS
 62
     3
 10
-264.4038990289393
 20
-34.14743628906325
 30
0.0
 11
-252.9222110289395
 21
-34.14743628906325
 31
0.0
  0
LINE
  5
1572
  8
OUTLINE
  6
CONTINUOUS
 62
     3
 10
-265.9606280289395
 20
-26.11266028906323
 30
0.0
 11
-252.9222110289395
 21
-26.11266028906323
 31
0.0
  0
LINE
  5
1573
  8
OUTLINE
  6
DASHED
 62
     3
 10
-264.4038990289393
 20
-10.2439702890633
 30
0.0
 11
-247.8321410289395
 21
-10.2439702890633
 31
0.0
  0
LINE
  5
1575
  8
OUTLINE
  6
CONTINUOUS
 62
     3
 10
-210.7663600289394
 20
-26.11266028906323
 30
0.0
 11
-210.7663600289394
 21
-33.24352928906328
 31
0.0
  0
LINE
  5
1576
  8
OUTLINE
  6
CONTINUOUS
 62
     3
 10
-230.4515770289395
 20
-33.24352928906328
 30
0.0
 11
-230.4515770289395
 21
-26.11266028906323
 31
0.0
  0
LINE
  5
1577
  8
OUTLINE
  6
CONTINUOUS
 62
     3
 10
-225.5302720289395
 20
-26.11266128906321
 30
0.0
 11
-225.5302720289395
 21
-33.24352928906328
 31
0.0
  0
LINE
  5
1578
  8
OUTLINE
  6
CONTINUOUS
 62
     3
 10
-215.6876660289395
 20
-26.11265928906323
 30
0.0
 11
-215.6876660289395
 21
-33.24352928906328
 31
0.0
  0
LINE
  5
1579
  8
OUTLINE
  6
CONTINUOUS
 62
     3
 10
-210.7663560289395
 20
-33.24353628906328
 30
0.0
 11
-212.3230960289395
 21
-34.14744828906327
 31
0.0
  0
LINE
  5
157A
  8
OUTLINE
  6
CONTINUOUS
 62
     3
 10
-228.8948420289395
 20
-34.14744828906327
 30
0.0
 11
-230.4515810289393
 21
-33.24353628906328
 31
0.0
  0
ARC
  5
157B
  8
OUTLINE
  6
CONTINUOUS
 62
     3
 10
-227.9909230289395
 20
-30.34623328906332
 30
0.0
 40
3.801200999999999
 50
270.000018
 51
310.340976
  0
ARC
  5
157C
  8
OUTLINE
  6
CONTINUOUS
 62
     3
 10
-220.6089690289395
 20
-20.29859028906332
 30
0.0
 40
13.848846
 50
249.184661
 51
290.8154290000001
  0
ARC
  5
157D
  8
OUTLINE
  6
CONTINUOUS
 62
     3
 10
-213.2270150289391
 20
-30.34623328906332
 30
0.0
 40
3.801200999999999
 50
229.6590629999998
 51
270.000018
  0
LINE
  5
157E
  8
OUTLINE
  6
CONTINUOUS
 62
     3
 10
-228.8948480289395
 20
-34.14743628906325
 30
0.0
 11
-212.3230900289393
 21
-34.14743628906325
 31
0.0
  0
LINE
  5
157F
  8
OUTLINE
  6
CONTINUOUS
 62
     3
 10
-203.5646210289393
 20
-20.08657328906326
 30
0.0
 11
-203.5646210289393
 21
-26.11266028906323
 31
0.0
  0
LINE
  5
1580
  8
OUTLINE
  6
CONTINUOUS
 62
     3
 10
-230.4515770289395
 20
-26.11266028906323
 30
0.0
 11
-210.7663600289394
 21
-26.11266028906323
 31
0.0
  0
LINE
  5
1581
  8
OUTLINE
  6
DASHED
 62
     3
 10
-225.6307080289395
 20
-10.2439702890633
 30
0.0
 11
-225.6307080289395
 21
-10.04309528906333
 31
0.0
  0
LINE
  5
1582
  8
OUTLINE
  6
DASHED
 62
     3
 10
-215.5872300289395
 20
-10.04309528906333
 30
0.0
 11
-225.6307080289395
 21
-10.04309528906333
 31
0.0
  0
LINE
  5
1583
  8
OUTLINE
  6
DASHED
 62
     3
 10
-215.5872300289395
 20
-10.2439702890633
 30
0.0
 11
-215.5872300289395
 21
-10.04309528906333
 31
0.0
  0
LINE
  5
1584
  8
OUTLINE
  6
DASHED
 62
     3
 10
-216.0894040289395
 20
-10.2439702890633
 30
0.0
 11
-216.0894040289395
 21
-10.04309528906333
 31
0.0
  0
LINE
  5
1585
  8
OUTLINE
  6
DASHED
 62
     3
 10
-225.1285340289395
 20
-10.2439702890633
 30
0.0
 11
-225.1285340289395
 21
-10.04309528906333
 31
0.0
  0
LINE
  5
1586
  8
OUTLINE
  6
DASHED
 62
     3
 10
-228.8948480289395
 20
-10.2439702890633
 30
0.0
 11
-212.3230900289393
 21
-10.2439702890633
 31
0.0
  0
ARC
  5
158A
  8
OUTLINE
  6
CONTINUOUS
 62
     3
 10
71.29636859553753
 20
-285.5249834017806
 30
0.0
 40
10.21791182822664
 50
273.2405606149403
 51
354.6058802768802
  0
LINE
  5
158B
  8
OUTLINE
  6
CONTINUOUS
 62
     3
 10
68.84034097106041
 20
-297.7038992890632
 30
0.0
 11
70.86975897106043
 21
-295.7161422890631
 31
0.0
  0
LINE
  5
158C
  8
OUTLINE
  6
CONTINUOUS
 62
     3
 10
39.23787697106041
 20
-296.2876282890632
 30
0.0
 11
37.4671119710604
 21
-297.3785432890632
 31
0.0
  0
LINE
  5
158D
  8
OUTLINE
  6
CONTINUOUS
 62
     3
 10
65.32531297106041
 20
-297.6674472890632
 30
0.0
 11
56.28666897106042
 21
-297.5737112890632
 31
0.0
  0
LINE
  5
158E
  8
OUTLINE
  6
CONTINUOUS
 62
     3
 10
38.1426089710604
 20
-297.3855482890631
 30
0.0
 11
38.1396039710604
 21
-297.6752322890629
 31
0.0
  0
LINE
  5
158F
  8
OUTLINE
  6
CONTINUOUS
 62
     3
 10
47.58296997106041
 20
-297.4834502890633
 30
0.0
 11
47.5799659710604
 21
-297.773133289063
 31
0.0
  0
LINE
  5
1590
  8
OUTLINE
  6
CONTINUOUS
 62
     3
 10
47.58296997106041
 20
-297.4834502890633
 30
0.0
 11
38.1426089710604
 21
-297.3855482890631
 31
0.0
  0
LINE
  5
1591
  8
OUTLINE
  6
CONTINUOUS
 62
     3
 10
38.1396039710604
 20
-297.6752322890629
 30
0.0
 11
47.5799659710604
 21
-297.773133289063
 31
0.0
  0
LINE
  5
1592
  8
OUTLINE
  6
CONTINUOUS
 62
     3
 10
40.6593059710604
 20
-295.4028442890633
 30
0.0
 11
39.23787697106041
 21
-296.2876282890632
 31
0.0
  0
LINE
  5
1593
  8
OUTLINE
  6
CONTINUOUS
 62
     3
 10
82.96877497106043
 20
-272.2381722890633
 30
0.0
 11
81.6169319431589
 21
-272.2241530415311
 31
0.0
  0
LINE
  5
1594
  8
OUTLINE
  6
CONTINUOUS
 62
     3
 10
84.49812897106041
 20
-269.1660645951917
 30
-0.0000000000000028
 11
84.49083797106042
 21
-270.747354289063
 31
0.0
  0
ARC
  5
1595
  8
OUTLINE
  6
CONTINUOUS
 62
     3
 10
82.98439797106043
 20
-270.7317322890633
 30
0.0
 40
1.506521999999999
 50
269.405835
 51
359.4058350000008
  0
LINE
  5
1596
  8
OUTLINE
  6
CONTINUOUS
 62
     3
 10
137.6418909710604
 20
-229.9952632890632
 30
0.0
 11
158.9802059710604
 21
-228.9909152890631
 31
0.0
  0
LINE
  5
1597
  8
OUTLINE
  6
CONTINUOUS
 62
     3
 10
137.6418909710604
 20
-261.1300452890631
 30
0.0
 11
137.6418909710604
 21
-261.1300452890631
 31
0.0
  0
LINE
  5
1598
  8
OUTLINE
  6
CONTINUOUS
 62
     3
 10
137.6418909710604
 20
-261.1300452890631
 30
0.0
 11
149.5668729710604
 21
-261.1300452890631
 31
0.0
  0
LINE
  5
1599
  8
OUTLINE
  6
CONTINUOUS
 62
     3
 10
202.6527589710604
 20
-20.08657328906326
 30
0.0
 11
272.2505109710602
 21
-20.08657328906326
 31
0.0
  0
LINE
  5
159A
  8
OUTLINE
  6
CONTINUOUS
 62
     3
 10
202.6527589710604
 20
-26.11266028906323
 30
0.0
 11
272.2505109710602
 21
-26.11266028906323
 31
0.0
  0
LINE
  5
159D
  8
OUTLINE
  6
CONTINUOUS
 62
     3
 10
229.5397149710603
 20
-33.24352928906328
 30
0.0
 11
229.5397149710603
 21
-26.11266028906323
 31
0.0
  0
LINE
  5
159E
  8
OUTLINE
  6
CONTINUOUS
 62
     3
 10
209.8544939710604
 20
-33.24353628906328
 30
0.0
 11
211.4112339710604
 21
-34.14744828906327
 31
0.0
  0
LINE
  5
159F
  8
OUTLINE
  6
CONTINUOUS
 62
     3
 10
209.8544979710602
 20
-26.11266028906323
 30
0.0
 11
209.8544979710602
 21
-33.24352928906328
 31
0.0
  0
LINE
  5
15A0
  8
OUTLINE
  6
CONTINUOUS
 62
     3
 10
202.6527589710604
 20
-20.08657328906326
 30
0.0
 11
202.6527589710604
 21
-26.11266028906323
 31
0.0
  0
LINE
  5
15A1
  8
OUTLINE
  6
CONTINUOUS
 62
     3
 10
214.7758039710603
 20
-26.11265928906323
 30
0.0
 11
214.7758039710603
 21
-33.24352928906328
 31
0.0
  0
LINE
  5
15A2
  8
OUTLINE
  6
CONTINUOUS
 62
     3
 10
224.6184099710604
 20
-26.11266128906321
 30
0.0
 11
224.6184099710604
 21
-33.24352928906328
 31
0.0
  0
LINE
  5
15A3
  8
OUTLINE
  6
CONTINUOUS
 62
     3
 10
227.9829859710604
 20
-34.14743628906325
 30
0.0
 11
211.4112279710603
 21
-34.14743628906325
 31
0.0
  0
ARC
  5
15A4
  8
OUTLINE
  6
CONTINUOUS
 62
     3
 10
212.31515297106
 20
-30.34623328906332
 30
0.0
 40
3.801200999999999
 50
269.999982
 51
310.3409370000002
  0
ARC
  5
15A5
  8
OUTLINE
  6
CONTINUOUS
 62
     3
 10
219.6971069710604
 20
-20.29859028906332
 30
0.0
 40
13.848846
 50
249.184571
 51
290.8153389999998
  0
ARC
  5
15A6
  8
OUTLINE
  6
CONTINUOUS
 62
     3
 10
227.0790609710603
 20
-30.34623328906332
 30
0.0
 40
3.801200999999999
 50
229.6590239999998
 51
269.999982
  0
LINE
  5
15A7
  8
OUTLINE
  6
DASHED
 62
     3
 10
227.9829859710604
 20
-10.2439702890633
 30
0.0
 11
211.4112279710603
 21
-10.2439702890633
 31
0.0
  0
LINE
  5
15A8
  8
OUTLINE
  6
DASHED
 62
     3
 10
224.2166719710604
 20
-10.2439702890633
 30
0.0
 11
224.2166719710604
 21
-10.04309528906333
 31
0.0
  0
LINE
  5
15A9
  8
OUTLINE
  6
DASHED
 62
     3
 10
215.1775419710603
 20
-10.2439702890633
 30
0.0
 11
215.1775419710603
 21
-10.04309528906333
 31
0.0
  0
LINE
  5
15AA
  8
OUTLINE
  6
DASHED
 62
     3
 10
214.6753679710603
 20
-10.2439702890633
 30
0.0
 11
214.6753679710603
 21
-10.04309528906333
 31
0.0
  0
LINE
  5
15AB
  8
OUTLINE
  6
DASHED
 62
     3
 10
214.6753679710603
 20
-10.04309528906333
 30
0.0
 11
224.7188459710604
 21
-10.04309528906333
 31
0.0
  0
LINE
  5
15AC
  8
OUTLINE
  6
DASHED
 62
     3
 10
224.7188459710604
 20
-10.2439702890633
 30
0.0
 11
224.7188459710604
 21
-10.04309528906333
 31
0.0
  0
LINE
  5
15AD
  8
OUTLINE
  6
CONTINUOUS
 62
     3
 10
229.5397149710603
 20
-26.11266028906323
 30
0.0
 11
209.8544979710602
 21
-26.11266028906323
 31
0.0
  0
LINE
  5
15AE
  8
OUTLINE
  6
CONTINUOUS
 62
     3
 10
227.9829799710603
 20
-34.14744828906327
 30
0.0
 11
229.5397189710603
 21
-33.24353628906328
 31
0.0
  0
ARC
  5
15B0
  8
OUTLINE
  6
CONTINUOUS
 62
     3
 10
305.3688589710604
 20
-45.15802428906328
 30
0.0
 40
48.91399299999999
 50
179.5712630000001
 51
243.6072499999999
  0
LINE
  5
15B1
  8
OUTLINE
  6
CONTINUOUS
 62
     3
 10
300.3462349710601
 20
-88.97361428906326
 30
0.0
 11
252.0103489710603
 21
-88.97361428906326
 31
0.0
  0
LINE
  5
15B2
  8
OUTLINE
  6
CONTINUOUS
 62
     3
 10
300.3687089710601
 20
-94.99961728906328
 30
0.0
 11
252.0103489710603
 21
-94.99961728906328
 31
0.0
  0
ARC
  5
15B3
  8
OUTLINE
  6
CONTINUOUS
 62
     3
 10
300.3462349710601
 20
-91.98665728906325
 30
0.0
 40
3.013043
 50
270.4273630000001
 51
90.0
  0
ARC
  5
15B4
  8
OUTLINE
  6
CONTINUOUS
 62
     3
 10
293.6797299710603
 20
-14.09586728906333
 30
0.0
 40
4.102959999999999
 50
91.19287900000002
 51
179.5059229999997
  0
ARC
  5
15B5
  8
OUTLINE
  6
CONTINUOUS
 62
     3
 10
285.5595309710604
 20
-16.06918228906328
 30
0.0
 40
4.017390999999999
 50
270.0000009999999
 51
0.0
  0
ARC
  5
15B6
  8
OUTLINE
  6
CONTINUOUS
 62
     3
 10
286.7875399710601
 20
-16.06918228906328
 30
0.0
 40
4.017390999999999
 50
270.0
 51
0.0
  0
LINE
  5
15B7
  8
OUTLINE
  6
CONTINUOUS
 62
     3
 10
265.0487659710604
 20
-33.24352928906328
 30
0.0
 11
265.0487659710604
 21
-26.11266028906323
 31
0.0
  0
LINE
  5
15B8
  8
OUTLINE
  6
CONTINUOUS
 62
     3
 10
260.1274609710604
 20
-26.11266128906321
 30
0.0
 11
260.1274609710604
 21
-33.24352928906328
 31
0.0
  0
LINE
  5
15B9
  8
OUTLINE
  6
CONTINUOUS
 62
     3
 10
256.4562359710604
 20
-44.79201028906328
 30
0.0
 11
256.4562359710604
 21
-40.17352928906325
 31
0.0
  0
LINE
  5
15BA
  8
OUTLINE
  6
CONTINUOUS
 62
     3
 10
263.4920369710601
 20
-34.14743628906325
 30
0.0
 11
252.46628
 21
-34.14781899999999
 31
0.0
  0
ARC
  5
15BB
  8
OUTLINE
  6
CONTINUOUS
 62
     3
 10
262.5881119710605
 20
-30.34623328906332
 30
0.0
 40
3.801200999999999
 50
229.6590239999996
 51
269.999982
  0
LINE
  5
15BC
  8
OUTLINE
  6
CONTINUOUS
 62
     3
 10
263.4920309710604
 20
-34.14744828906327
 30
0.0
 11
265.0487699710604
 21
-33.24353628906328
 31
0.0
  0
ARC
  5
15BD
  8
OUTLINE
  6
CONTINUOUS
 62
     3
 10
255.4651358336505
 20
-21.48876533106271
 30
0.0
 40
12.64561679855261
 50
256.2818515320496
 51
291.6348345288677
  0
ARC
  5
15BE
  8
OUTLINE
  6
CONTINUOUS
 62
     3
 10
276.5431919710604
 20
-40.17352928906325
 30
0.0
 40
20.086956
 50
162.54238
 51
180.0
  0
LINE
  5
15BF
  8
OUTLINE
  6
DASHED
 62
     3
 10
263.4920369710601
 20
-10.2439702890633
 30
0.0
 11
246.9202789710603
 21
-10.2439702890633
 31
0.0
  0
LINE
  5
15C0
  8
OUTLINE
  6
DASHED
 62
     3
 10
259.7257229710603
 20
-10.2439702890633
 30
0.0
 11
259.7257229710603
 21
-10.04309528906333
 31
0.0
  0
LINE
  5
15C1
  8
OUTLINE
  6
DASHED
 62
     3
 10
250.6865929710604
 20
-10.2439702890633
 30
0.0
 11
250.6865929710604
 21
-10.04309528906333
 31
0.0
  0
LINE
  5
15C2
  8
OUTLINE
  6
DASHED
 62
     3
 10
250.1844189710603
 20
-10.2439702890633
 30
0.0
 11
250.1844189710603
 21
-10.04309528906333
 31
0.0
  0
LINE
  5
15C3
  8
OUTLINE
  6
DASHED
 62
     3
 10
250.1844189710603
 20
-10.04309528906333
 30
0.0
 11
260.2278969710604
 21
-10.04309528906333
 31
0.0
  0
LINE
  5
15C4
  8
OUTLINE
  6
DASHED
 62
     3
 10
260.2278969710604
 20
-10.2439702890633
 30
0.0
 11
260.2278969710604
 21
-10.04309528906333
 31
0.0
  0
LINE
  5
15C5
  8
OUTLINE
  6
CONTINUOUS
 62
     3
 10
265.0487659710604
 20
-26.11266028906323
 30
0.0
 11
252.0103489710603
 21
-26.11266028906323
 31
0.0
  0
ARC
  5
15C6
  8
OUTLINE
  6
CONTINUOUS
 62
     3
 10
276.5431919710604
 20
-40.17352928906325
 30
0.0
 40
20.086956
 50
90.0
 51
102.339558
  0
LINE
  5
15C7
  8
OUTLINE
  6
CONTINUOUS
 62
     3
 10
272.2505109710602
 20
-26.11266028906323
 30
0.0
 11
272.2505109710602
 21
-20.08657328906326
 31
0.0
  0
LINE
  5
15C8
  8
OUTLINE
  6
CONTINUOUS
 62
     3
 10
260.8876129710603
 20
-26.11266028906323
 30
0.0
 11
260.8876129710603
 21
-20.08657328906326
 31
0.0
  0
LINE
  5
15C9
  8
OUTLINE
  6
CONTINUOUS
 62
     3
 10
249.5247149710604
 20
-20.08657328906326
 30
0.0
 11
249.5247149710604
 21
-26.11266028906323
 31
0.0
  0
LINE
  5
15CA
  8
OUTLINE
  6
CONTINUOUS
 62
     3
 10
289.5769219710601
 20
-14.0604862890633
 30
0.0
 11
289.5769219710601
 21
-16.06918228906328
 31
0.0
  0
ARC
  5
15CB
  8
OUTLINE
  6
CONTINUOUS
 62
     3
 10
294.9077379710604
 20
-14.09586728906333
 30
0.0
 40
4.102959999999999
 50
91.19287900000002
 51
179.5059229999997
  0
LINE
  5
15CC
  8
OUTLINE
  6
CONTINUOUS
 62
     3
 10
290.8049309710603
 20
-16.06918228906328
 30
0.0
 11
290.8049309710603
 21
-14.0604862890633
 31
0.0
  0
LINE
  5
15CD
  8
OUTLINE
  6
CONTINUOUS
 62
     3
 10
309.3233379710601
 20
-2.975536289063256
 30
0.0
 11
308.1708009710604
 21
-6.803832289063278
 31
0.0
  0
ARC
  5
15CE
  8
OUTLINE
  6
CONTINUOUS
 62
     3
 10
306.9205779710601
 20
-6.42744328906326
 30
0.0
 40
1.305652
 50
270.0
 51
343.2451950000002
  0
ARC
  5
15CF
  8
OUTLINE
  6
CONTINUOUS
 62
     3
 10
303.1850929710604
 20
-6.137759289063295
 30
0.0
 40
3.854954
 50
265.4619150000002
 51
335.5078079999999
  0
ARC
  5
15D0
  8
OUTLINE
  6
CONTINUOUS
 62
     3
 10
307.1114039710604
 20
-2.309617289063226
 30
0.0
 40
2.31
 50
343.2451949999999
 51
90.0
  0
LINE
  5
15D1
  8
DETAIL
  6
CONTINUOUS
 62
     5
 10
-138.8438971528763
 20
-228.9777904209401
 30
-0.0000000000000284
 11
-138.4005831058097
 21
-229.4896461608304
 31
0.0
  0
LINE
  5
15D2
  8
DETAIL
  6
CONTINUOUS
 62
     5
 10
-138.7879391939937
 20
-269.1660645951917
 30
-0.0000000000000142
 11
-138.7879391939937
 21
-261.130428
 31
0.0
  0
LINE
  5
15D3
  8
DETAIL
  6
CONTINUOUS
 62
     5
 10
-135.7420695860452
 20
-260.805116514306
 30
0.0
 11
-135.7420695860452
 21
-229.3373343851817
 31
0.0
  0
ARC
  5
15D4
  8
DETAIL
  6
CONTINUOUS
 62
     5
 10
-133.8438971528763
 20
-228.9777904209401
 30
-0.0000000000000138
 40
5.0
 50
90.00177359088018
 51
180.0
  0
LINE
  5
15D5
  8
DETAIL
  6
CONTINUOUS
 62
     5
 10
139.2140468507182
 20
-269.1660645951917
 30
0.0
 11
139.2140468507182
 21
-261.130428
 31
0.0
  0
LINE
  5
15D6
  8
DETAIL
  6
CONTINUOUS
 62
     5
 10
139.1562947504679
 20
-228.9610974005339
 30
-0.0000000000000101
 11
139.1562947504679
 21
-229.995646
 31
0.0
  0
ARC
  5
15D7
  8
DETAIL
  6
CONTINUOUS
 62
     5
 10
134.156294750468
 20
-228.9610974005339
 30
-0.0000000000002065
 40
5.0
 50
0.0
 51
90.00356880250426
  0
LINE
  5
15D8
  8
DETAIL
  6
CONTINUOUS
 62
     5
 10
136.2699549759293
 20
-261.010786850768
 30
0.0
 11
136.2699549759293
 21
-230.1600217762474
 31
0.0
  0
LINE
  5
15D9
  8
OUTLINE
  6
CONTINUOUS
 62
     3
 10
136.2699549759293
 20
-230.1600217762474
 30
0.0
 11
136.2699549759293
 21
-261.010786850768
 31
0.0
  0
LINE
  5
15DA
  8
OUTLINE
  6
CONTINUOUS
 62
     3
 10
-135.7420695860452
 20
-260.805116514306
 30
0.0
 11
-135.7420695860452
 21
-229.562777642625
 31
0.0
  0
LINE
  5
15DB
  8
OUTLINE
  6
CONTINUOUS
 62
     3
 10
-138.4005831058097
 20
-228.9777628105353
 30
0.0
 11
-138.1477517138739
 21
-229.4979968914269
 31
0.0
  0
LINE
  5
15DC
  8
OUTLINE
  6
CONTINUOUS
 62
     3
 10
-133.4008945425798
 20
-223.9777628202346
 30
-0.0000000000000152
 11
134.1559833136979
 21
-223.961097410233
 31
-0.0000000000000145
  0
LINE
  5
15DD
  8
OUTLINE
  6
CONTINUOUS
 62
     3
 10
139.1562947504679
 20
-228.9610974005337
 30
0.0
 11
139.1562947504679
 21
-229.995646
 31
0.0
  0
ARC
  5
15DE
  8
OUTLINE
  6
CONTINUOUS
 62
     3
 10
134.156294750468
 20
-228.9610974005337
 30
-0.0000000000000213
 40
5.0
 50
0.0
 51
90.00356880250426
  0
ARC
  5
15DF
  8
OUTLINE
  6
CONTINUOUS
 62
     3
 10
-133.4005831058097
 20
-228.9777628105353
 30
-0.0000000000004208
 40
5.0
 50
90.00356880250426
 51
180.0
  0
LINE
  5
15E0
  8
DETAIL
  6
CONTINUOUS
 62
     5
 10
-138.7879391939937
 20
-269.1660645951917
 30
-0.0000000000000142
 11
139.2140468507182
 21
-269.1660645951917
 31
0.0
  0
LINE
  5
15E1
  8
OUTLINE
  6
CONTINUOUS
 62
     3
 10
81.46908386751379
 20
-286.480780284229
 30
0.0
 11
81.46908386751379
 21
-269.1660645951917
 31
-0.000000000000003
  0
LINE
  5
15E2
  8
OUTLINE
  6
CONTINUOUS
 62
     3
 10
139.2140468507182
 20
-261.130428
 30
0.0
 11
139.2140468507182
 21
-269.1660645951917
 31
0.0
  0
LINE
  5
15E3
  8
OUTLINE
  6
CONTINUOUS
 62
     3
 10
139.2140468507182
 20
-269.1660645951917
 30
0.0
 11
-138.7879391939937
 21
-269.1660645951917
 31
-0.0000000000000142
  0
LINE
  5
15E4
  8
OUTLINE
  6
CONTINUOUS
 62
     3
 10
-138.7879391939937
 20
-269.1660645951917
 30
-0.0000000000000142
 11
-138.7879391939937
 21
-261.130428
 31
0.0
  0
LINE
  5
15E6
  8
OUTLINE
  6
CONTINUOUS
 62
     3
 10
223.3488529999999
 20
-158.686952
 30
0.0
 11
223.3488529999999
 21
-34.14781899999999
 31
0.0
  0
LINE
  5
15E7
  8
OUTLINE
  6
CONTINUOUS
 62
     3
 10
229.7404829999999
 20
-158.686952
 30
0.0
 11
229.7404829999999
 21
-34.14743628906325
 31
0.0
  0
LINE
  5
15E8
  8
OUTLINE
  6
CONTINUOUS
 62
     3
 10
252.46628
 20
-158.686952
 30
0.0
 11
252.46628
 21
-26.113043
 31
0.0
  0
LINE
  5
15E9
  8
OUTLINE
  6
CONTINUOUS
 62
     3
 10
-223.3488529999999
 20
-158.686952
 30
0.0
 11
-223.3488529999999
 21
-34.14781899999999
 31
0.0
  0
LINE
  5
15EA
  8
OUTLINE
  6
CONTINUOUS
 62
     3
 10
-246.0746489999998
 20
-158.686952
 30
0.0
 11
-246.0746489999998
 21
-26.113043
 31
0.0
  0
LINE
  5
15EC
  8
OUTLINE
  6
CONTINUOUS
 62
     3
 10
-252.4662799999999
 20
-158.686952
 30
0.0
 11
-252.4662799999999
 21
-26.113043
 31
0.0
  0
ARC
  5
15ED
  8
OUTLINE
  6
CONTINUOUS
 62
     3
 10
152.5454869480329
 20
-158.4802511265792
 30
0.0
 40
70.80366776897856
 50
275.2143012407781
 51
359.8327331780353
  0
ARC
  5
15EE
  8
OUTLINE
  6
CONTINUOUS
 62
     3
 10
158.4927178182094
 20
-158.2961749798995
 30
0.0
 40
71.24883683316524
 50
266.2679873297486
 51
359.6857494489269
  0
ARC
  5
15EF
  8
OUTLINE
  6
CONTINUOUS
 62
     3
 10
150.0217334762103
 20
-158.6865085745275
 30
0.0
 40
102.4445465247493
 50
269.7456021454764
 51
359.9997519982273
  0
ARC
  5
15F0
  8
OUTLINE
  6
CONTINUOUS
 62
     3
 10
-153.0445069999999
 20
-158.686952
 30
0.0
 40
70.30434599999998
 50
180.0
 51
270.0000000000026
  0
ARC
  5
15F1
  8
OUTLINE
  6
CONTINUOUS
 62
     3
 10
-143.250214547672
 20
-158.529154847604
 30
0.0
 40
102.824555532141
 50
180.087927580656
 51
266.2234515909105
  0
ARC
  5
15F2
  8
OUTLINE
  6
CONTINUOUS
 62
     3
 10
-149.740950214191
 20
-158.5702043393117
 30
0.0
 40
102.7253961278293
 50
180.0651168057547
 51
273.2533324596082
  0
ENDSEC
  0
EOF
