  0
SECTION
  2
HEADER
  9
$ACADVER
  1
AC1009
  9
$INSBASE
 10
0.0
 20
0.0
 30
0.0
  9
$EXTMIN
 10
-586.8758989228827
 20
-325.2410770222105
 30
-0.0030518556252446
  9
$EXTMAX
 10
853.80250160093601
 20
820.63294285981999
 30
50.003052088470113
  9
$LIMMIN
 10
-2970.0
 20
-2100.0
  9
$LIMMAX
 10
2970.0
 20
2100.0
  9
$ORTHOMODE
 70
     1
  9
$REGENMODE
 70
     1
  9
$FILLMODE
 70
     1
  9
$QTEXTMODE
 70
     0
  9
$MIRRTEXT
 70
     0
  9
$DRAGMODE
 70
     2
  9
$LTSCALE
 40
20.0
  9
$OSMODE
 70
    37
  9
$ATTMODE
 70
     1
  9
$TEXTSIZE
 40
64.0
  9
$TRACEWID
 40
0.05
  9
$TEXTSTYLE
  7
STANDARD
  9
$CLAYER
  8
NOTE
  9
$CELTYPE
  6
CONTINUOUS
  9
$CECOLOR
 62
     7
  9
$DIMSCALE
 40
1.0
  9
$DIMASZ
 40
2.0
  9
$DIMEXO
 40
20.0
  9
$DIMDLI
 40
200.0
  9
$DIMRND
 40
0.0
  9
$DIMDLE
 40
0.0
  9
$DIMEXE
 40
30.0
  9
$DIMTP
 40
0.1
  9
$DIMTM
 40
0.1
  9
$DIMTXT
 40
64.0
  9
$DIMCEN
 40
0.09
  9
$DIMTSZ
 40
0.0
  9
$DIMTOL
 70
     0
  9
$DIMLIM
 70
     0
  9
$DIMTIH
 70
     0
  9
$DIMTOH
 70
     0
  9
$DIMSE1
 70
     0
  9
$DIMSE2
 70
     0
  9
$DIMTAD
 70
     1
  9
$DIMZIN
 70
     8
  9
$DIMBLK
  1
DOT1
  9
$DIMASO
 70
     1
  9
$DIMSHO
 70
     0
  9
$DIMPOST
  1
<>
  9
$DIMAPOST
  1
"
  9
$DIMALT
 70
     0
  9
$DIMALTD
 70
     2
  9
$DIMALTF
 40
0.03937
  9
$DIMLFAC
 40
1.0
  9
$DIMTOFL
 70
     1
  9
$DIMTVP
 40
0.0
  9
$DIMTIX
 70
     0
  9
$DIMSOXD
 70
     0
  9
$DIMSAH
 70
     1
  9
$DIMBLK1
  1

  9
$DIMBLK2
  1

  9
$DIMSTYLE
  2
GEN-ISO
  9
$DIMCLRD
 70
     7
  9
$DIMCLRE
 70
     7
  9
$DIMCLRT
 70
     7
  9
$DIMTFAC
 40
1.0
  9
$DIMGAP
 40
25.0
  9
$LUNITS
 70
     2
  9
$LUPREC
 70
     4
  9
$SKETCHINC
 40
0.1
  9
$FILLETRAD
 40
5.0
  9
$AUNITS
 70
     1
  9
$AUPREC
 70
     3
  9
$MENU
  1
ACAD
  9
$ELEVATION
 40
0.0
  9
$PELEVATION
 40
0.0
  9
$THICKNESS
 40
0.0
  9
$LIMCHECK
 70
     0
  9
$BLIPMODE
 70
     0
  9
$CHAMFERA
 40
0.0
  9
$CHAMFERB
 40
0.0
  9
$SKPOLY
 70
     0
  9
$TDCREATE
 40
2451372.5474537038
  9
$TDUPDATE
 40
2454945.7760779168
  9
$TDINDWG
 40
1.0288069097000001
  9
$TDUSRTIMER
 40
1.0288069097000001
  9
$USRTIMER
 70
     1
  9
$ANGBASE
 50
0.0
  9
$ANGDIR
 70
     0
  9
$PDMODE
 70
     3
  9
$PDSIZE
 40
-2.0
  9
$PLINEWID
 40
0.0
  9
$COORDS
 70
     0
  9
$SPLFRAME
 70
     0
  9
$SPLINETYPE
 70
     6
  9
$SPLINESEGS
 70
     8
  9
$ATTDIA
 70
     0
  9
$ATTREQ
 70
     1
  9
$HANDLING
 70
     1
  9
$HANDSEED
  5
24A
  9
$SURFTAB1
 70
     6
  9
$SURFTAB2
 70
     6
  9
$SURFTYPE
 70
     6
  9
$SURFU
 70
     6
  9
$SURFV
 70
     6
  9
$UCSNAME
  2

  9
$UCSORG
 10
0.0
 20
0.0
 30
0.0
  9
$UCSXDIR
 10
1.0
 20
0.0
 30
0.0
  9
$UCSYDIR
 10
0.0
 20
1.0
 30
0.0
  9
$PUCSNAME
  2

  9
$PUCSORG
 10
0.0
 20
0.0
 30
0.0
  9
$PUCSXDIR
 10
1.0
 20
0.0
 30
0.0
  9
$PUCSYDIR
 10
0.0
 20
1.0
 30
0.0
  9
$USERI1
 70
     0
  9
$USERI2
 70
     0
  9
$USERI3
 70
     0
  9
$USERI4
 70
     0
  9
$USERI5
 70
     0
  9
$USERR1
 40
20.0
  9
$USERR2
 40
0.0
  9
$USERR3
 40
0.0
  9
$USERR4
 40
0.0
  9
$USERR5
 40
0.0
  9
$WORLDVIEW
 70
     1
  9
$SHADEDGE
 70
     3
  9
$SHADEDIF
 70
    70
  9
$TILEMODE
 70
     1
  9
$MAXACTVP
 70
    48
  9
$PLIMCHECK
 70
     0
  9
$PEXTMIN
 10
-1.0000000000000000E+020
 20
-1.0000000000000000E+020
 30
-1.0000000000000000E+020
  9
$PEXTMAX
 10
1.0000000000000000E+020
 20
1.0000000000000000E+020
 30
1.0000000000000000E+020
  9
$PLIMMIN
 10
0.0
 20
0.0
  9
$PLIMMAX
 10
12.0
 20
9.0
  9
$UNITMODE
 70
     0
  9
$VISRETAIN
 70
     0
  9
$PLINEGEN
 70
     0
  9
$PSLTSCALE
 70
     0
  0
ENDSEC
  0
SECTION
  2
TABLES
  0
TABLE
  2
VPORT
 70
     1
  0
VPORT
  2
*ACTIVE
 70
     0
 10
0.0
 20
0.0
 11
1.0
 21
1.0
 12
255.78268151720729
 22
33.795806894136611
 13
0.0
 23
0.0
 14
50.0
 24
50.0
 15
400.0
 25
400.0
 16
0.0
 26
0.0
 36
1.0
 17
0.0
 27
0.0
 37
0.0
 40
1848.8266715685911
 41
1.3098995695839311
 42
50.0
 43
0.0
 44
0.0
 50
0.0
 51
0.0
 71
     0
 72
   500
 73
     1
 74
     0
 75
     0
 76
     0
 77
     0
 78
     0
  0
ENDTAB
  0
TABLE
  2
LTYPE
 70
     3
  0
LTYPE
  2
CONTINUOUS
 70
     0
  3
実線
 72
    65
 73
     0
 40
0.0
  0
LTYPE
  2
DASHDOT
 70
     0
  3
____ _ ____ _ ____ _ ____ _ ____ _ ____ _ ____
 72
    65
 73
     4
 40
5.5
 49
4.0
 49
-0.6
 49
0.3
 49
-0.6
  0
ENDTAB
  0
TABLE
  2
LAYER
 70
    12
  0
LAYER
  2
0
 70
     0
 62
     7
  6
CONTINUOUS
  0
LAYER
  2
NOTE
 70
     0
 62
     4
  6
CONTINUOUS
  0
LAYER
  2
OUTLINE
 70
     0
 62
     3
  6
CONTINUOUS
  0
LAYER
  2
DETAIL
 70
     0
 62
     5
  6
CONTINUOUS
  0
LAYER
  2
BASIS
 70
     0
 62
     6
  6
DASHDOT
  0
LAYER
  2
DEFPOINTS
 70
     0
 62
     7
  6
CONTINUOUS
  0
LAYER
  2
SIZE
 70
     0
 62
    30
  6
CONTINUOUS
  0
LAYER
  2
FIX
 70
     0
 62
    11
  6
CONTINUOUS
  0
LAYER
  2
ARRANGE
 70
     0
 62
     1
  6
CONTINUOUS
  0
LAYER
  2
ETC
 70
     0
 62
    61
  6
CONTINUOUS
  0
LAYER
  2
SERVICESPACE
 70
     0
 62
     2
  6
DASHDOT
  0
LAYER
  2
SYMBOLLINE
 70
     0
 62
    15
  6
CONTINUOUS
  0
ENDTAB
  0
TABLE
  2
STYLE
 70
     3
  0
STYLE
  2
STANDARD
 70
     0
 40
0.0
 41
0.9
 50
0.0
 71
     0
 42
64.0
  3
SIMPLEX
  4
BIGFONT
  0
STYLE
  2
ANNOTATIVE
 70
     0
 40
0.0
 41
1.0
 50
0.0
 71
     0
 42
0.2
  3
txt
  4

  0
STYLE
  2

 70
     1
 40
0.0
 41
1.0
 50
0.0
 71
     0
 42
64.0
  3
ltypeshp.shx
  4

  0
ENDTAB
  0
TABLE
  2
VIEW
 70
     1
  0
VIEW
  2
ALL
 70
     0
 40
4282.6198079999986
 10
0.0
 20
41.309903999999989
 41
5940.0
 11
0.0
 21
0.0
 31
1.0
 12
0.0
 22
0.0
 32
0.0
 42
50.0
 43
0.0
 44
0.0
 50
0.0
 71
     0
  0
ENDTAB
  0
TABLE
  2
UCS
 70
     0
  0
ENDTAB
  0
TABLE
  2
APPID
 70
    14
  0
APPID
  2
ACAD
 70
     0
  0
APPID
  2
ACADANNOTATIVE
 70
     0
  0
APPID
  2
ACAD_MLEADERVER
 70
     0
  0
APPID
  2
CONTENTBLOCKDESCRIPTION
 70
     0
  0
APPID
  2
CONTENTBLOCKICON
 70
     0
  0
APPID
  2
GENIUS_GENCFG_13
 70
     0
  0
APPID
  2
GENIUS_GENCFG0_13
 70
     0
  0
APPID
  2
GENIUS_GENCFG1_13
 70
     0
  0
APPID
  2
GENIUS_GENCFG2_13
 70
     0
  0
APPID
  2
GENIUS_GENCFG3_13
 70
     0
  0
APPID
  2
GENIUS_GENCFG4_13
 70
     0
  0
APPID
  2
GENIUS_GEVCFG0_13
 70
     0
  0
APPID
  2
GENIUS_GENOENT_13
 70
     0
  0
APPID
  2
ACAD_EXEMPT_FROM_CAD_STANDARDS
 70
     0
  0
ENDTAB
  0
TABLE
  2
DIMSTYLE
 70
     3
  0
DIMSTYLE
  2
STANDARD
 70
     0
  3

  4

  5

  6

  7

 40
1.0
 41
0.18
 42
0.0625
 43
0.38
 44
0.18
 45
0.0
 46
0.0
 47
0.0
 48
0.0
140
0.18
141
0.09
142
0.0
143
25.399999999999999
144
1.0
145
0.0
146
1.0
147
0.09
 71
     0
 72
     0
 73
     1
 74
     1
 75
     0
 76
     0
 77
     0
 78
     0
170
     0
171
     2
172
     0
173
     0
174
     0
175
     0
176
     0
177
     0
178
     0
  0
DIMSTYLE
  2
ANNOTATIVE
 70
     0
  3

  4

  5

  6

  7

 40
1.0
 41
0.18
 42
0.0625
 43
0.38
 44
0.18
 45
0.0
 46
0.0
 47
0.0
 48
0.0
140
0.18
141
0.09
142
0.0
143
25.399999999999999
144
1.0
145
0.0
146
1.0
147
0.09
 71
     0
 72
     0
 73
     1
 74
     1
 75
     0
 76
     0
 77
     0
 78
     0
170
     0
171
     2
172
     0
173
     0
174
     0
175
     0
176
     0
177
     0
178
     0
  0
DIMSTYLE
  2
GEN-ISO
 70
     0
  3

  4
"
  5

  6

  7

 40
1.0
 41
2.0
 42
20.0
 43
200.0
 44
30.0
 45
0.0
 46
0.0
 47
0.1
 48
0.1
140
64.0
141
0.09
142
0.0
143
0.03937
144
1.0
145
0.0
146
1.0
147
25.0
 71
     0
 72
     0
 73
     0
 74
     0
 75
     0
 76
     0
 77
     1
 78
     8
170
     0
171
     2
172
     1
173
     1
174
     0
175
     0
176
     7
177
     7
178
     7
  0
ENDTAB
  0
ENDSEC
  0
SECTION
  2
BLOCKS
  0
BLOCK
  8
0
  2
$MODEL_SPACE
 70
     0
 10
0.0
 20
0.0
 30
0.0
  3
$MODEL_SPACE
  1

  0
ENDBLK
  5
76
  8
0
  0
BLOCK
 67
     1
  8
0
  2
$PAPER_SPACE
 70
     0
 10
0.0
 20
0.0
 30
0.0
  3
$PAPER_SPACE
  1

  0
ENDBLK
  5
72
 67
     1
  8
0
  0
BLOCK
  8
OUTLINE
  2
DOT1
 70
     0
 10
0.0
 20
0.0
 30
0.0
  3
DOT1
  1

  0
CIRCLE
  5
98
  8
SIZE
  6
CONTINUOUS
 62
     7
 10
0.0
 20
0.0
 30
0.0
 40
3.0
  0
ENDBLK
  5
99
  8
OUTLINE
  0
ENDSEC
  0
SECTION
  2
ENTITIES
  0
CIRCLE
  5
9A
  8
DETAIL
  6
CONTINUOUS
 62
     5
 10
0.0
 20
0.0
 30
0.0
 40
255.0
  0
ARC
  5
9B
  8
DETAIL
  6
CONTINUOUS
 62
     5
 10
0.0
 20
0.0
 30
0.0
 40
225.168192
 50
54.177315
 51
102.77077800000001
  0
ARC
  5
9C
  8
DETAIL
  6
CONTINUOUS
 62
     5
 10
0.0
 20
0.0
 30
0.0
 40
234.08574400000001
 50
54.177424000000002
 51
102.770832
  0
ARC
  5
9D
  8
DETAIL
  6
CONTINUOUS
 62
     5
 10
0.0
 20
0.0
 30
0.0
 40
250.80615399999999
 50
45.276158000000002
 51
114.217574
  0
ARC
  5
9E
  8
DETAIL
  6
CONTINUOUS
 62
     5
 10
0.0
 20
0.0
 30
0.0
 40
9.4748990000000006
 50
359.99998099999999
 51
162.89533800000001
  0
ARC
  5
9F
  8
DETAIL
  6
CONTINUOUS
 62
     5
 10
-11.980307
 20
99.604551000000001
 30
0.0
 40
22.293880000000001
 50
276.85854699999999
 51
7.6030749999999978
  0
LINE
  5
A0
  8
DETAIL
  6
CONTINUOUS
 62
     5
 10
11.491652
 20
-147.58012099999999
 30
0.0
 11
-6.117712
 21
-89.979787999999999
 31
0.0
  0
LINE
  5
A1
  8
DETAIL
  6
CONTINUOUS
 62
     5
 10
6.1616609999999996
 20
-149.209585
 30
0.0
 11
-12.459083
 21
-88.300887000000003
 31
0.0
  0
CIRCLE
  5
A2
  8
DETAIL
  6
CONTINUOUS
 62
     5
 10
0.0
 20
0.0
 30
0.0
 40
25.637962000000002
  0
CIRCLE
  5
A3
  8
DETAIL
  6
CONTINUOUS
 62
     5
 10
0.0
 20
0.0
 30
0.0
 40
78.028581000000003
  0
CIRCLE
  5
A4
  8
DETAIL
  6
CONTINUOUS
 62
     5
 10
0.0
 20
0.0
 30
0.0
 40
15.605715999999999
  0
ARC
  5
A5
  8
DETAIL
  6
CONTINUOUS
 62
     5
 10
0.0
 20
0.0
 30
0.0
 40
9.4748990000000006
 50
197.104669
 51
359.99981700000001
  0
ARC
  5
A6
  8
DETAIL
  6
CONTINUOUS
 62
     5
 10
289.63219100000009
 20
-3.4746079999999999
 30
0.0
 40
330.10591199999999
 50
196.16887800000001
 51
225.839821
  0
ARC
  5
A7
  8
DETAIL
  6
CONTINUOUS
 62
     5
 10
-192.34737899999999
 20
14.835554
 30
0.0
 40
220.650463
 50
23.424907000000001
 51
66.071023999999994
  0
ARC
  5
A8
  8
DETAIL
  6
CONTINUOUS
 62
     5
 10
13.079795000000001
 20
164.61154099999999
 30
0.0
 40
16.720410000000001
 50
76.73070899999999
 51
159.76669200000001
  0
ARC
  5
A9
  8
DETAIL
  6
CONTINUOUS
 62
     5
 10
13.079795000000001
 20
164.61154099999999
 30
0.0
 40
11.146940000000001
 50
76.730726000000004
 51
187.60311100000001
  0
ARC
  5
AA
  8
DETAIL
  6
CONTINUOUS
 62
     5
 10
0.0
 20
11690.0
 30
0.0
 40
11980.0
 50
269.58289600000001
 51
270.51971500000002
  0
ARC
  5
AB
  8
DETAIL
  6
CONTINUOUS
 62
     5
 10
0.0
 20
-11690.0
 30
0.0
 40
11980.0
 50
89.582895999999977
 51
90.519715000000005
  0
ARC
  5
AC
  8
DETAIL
  6
CONTINUOUS
 62
     5
 10
0.0
 20
11690.0
 30
0.0
 40
11996.200000000001
 50
268.720708
 51
271.08543800000001
  0
ARC
  5
AD
  8
DETAIL
  6
CONTINUOUS
 62
     5
 10
0.0
 20
11690.0
 30
0.0
 40
12000.0
 50
268.720708
 51
271.08509500000002
  0
LINE
  5
AE
  8
SIZE
  6
CONTINUOUS
 62
    30
 10
310.0
 20
20.0
 30
0.0
 11
310.0
 21
571.51394000000005
 31
0.0
  0
LINE
  5
AF
  8
SIZE
  6
CONTINUOUS
 62
    30
 10
-310.0
 20
20.0
 30
0.0
 11
-310.0
 21
571.51394000000005
 31
0.0
  0
LINE
  5
B0
  8
SIZE
  6
CONTINUOUS
 62
    30
 10
308.0
 20
541.51394000000005
 30
0.0
 11
-308.0
 21
541.51394000000005
 31
0.0
  0
CIRCLE
  5
B1
  8
SIZE
  6
CONTINUOUS
 62
    30
 10
310.0
 20
541.51394000000005
 30
0.0
 40
6.0
  0
CIRCLE
  5
B2
  8
SIZE
  6
CONTINUOUS
 62
    30
 10
-310.0
 20
541.51394000000005
 30
0.0
 40
6.0
  0
TEXT
  5
B3
  8
SIZE
  6
CONTINUOUS
 62
    30
 10
-74.05714285714285
 20
566.51394000000005
 30
0.0
 40
64.0
  1
620
 41
0.9
 72
     1
 11
0.0
 21
566.51394000000005
 31
0.0
  0
POINT
  5
B4
  8
DEFPOINTS
  6
CONTINUOUS
 62
    30
 10
310.0
 20
0.0
 30
0.0
  0
POINT
  5
B5
  8
DEFPOINTS
  6
CONTINUOUS
 62
    30
 10
-310.0
 20
0.0
 30
0.0
  0
POINT
  5
B6
  8
DEFPOINTS
  6
CONTINUOUS
 62
    30
 10
-310.0
 20
541.51394000000005
 30
0.0
  0
ARC
  5
B7
  8
DETAIL
  6
CONTINUOUS
 62
     5
 10
0.0
 20
-11690.0
 30
0.0
 40
12000.0
 50
88.720708000000016
 51
91.279292000000027
  0
ARC
  5
B8
  8
DETAIL
  6
CONTINUOUS
 62
     5
 10
0.0
 20
-11690.0
 30
0.0
 40
11996.209999999999
 50
88.720708000000016
 51
91.279292000000027
  0
ARC
  5
B9
  8
DETAIL
  6
CONTINUOUS
 62
     5
 10
0.0
 20
-11690.0
 30
0.0
 40
11996.200000000001
 50
88.720708000000016
 51
91.279292000000027
  0
ARC
  5
BA
  8
DETAIL
  6
CONTINUOUS
 62
     5
 10
-0.000031
 20
-205.49996899999999
 30
0.0
 40
300.0
 50
88.150172999999995
 51
106.20706300000001
  0
ARC
  5
BB
  8
DETAIL
  6
CONTINUOUS
 62
     5
 10
-0.000031
 20
-205.49996899999999
 30
0.0
 40
297.69999999999999
 50
88.267652999999996
 51
106.20706300000001
  0
LINE
  5
BC
  8
SIZE
  6
CONTINUOUS
 62
    30
 10
280.0
 20
320.0
 30
0.0
 11
280.0
 21
441.99117799999999
 31
0.0
  0
LINE
  5
BD
  8
SIZE
  6
CONTINUOUS
 62
    30
 10
-280.0
 20
324.85394700000001
 30
0.0
 11
-280.0
 21
441.99117799999999
 31
0.0
  0
LINE
  5
BE
  8
SIZE
  6
CONTINUOUS
 62
    30
 10
278.0
 20
411.99117799999988
 30
0.0
 11
-278.0
 21
411.99117799999988
 31
0.0
  0
CIRCLE
  5
BF
  8
SIZE
  6
CONTINUOUS
 62
    30
 10
280.0
 20
411.99117799999988
 30
0.0
 40
6.0
  0
CIRCLE
  5
C0
  8
SIZE
  6
CONTINUOUS
 62
    30
 10
-280.0
 20
411.99117799999988
 30
0.0
 40
6.0
  0
TEXT
  5
C1
  8
SIZE
  6
CONTINUOUS
 62
    30
 10
-74.05714285714285
 20
436.99117799999999
 30
0.0
 40
64.0
  1
560
 41
0.9
 72
     1
 11
0.0
 21
436.99117799999999
 31
0.0
  0
POINT
  5
C2
  8
DEFPOINTS
  6
CONTINUOUS
 62
    30
 10
280.0
 20
300.0
 30
0.0
  0
POINT
  5
C3
  8
DEFPOINTS
  6
CONTINUOUS
 62
    30
 10
-280.0
 20
304.85394700000001
 30
0.0
  0
POINT
  5
C4
  8
DEFPOINTS
  6
CONTINUOUS
 62
    30
 10
-280.0
 20
411.99117799999988
 30
0.0
  0
LINE
  5
C5
  8
SIZE
  6
CONTINUOUS
 62
    30
 10
-586.65353700000003
 20
-25.95011400000001
 30
0.0
 11
-256.74893800000001
 21
-11.357068
 31
0.0
  0
LINE
  5
C6
  8
SIZE
  6
CONTINUOUS
 62
    30
 10
256.74893800000001
 20
11.357068
 30
0.0
 11
258.746984
 21
11.445449999999999
 31
0.0
  0
TEXT
  5
C7
  8
SIZE
  6
CONTINUOUS
 62
    30
 10
-577.03165356621219
 20
-0.5000598716216081
 30
0.0
 40
64.0
  1
φ510
 50
2.5327829999999998
 41
0.9
 72
     1
 11
-468.24660099999988
 21
4.3119620000000003
 31
0.0
  0
LINE
  5
C8
  8
SIZE
  6
CONTINUOUS
 62
    30
 10
254.750891
 20
11.268686000000001
 30
0.0
 11
-254.750891
 21
-11.268686000000001
 31
0.0
  0
CIRCLE
  5
C9
  8
SIZE
  6
CONTINUOUS
 62
    30
 10
254.750891
 20
11.268686000000001
 30
0.0
 40
6.0
  0
CIRCLE
  5
CA
  8
SIZE
  6
CONTINUOUS
 62
    30
 10
-254.750891
 20
-11.268686000000001
 30
0.0
 40
6.0
  0
POINT
  5
CB
  8
DEFPOINTS
  6
CONTINUOUS
 62
    30
 10
-254.750891
 20
-11.268686000000001
 30
0.0
  0
POINT
  5
CC
  8
DEFPOINTS
  6
CONTINUOUS
 62
    30
 10
254.750891
 20
11.268686000000001
 30
0.0
  0
LINE
  5
CD
  8
SIZE
  6
CONTINUOUS
 62
    30
 10
-570.01096500000006
 20
252.750103
 30
0.0
 11
-230.36863600000001
 21
102.14838
 31
0.0
  0
LINE
  5
CE
  8
SIZE
  6
CONTINUOUS
 62
    30
 10
230.36863600000001
 20
-102.14838
 30
0.0
 11
232.19695899999999
 21
-102.959081
 31
0.0
  0
TEXT
  5
CF
  8
SIZE
  6
CONTINUOUS
 62
    30
 10
-550.06171181640036
 20
271.2518688429297
 30
0.0
 40
64.0
  1
φ500
 50
336.08687300000003
 41
0.9
 72
     1
 11
-445.50257599999992
 21
224.88897499999999
 31
0.0
  0
LINE
  5
D0
  8
SIZE
  6
CONTINUOUS
 62
    30
 10
228.540314
 20
-101.337678
 30
0.0
 11
-228.540314
 21
101.337678
 31
0.0
  0
CIRCLE
  5
D1
  8
SIZE
  6
CONTINUOUS
 62
    30
 10
228.540314
 20
-101.337678
 30
0.0
 40
6.0
  0
CIRCLE
  5
D2
  8
SIZE
  6
CONTINUOUS
 62
    30
 10
-228.540314
 20
101.337678
 30
0.0
 40
6.0
  0
POINT
  5
D3
  8
DEFPOINTS
  6
CONTINUOUS
 62
    30
 10
-228.540314
 20
101.337678
 30
0.0
  0
POINT
  5
D4
  8
DEFPOINTS
  6
CONTINUOUS
 62
    30
 10
228.540314
 20
-101.337678
 30
0.0
  0
ARC
  5
D5
  8
OUTLINE
  6
CONTINUOUS
 62
     3
 10
0.0
 20
11690.0
 30
0.0
 40
11996.200000000001
 50
268.720708
 51
271.08543800000001
  0
ARC
  5
D6
  8
OUTLINE
  6
CONTINUOUS
 62
     3
 10
0.0
 20
11690.0
 30
0.0
 40
12000.0
 50
268.720708
 51
271.08509500000002
  0
ARC
  5
D7
  8
OUTLINE
  6
CONTINUOUS
 62
     3
 10
0.0
 20
-11690.0
 30
0.0
 40
12000.0
 50
88.720708000000016
 51
91.279292000000027
  0
ARC
  5
D8
  8
OUTLINE
  6
CONTINUOUS
 62
     3
 10
0.0
 20
-11690.0
 30
0.0
 40
11996.209999999999
 50
88.720708000000016
 51
91.279292000000027
  0
ARC
  5
D9
  8
OUTLINE
  6
CONTINUOUS
 62
     3
 10
0.0
 20
-11690.0
 30
0.0
 40
11996.200000000001
 50
88.720708000000016
 51
91.279292000000027
  0
LINE
  5
DA
  8
SIZE
  6
CONTINUOUS
 62
    30
 10
20.0
 20
310.0
 30
0.0
 11
716.16372100000001
 21
310.0
 31
0.0
  0
LINE
  5
DB
  8
SIZE
  6
CONTINUOUS
 62
    30
 10
20.0
 20
-310.0
 30
0.0
 11
716.16372100000001
 21
-310.0
 31
0.0
  0
LINE
  5
DC
  8
SIZE
  6
CONTINUOUS
 62
    30
 10
686.16372100000001
 20
308.0
 30
0.0
 11
686.16372100000001
 21
-308.0
 31
0.0
  0
CIRCLE
  5
DD
  8
SIZE
  6
CONTINUOUS
 62
    30
 10
686.16372100000001
 20
310.0
 30
0.0
 40
6.0
  0
CIRCLE
  5
DE
  8
SIZE
  6
CONTINUOUS
 62
    30
 10
686.16372100000001
 20
-310.0
 30
0.0
 40
6.0
  0
TEXT
  5
DF
  8
SIZE
  6
CONTINUOUS
 62
    30
 10
661.16372100000001
 20
-74.05714285714285
 30
0.0
 40
64.0
  1
620
 50
90.0
 41
0.9
 72
     1
 11
661.16372100000001
 21
0.0
 31
0.0
  0
POINT
  5
E0
  8
DEFPOINTS
  6
CONTINUOUS
 62
    30
 10
0.0
 20
310.0
 30
0.0
  0
POINT
  5
E1
  8
DEFPOINTS
  6
CONTINUOUS
 62
    30
 10
0.0
 20
-310.0
 30
0.0
  0
POINT
  5
E2
  8
DEFPOINTS
  6
CONTINUOUS
 62
    30
 10
686.16372100000001
 20
-310.0
 30
0.0
  0
CIRCLE
  5
E3
  8
ARRANGE
  6
CONTINUOUS
 62
     1
 10
0.0
 20
0.0
 30
0.0
 40
40.0
  0
POINT
  5
E4
  8
ARRANGE
  6
CONTINUOUS
 62
     1
 10
0.0
 20
0.0
 30
0.0
  0
LINE
  5
E5
  8
BASIS
  6
DASHDOT
 62
     6
 10
325.0
 20
0.0
 30
0.0
 11
-325.0
 21
0.0
 31
0.0
  0
ARC
  5
E6
  8
DETAIL
  6
CONTINUOUS
 62
     5
 10
0.0
 20
0.0
 30
0.0
 40
225.168192
 50
174.17730800000001
 51
222.770771
  0
ARC
  5
E7
  8
DETAIL
  6
CONTINUOUS
 62
     5
 10
0.0
 20
0.0
 30
0.0
 40
234.08574400000001
 50
174.17741799999999
 51
222.77082599999989
  0
ARC
  5
E8
  8
DETAIL
  6
CONTINUOUS
 62
     5
 10
-3.8163169999999988
 20
-27.307341999999998
 30
0.0
 40
168.42350400000001
 50
147.18511100000001
 51
196.730593
  0
ARC
  5
E9
  8
DETAIL
  6
CONTINUOUS
 62
     5
 10
0.0
 20
0.0
 30
0.0
 40
250.80615399999999
 50
165.276151
 51
234.217567
  0
LINE
  5
EA
  8
DETAIL
  6
CONTINUOUS
 62
     5
 10
-12.261634000000001
 20
-2.7867349999999989
 30
0.0
 11
-12.261634000000001
 21
2.7867349999999989
 31
0.0
  0
ARC
  5
EB
  8
DETAIL
  6
CONTINUOUS
 62
     5
 10
-3.8163169999999988
 20
-27.307341999999998
 30
0.0
 40
162.85003399999999
 50
147.18511100000001
 51
196.730593
  0
ARC
  5
EC
  8
DETAIL
  6
CONTINUOUS
 62
     5
 10
11690.0
 20
0.0
 30
0.0
 40
11980.0
 50
179.48028500000001
 51
180.41710399999999
  0
ARC
  5
ED
  8
DETAIL
  6
CONTINUOUS
 62
     5
 10
11690.0
 20
0.0
 30
0.0
 40
12000.0
 50
178.720708
 51
181.279292
  0
ARC
  5
EE
  8
DETAIL
  6
CONTINUOUS
 62
     5
 10
11690.0
 20
0.0
 30
0.0
 40
11996.209999999999
 50
178.720708
 51
181.279292
  0
ARC
  5
EF
  8
DETAIL
  6
CONTINUOUS
 62
     5
 10
11690.0
 20
0.0
 30
0.0
 40
11996.200000000001
 50
178.720708
 51
181.279292
  0
ARC
  5
F0
  8
OUTLINE
  6
CONTINUOUS
 62
     3
 10
11690.0
 20
0.0
 30
0.0
 40
12000.0
 50
178.720708
 51
181.279292
  0
ARC
  5
F1
  8
OUTLINE
  6
CONTINUOUS
 62
     3
 10
11690.0
 20
0.0
 30
0.0
 40
11996.209999999999
 50
178.720708
 51
181.279292
  0
ARC
  5
F2
  8
OUTLINE
  6
CONTINUOUS
 62
     3
 10
11690.0
 20
0.0
 30
0.0
 40
11996.200000000001
 50
178.720708
 51
181.279292
  0
LINE
  5
F3
  8
BASIS
  6
DASHDOT
 62
     6
 10
0.0
 20
-325.0
 30
0.0
 11
0.0
 21
325.0
 31
0.0
  0
CIRCLE
  5
F4
  8
FIX
  6
CONTINUOUS
 62
    11
 39
50.0
 10
-280.0
 20
-280.0
 30
0.0
 40
5.5
  0
ARC
  5
F5
  8
DETAIL
  6
CONTINUOUS
 62
     5
 10
-231.52160000000001
 20
-267.758893
 30
0.0
 40
20.0
 50
194.171323
 51
268.89079900000002
  0
ARC
  5
F6
  8
DETAIL
  6
CONTINUOUS
 62
     5
 10
-274.508689
 20
-108.880416
 30
0.0
 40
15.0
 50
179.18088700000001
 51
240.0
  0
ARC
  5
F7
  8
DETAIL
  6
CONTINUOUS
 62
     5
 10
-278.27439299999998
 20
-168.34980100000001
 30
0.0
 40
10.89791
 50
114.185345
 51
195.50347199999999
  0
LINE
  5
F8
  8
DETAIL
  6
CONTINUOUS
 62
     5
 10
-282.73915399999998
 20
-158.408456
 30
0.0
 11
-273.231381
 21
-152.91914
 31
0.0
  0
ARC
  5
F9
  8
DETAIL
  6
CONTINUOUS
 62
     5
 10
-280.731381
 20
-139.92875900000001
 30
0.0
 40
4.0
 50
180.0
 51
0.0
  0
ARC
  5
FA
  8
DETAIL
  6
CONTINUOUS
 62
     5
 10
-280.731381
 20
-134.92875900000001
 30
0.0
 40
4.0
 50
0.0
 51
180.0
  0
ARC
  5
FB
  8
DETAIL
  6
CONTINUOUS
 62
     5
 10
-280.731381
 20
-139.92875900000001
 30
0.0
 40
15.0
 50
300.0
 51
60.0
  0
LINE
  5
FC
  8
DETAIL
  6
CONTINUOUS
 62
     5
 10
-276.731381
 20
-134.92875900000001
 30
0.0
 11
-276.731381
 21
-139.92875900000001
 31
0.0
  0
LINE
  5
FD
  8
DETAIL
  6
CONTINUOUS
 62
     5
 10
-282.008689
 20
-121.870797
 30
0.0
 11
-273.231381
 21
-126.938378
 31
0.0
  0
LINE
  5
FE
  8
DETAIL
  6
CONTINUOUS
 62
     5
 10
-284.731379
 20
-139.92876200000001
 30
0.0
 11
-284.731379
 21
-134.92876200000001
 31
0.0
  0
ARC
  5
FF
  8
DETAIL
  6
CONTINUOUS
 62
     5
 10
-267.758893
 20
-231.52160000000001
 30
0.0
 40
20.0
 50
181.10920100000001
 51
255.828677
  0
LINE
  5
100
  8
NOTE
  6
CONTINUOUS
 62
     4
 10
-260.0
 20
-280.0
 30
0.0
 11
-300.0
 21
-280.0
 31
0.0
  0
LINE
  5
101
  8
NOTE
  6
CONTINUOUS
 62
     4
 10
-280.0
 20
-300.0
 30
0.0
 11
-280.0
 21
-260.0
 31
0.0
  0
ARC
  5
102
  8
DETAIL
  6
CONTINUOUS
 62
     5
 10
-267.01889699999998
 20
-267.01889699999998
 30
0.0
 40
36.210000000000001
 50
181.279292
 51
268.720708
  0
ARC
  5
103
  8
DETAIL
  6
CONTINUOUS
 62
     5
 10
-267.01889699999998
 20
-267.01889699999998
 30
0.0
 40
36.200000000000003
 50
181.279292
 51
268.720708
  0
ARC
  5
104
  8
DETAIL
  6
CONTINUOUS
 62
     5
 10
-267.01889699999998
 20
-267.01889699999998
 30
0.0
 40
40.0
 50
181.279292
 51
268.720708
  0
ARC
  5
105
  8
OUTLINE
  6
CONTINUOUS
 62
     3
 10
-267.01889699999998
 20
-267.01889699999998
 30
0.0
 40
36.210000000000001
 50
181.279292
 51
268.720708
  0
ARC
  5
106
  8
OUTLINE
  6
CONTINUOUS
 62
     3
 10
-267.01889699999998
 20
-267.01889699999998
 30
0.0
 40
36.200000000000003
 50
181.279292
 51
268.720708
  0
ARC
  5
107
  8
OUTLINE
  6
CONTINUOUS
 62
     3
 10
-267.01889699999998
 20
-267.01889699999998
 30
0.0
 40
40.0
 50
181.279292
 51
268.720708
  0
ARC
  5
108
  8
DETAIL
  6
CONTINUOUS
 62
     5
 10
-280.0
 20
-280.0
 30
0.0
 40
30.0
 50
14.171322999999999
 51
75.828676999999999
  0
CIRCLE
  5
109
  8
DETAIL
  6
CONTINUOUS
 62
     5
 10
-280.0
 20
-280.0
 30
0.0
 40
7.0
  0
ARC
  5
10A
  8
DETAIL
  6
CONTINUOUS
 62
     5
 10
11690.0
 20
0.0
 30
0.0
 40
11980.0
 50
180.81911299999999
 51
181.10920100000001
  0
LINE
  5
10B
  8
DETAIL
  6
CONTINUOUS
 62
     5
 10
-288.77577500000001
 20
-171.26277899999999
 30
0.0
 11
-287.75514600000002
 21
-231.908759
 31
0.0
  0
ARC
  5
10C
  8
DETAIL
  6
CONTINUOUS
 62
     5
 10
11690.0
 20
0.0
 30
0.0
 40
11980.0
 50
180.41710399999999
 51
180.51971499999991
  0
LINE
  5
10D
  8
DETAIL
  6
CONTINUOUS
 62
     5
 10
-249.83419900000001
 20
-55.734701000000001
 30
0.0
 11
-249.83419699999999
 21
-55.734701000000001
 31
0.0
  0
LINE
  5
10E
  8
DETAIL
  6
CONTINUOUS
 62
     5
 10
-249.83419900000001
 20
-55.734701000000001
 30
0.0
 11
-249.83419699999999
 21
-55.734701000000001
 31
0.0
  0
LINE
  5
10F
  8
DETAIL
  6
CONTINUOUS
 62
     5
 10
-249.83419900000001
 20
-55.734701000000001
 30
0.0
 11
-249.83419699999999
 21
-55.734701000000001
 31
0.0
  0
LINE
  5
110
  8
DETAIL
  6
CONTINUOUS
 62
     5
 10
-249.83419900000001
 20
-55.734701000000001
 30
0.0
 11
-249.83419699999999
 21
-55.734701000000001
 31
0.0
  0
LINE
  5
111
  8
DETAIL
  6
CONTINUOUS
 62
     5
 10
-249.83419900000001
 20
-55.734701000000001
 30
0.0
 11
-249.83419699999999
 21
-55.734701000000001
 31
0.0
  0
LINE
  5
112
  8
DETAIL
  6
CONTINUOUS
 62
     5
 10
-249.83419900000001
 20
-55.734701000000001
 30
0.0
 11
-249.83419699999999
 21
-55.734701000000001
 31
0.0
  0
ARC
  5
113
  8
DETAIL
  6
CONTINUOUS
 62
     5
 10
83.325725000000006
 20
-173.99551099999999
 30
0.0
 40
220.650463
 50
143.42490100000001
 51
186.07101700000001
  0
ARC
  5
114
  8
DETAIL
  6
CONTINUOUS
 62
     5
 10
-171.04834500000001
 20
-273.777308
 30
0.0
 40
15.0
 50
269.18088699999998
 51
330.0
  0
ARC
  5
115
  8
DETAIL
  6
CONTINUOUS
 62
     5
 10
-111.57896
 20
-277.54301199999998
 30
0.0
 40
10.89791
 50
204.18534500000001
 51
285.50347199999999
  0
LINE
  5
116
  8
DETAIL
  6
CONTINUOUS
 62
     5
 10
-121.52030499999999
 20
-282.00777299999999
 30
0.0
 11
-127.009621
 21
-272.5
 31
0.0
  0
ARC
  5
117
  8
DETAIL
  6
CONTINUOUS
 62
     5
 10
-140.00000199999999
 20
-280.0
 30
0.0
 40
4.0
 50
270.0
 51
90.0
  0
ARC
  5
118
  8
DETAIL
  6
CONTINUOUS
 62
     5
 10
-145.00000199999999
 20
-280.0
 30
0.0
 40
4.0
 50
90.0
 51
270.0
  0
ARC
  5
119
  8
DETAIL
  6
CONTINUOUS
 62
     5
 10
-140.00000199999999
 20
-280.0
 30
0.0
 40
15.0
 50
30.0
 51
150.0
  0
LINE
  5
11A
  8
DETAIL
  6
CONTINUOUS
 62
     5
 10
-145.00000199999999
 20
-276.0
 30
0.0
 11
-140.00000199999999
 21
-276.0
 31
0.0
  0
LINE
  5
11B
  8
DETAIL
  6
CONTINUOUS
 62
     5
 10
-158.057964
 20
-281.277308
 30
0.0
 11
-152.99038300000001
 21
-272.5
 31
0.0
  0
LINE
  5
11C
  8
DETAIL
  6
CONTINUOUS
 62
     5
 10
-139.999999
 20
-283.99999800000001
 30
0.0
 11
-144.999999
 21
-283.99999800000001
 31
0.0
  0
ARC
  5
11D
  8
DETAIL
  6
CONTINUOUS
 62
     5
 10
0.0
 20
11690.0
 30
0.0
 40
11980.0
 50
268.89079900000002
 51
269.18088699999998
  0
LINE
  5
11E
  8
DETAIL
  6
CONTINUOUS
 62
     5
 10
-231.908759
 20
-287.75514600000002
 30
0.0
 11
-171.26277899999999
 21
-288.77577500000001
 31
0.0
  0
ARC
  5
11F
  8
DETAIL
  6
CONTINUOUS
 62
     5
 10
-142.73788200000001
 20
-198.039095
 30
0.0
 40
6.6881639999999987
 50
234.21784
 51
6.0708719999999996
  0
ARC
  5
120
  8
DETAIL
  6
CONTINUOUS
 62
     5
 10
0.0
 20
11690.0
 30
0.0
 40
11980.0
 50
269.48028499999998
 51
269.58289600000001
  0
LINE
  5
121
  8
DETAIL
  6
CONTINUOUS
 62
     5
 10
-142.29594399999999
 20
-79.809580000000011
 30
0.0
 11
-93.873362
 21
-42.515062999999991
 31
0.0
  0
LINE
  5
122
  8
DETAIL
  6
CONTINUOUS
 62
     5
 10
-97.257363999999995
 20
-93.014764999999997
 30
0.0
 11
-132.54087999999999
 21
-128.298293
 31
0.0
  0
LINE
  5
123
  8
DETAIL
  6
CONTINUOUS
 62
     5
 10
-134.48855
 20
-138.731246
 30
0.0
 11
-93.014721999999992
 21
-97.257404000000008
 31
0.0
  0
ARC
  5
124
  8
DETAIL
  6
CONTINUOUS
 62
     5
 10
-149.09767299999999
 20
-70.978339000000005
 30
0.0
 40
16.720410000000001
 50
196.730648
 51
279.76673299999999
  0
ARC
  5
125
  8
DETAIL
  6
CONTINUOUS
 62
     5
 10
-149.09767299999999
 20
-70.978339000000005
 30
0.0
 40
11.146940000000001
 50
196.73070200000001
 51
307.60308700000002
  0
ARC
  5
126
  8
DETAIL
  6
CONTINUOUS
 62
     5
 10
-168.56358900000001
 20
-155.9322159999999
 30
0.0
 40
4.4587760000000003
 50
313.88347299999998
 51
42.770516999999998
  0
ARC
  5
127
  8
DETAIL
  6
CONTINUOUS
 62
     5
 10
-168.56358900000001
 20
-155.9322159999999
 30
0.0
 40
4.4587760000000003
 50
222.771154
 51
313.88347299999998
  0
LINE
  5
128
  8
DETAIL
  6
CONTINUOUS
 62
     5
 10
-117.460217
 20
-82.498840999999999
 30
0.0
 11
-146.261279
 21
-87.456416000000004
 31
0.0
  0
ARC
  5
129
  8
DETAIL
  6
CONTINUOUS
 62
     5
 10
-27.437501999999999
 20
-96.497539000000003
 30
0.0
 40
22.293880000000001
 50
16.999120000000001
 51
71.071978999999999
  0
LINE
  5
12A
  8
DETAIL
  6
CONTINUOUS
 62
     5
 10
-89.500004999999987
 20
-88.772125000000003
 30
0.0
 11
-89.500004999999987
 21
-39.884129000000001
 31
0.0
  0
LINE
  5
12B
  8
DETAIL
  6
CONTINUOUS
 62
     5
 10
-95.500005000000016
 20
-88.772125000000003
 30
0.0
 11
-95.500005000000016
 21
-43.767884999999993
 31
0.0
  0
ARC
  5
12C
  8
DETAIL
  6
CONTINUOUS
 62
     5
 10
-81.5
 20
-74.895741999999984
 30
0.0
 40
8.0
 50
180.0
 51
253.79293699999999
  0
ARC
  5
12D
  8
DETAIL
  6
CONTINUOUS
 62
     5
 10
-0.000031
 20
205.49996899999999
 30
0.0
 40
297.69999999999999
 50
253.79293699999999
 51
264.76475199999999
  0
ARC
  5
12E
  8
DETAIL
  6
CONTINUOUS
 62
     5
 10
-0.000031
 20
205.49996899999999
 30
0.0
 40
300.0
 50
253.79293699999999
 51
264.70725199999998
  0
ARC
  5
12F
  8
DETAIL
  6
CONTINUOUS
 62
     5
 10
-101.500005
 20
-88.772125000000003
 30
0.0
 40
6.0
 50
315.00000999999997
 51
0.0
  0
ARC
  5
130
  8
DETAIL
  6
CONTINUOUS
 62
     5
 10
-101.500005
 20
-88.772125000000003
 30
0.0
 40
12.0
 50
315.00000999999997
 51
0.0
  0
ARC
  5
131
  8
DETAIL
  6
CONTINUOUS
 62
     5
 10
-20.992701
 20
-93.536905000000004
 30
0.0
 40
6.6881639999999987
 50
77.350797999999998
 51
196.16898800000001
  0
ARC
  5
132
  8
DETAIL
  6
CONTINUOUS
 62
     5
 10
0.0
 20
0.0
 30
0.0
 40
89.175522000000015
 50
257.35076199999997
 51
265.843638
  0
ARC
  5
133
  8
DETAIL
  6
CONTINUOUS
 62
     5
 10
-80.269909999999996
 20
-60.177537999999998
 30
0.0
 40
22.293880000000001
 50
36.858522999999998
 51
127.603081
  0
ARC
  5
134
  8
DETAIL
  6
CONTINUOUS
 62
     5
 10
-81.5
 20
-74.895741999999984
 30
0.0
 40
5.7000000000000002
 50
180.0
 51
253.79293699999999
  0
LINE
  5
135
  8
DETAIL
  6
CONTINUOUS
 62
     5
 10
-87.200000000000003
 20
-74.895741999999984
 30
0.0
 11
-87.200000000000003
 21
-38.988131000000003
 31
0.0
  0
LINE
  5
136
  8
DETAIL
  6
CONTINUOUS
 62
     5
 10
-89.500000000000014
 20
-39.884126000000002
 30
0.0
 11
-89.500000000000014
 21
-74.895741999999984
 31
0.0
  0
LINE
  5
137
  8
DETAIL
  6
CONTINUOUS
 62
     5
 10
-9.0557999999999996
 20
-2.7867349999999989
 30
0.0
 11
-12.261634000000001
 21
-2.7867349999999989
 31
0.0
  0
CIRCLE
  5
138
  8
FIX
  6
CONTINUOUS
 62
    11
 39
50.0
 10
-280.0
 20
280.0
 30
0.0
 40
5.5
  0
ARC
  5
139
  8
DETAIL
  6
CONTINUOUS
 62
     5
 10
-228.44223400000001
 20
23.295736999999999
 30
0.0
 40
4.4587760000000003
 50
83.064588999999998
 51
174.177448
  0
ARC
  5
13A
  8
DETAIL
  6
CONTINUOUS
 62
     5
 10
-147.82520500000001
 20
-249.091523
 30
0.0
 40
330.10591199999999
 50
76.168885000000003
 51
105.839828
  0
ARC
  5
13B
  8
DETAIL
  6
CONTINUOUS
 62
     5
 10
-231.52160000000001
 20
267.758893
 30
0.0
 40
20.0
 50
91.109200999999985
 51
165.828677
  0
ARC
  5
13C
  8
DETAIL
  6
CONTINUOUS
 62
     5
 10
0.0
 20
0.0
 30
0.0
 40
250.0
 50
90.0
 51
157.25076999999999
  0
ARC
  5
13D
  8
DETAIL
  6
CONTINUOUS
 62
     5
 10
-273.77730700000001
 20
171.04834500000001
 30
0.0
 40
15.0
 50
179.18088700000001
 51
240.0
  0
ARC
  5
13E
  8
DETAIL
  6
CONTINUOUS
 62
     5
 10
-236.10153299999999
 20
62.045642000000001
 30
0.0
 40
6.6881639999999987
 50
105.839828
 51
165.276127
  0
ARC
  5
13F
  8
DETAIL
  6
CONTINUOUS
 62
     5
 10
-274.59549399999997
 20
108.581101
 30
0.0
 40
14.911904
 50
119.806426
 51
179.67386300000001
  0
LINE
  5
140
  8
DETAIL
  6
CONTINUOUS
 62
     5
 10
-283.99999800000001
 20
139.99999800000001
 30
0.0
 11
-283.99999800000001
 21
144.99999800000001
 31
0.0
  0
LINE
  5
141
  8
DETAIL
  6
CONTINUOUS
 62
     5
 10
-281.27730700000001
 20
158.057964
 30
0.0
 11
-272.5
 21
152.99038300000001
 31
0.0
  0
LINE
  5
142
  8
DETAIL
  6
CONTINUOUS
 62
     5
 10
-276.0
 20
145.00000199999999
 30
0.0
 11
-276.0
 21
140.00000199999999
 31
0.0
  0
ARC
  5
143
  8
DETAIL
  6
CONTINUOUS
 62
     5
 10
-280.0
 20
140.00000199999999
 30
0.0
 40
15.0
 50
300.0
 51
60.0
  0
ARC
  5
144
  8
DETAIL
  6
CONTINUOUS
 62
     5
 10
-280.0
 20
145.00000199999999
 30
0.0
 40
4.0
 50
0.0
 51
180.0
  0
ARC
  5
145
  8
DETAIL
  6
CONTINUOUS
 62
     5
 10
-280.0
 20
140.00000199999999
 30
0.0
 40
4.0
 50
180.0
 51
0.0
  0
LINE
  5
146
  8
DETAIL
  6
CONTINUOUS
 62
     5
 10
-282.00777299999999
 20
121.52030499999999
 30
0.0
 11
-272.5
 21
127.009621
 31
0.0
  0
ARC
  5
147
  8
DETAIL
  6
CONTINUOUS
 62
     5
 10
-267.758893
 20
231.52160000000001
 30
0.0
 40
20.0
 50
104.171323
 51
178.89079899999999
  0
ARC
  5
148
  8
DETAIL
  6
CONTINUOUS
 62
     5
 10
11690.0
 20
0.0
 30
0.0
 40
11980.0
 50
178.89079899999999
 51
179.18088700000001
  0
LINE
  5
149
  8
NOTE
  6
CONTINUOUS
 62
     4
 10
-260.0
 20
280.0
 30
0.0
 11
-300.0
 21
280.0
 31
0.0
  0
LINE
  5
14A
  8
NOTE
  6
CONTINUOUS
 62
     4
 10
-280.0
 20
260.0
 30
0.0
 11
-280.0
 21
300.0
 31
0.0
  0
ARC
  5
14B
  8
DETAIL
  6
CONTINUOUS
 62
     5
 10
-267.01889699999998
 20
267.01889699999998
 30
0.0
 40
40.0
 50
91.279292000000027
 51
178.720708
  0
ARC
  5
14C
  8
DETAIL
  6
CONTINUOUS
 62
     5
 10
-267.01889699999998
 20
267.01889699999998
 30
0.0
 40
36.210000000000001
 50
91.279292000000027
 51
178.720708
  0
ARC
  5
14D
  8
DETAIL
  6
CONTINUOUS
 62
     5
 10
-267.01889699999998
 20
267.01889699999998
 30
0.0
 40
36.200000000000003
 50
91.279292000000027
 51
178.720708
  0
ARC
  5
14E
  8
OUTLINE
  6
CONTINUOUS
 62
     3
 10
-267.01889699999998
 20
267.01889699999998
 30
0.0
 40
40.0
 50
91.279292000000027
 51
178.720708
  0
ARC
  5
14F
  8
OUTLINE
  6
CONTINUOUS
 62
     3
 10
-267.01889699999998
 20
267.01889699999998
 30
0.0
 40
36.210000000000001
 50
91.279292000000027
 51
178.720708
  0
ARC
  5
150
  8
OUTLINE
  6
CONTINUOUS
 62
     3
 10
-267.01889699999998
 20
267.01889699999998
 30
0.0
 40
36.200000000000003
 50
91.279292000000027
 51
178.720708
  0
ARC
  5
151
  8
DETAIL
  6
CONTINUOUS
 62
     5
 10
-280.0
 20
280.0
 30
0.0
 40
30.0
 50
284.17132299999997
 51
345.82867700000003
  0
CIRCLE
  5
152
  8
DETAIL
  6
CONTINUOUS
 62
     5
 10
-280.0
 20
280.0
 30
0.0
 40
7.0
  0
LINE
  5
153
  8
DETAIL
  6
CONTINUOUS
 62
     5
 10
-12.715956
 20
142.97295500000001
 30
0.0
 11
-2.6088049999999989
 21
170.39419099999989
 31
0.0
  0
LINE
  5
154
  8
DETAIL
  6
CONTINUOUS
 62
     5
 10
-97.257363999999995
 20
93.014764999999997
 30
0.0
 11
-182.42103599999999
 21
178.17846599999999
 31
0.0
  0
LINE
  5
155
  8
DETAIL
  6
CONTINUOUS
 62
     5
 10
-178.178394
 20
182.42110600000001
 30
0.0
 11
-93.014721999999992
 21
97.257404000000008
 31
0.0
  0
LINE
  5
156
  8
DETAIL
  6
CONTINUOUS
 62
     5
 10
-133.55394799999999
 20
63.838005000000003
 30
0.0
 11
-74.865918000000008
 21
50.287979
 31
0.0
  0
LINE
  5
157
  8
DETAIL
  6
CONTINUOUS
 62
     5
 10
-132.30012600000001
 20
69.268614999999997
 30
0.0
 11
-70.241268999999974
 21
54.940328999999998
 31
0.0
  0
ARC
  5
158
  8
DETAIL
  6
CONTINUOUS
 62
     5
 10
-228.44223400000001
 20
23.295736999999999
 30
0.0
 40
4.4587760000000003
 50
354.177436
 51
83.064588999999998
  0
ARC
  5
159
  8
DETAIL
  6
CONTINUOUS
 62
     5
 10
-135.05854299999999
 20
57.321289
 30
0.0
 40
6.6881639999999987
 50
76.999217000000002
 51
147.18506300000001
  0
ARC
  5
15A
  8
DETAIL
  6
CONTINUOUS
 62
     5
 10
-135.05854299999999
 20
57.321289
 30
0.0
 40
12.261634000000001
 50
76.999217000000002
 51
147.18506300000001
  0
ARC
  5
15B
  8
DETAIL
  6
CONTINUOUS
 62
     5
 10
-81.5
 20
74.895741999999984
 30
0.0
 40
8.0
 50
106.20706300000001
 51
180.0
  0
LINE
  5
15C
  8
DETAIL
  6
CONTINUOUS
 62
     5
 10
-89.500004999999987
 20
88.772125000000003
 30
0.0
 11
-89.500000000000014
 21
74.895741999999984
 31
0.0
  0
LINE
  5
15D
  8
DETAIL
  6
CONTINUOUS
 62
     5
 10
-95.500005000000016
 20
88.772125000000003
 30
0.0
 11
-95.500005000000016
 21
76.840964
 31
0.0
  0
ARC
  5
15E
  8
DETAIL
  6
CONTINUOUS
 62
     5
 10
-69.850575000000006
 20
72.010362999999998
 30
0.0
 40
22.293880000000001
 50
256.999144
 51
311.072003
  0
ARC
  5
15F
  8
DETAIL
  6
CONTINUOUS
 62
     5
 10
-70.508988999999985
 20
64.948650000000001
 30
0.0
 40
6.6881639999999987
 50
317.35080499999998
 51
76.168993999999998
  0
ARC
  5
160
  8
DETAIL
  6
CONTINUOUS
 62
     5
 10
0.0
 20
0.0
 30
0.0
 40
89.175522000000015
 50
137.35074499999999
 51
145.84363099999999
  0
ARC
  5
161
  8
DETAIL
  6
CONTINUOUS
 62
     5
 10
-81.5
 20
74.895741999999984
 30
0.0
 40
5.7000000000000002
 50
106.20706300000001
 51
180.0
  0
LINE
  5
162
  8
DETAIL
  6
CONTINUOUS
 62
     5
 10
-9.0557999999999996
 20
2.7867349999999989
 30
0.0
 11
-12.261634000000001
 21
2.7867349999999989
 31
0.0
  0
ARC
  5
163
  8
DETAIL
  6
CONTINUOUS
 62
     5
 10
-101.500005
 20
88.772125000000003
 30
0.0
 40
6.0
 50
0.0
 51
44.999989999999997
  0
ARC
  5
164
  8
DETAIL
  6
CONTINUOUS
 62
     5
 10
-101.500005
 20
88.772125000000003
 30
0.0
 40
12.0
 50
0.0
 51
44.999989999999997
  0
ARC
  5
165
  8
DETAIL
  6
CONTINUOUS
 62
     5
 10
-108.880416
 20
274.508689
 30
0.0
 40
15.0
 50
89.180886999999998
 51
150.0
  0
ARC
  5
166
  8
DETAIL
  6
CONTINUOUS
 62
     5
 10
-168.34980100000001
 20
278.27439299999998
 30
0.0
 40
10.89791
 50
24.185345000000002
 51
105.503472
  0
LINE
  5
167
  8
DETAIL
  6
CONTINUOUS
 62
     5
 10
-158.408456
 20
282.73915399999998
 30
0.0
 11
-152.91914
 21
273.231381
 31
0.0
  0
ARC
  5
168
  8
DETAIL
  6
CONTINUOUS
 62
     5
 10
-139.92875900000001
 20
280.731381
 30
0.0
 40
4.0
 50
90.0
 51
270.0
  0
ARC
  5
169
  8
DETAIL
  6
CONTINUOUS
 62
     5
 10
-134.92875900000001
 20
280.731381
 30
0.0
 40
4.0
 50
270.0
 51
90.0
  0
ARC
  5
16A
  8
DETAIL
  6
CONTINUOUS
 62
     5
 10
-139.92875900000001
 20
280.731381
 30
0.0
 40
15.0
 50
210.0
 51
330.0
  0
LINE
  5
16B
  8
DETAIL
  6
CONTINUOUS
 62
     5
 10
-134.92875900000001
 20
276.731381
 30
0.0
 11
-139.92875900000001
 21
276.731381
 31
0.0
  0
LINE
  5
16C
  8
DETAIL
  6
CONTINUOUS
 62
     5
 10
-121.870797
 20
282.008689
 30
0.0
 11
-126.938378
 21
273.231381
 31
0.0
  0
LINE
  5
16D
  8
DETAIL
  6
CONTINUOUS
 62
     5
 10
-139.92876200000001
 20
284.731379
 30
0.0
 11
-134.92876200000001
 21
284.731379
 31
0.0
  0
ARC
  5
16E
  8
DETAIL
  6
CONTINUOUS
 62
     5
 10
-108.529922
 20
274.50777299999999
 30
0.0
 40
15.0
 50
90.519715000000005
 51
150.0
  0
ARC
  5
16F
  8
DETAIL
  6
CONTINUOUS
 62
     5
 10
0.0
 20
0.0
 30
0.0
 40
250.0
 50
135.687566
 51
136.662454
  0
ARC
  5
170
  8
DETAIL
  6
CONTINUOUS
 62
     5
 10
0.0
 20
-11690.0
 30
0.0
 40
11980.0
 50
90.819112999999987
 51
91.109200999999985
  0
LINE
  5
171
  8
DETAIL
  6
CONTINUOUS
 62
     5
 10
-125.453806
 20
275.19474700000001
 30
0.0
 11
-121.520304
 21
282.00777299999999
 31
0.0
  0
ARC
  5
172
  8
DETAIL
  6
CONTINUOUS
 62
     5
 10
-100.13794900000001
 20
222.634175
 30
0.0
 40
6.6881639999999987
 50
114.21786400000001
 51
246.070896
  0
ARC
  5
173
  8
DETAIL
  6
CONTINUOUS
 62
     5
 10
-50.759467000000001
 20
223.94644400000001
 30
0.0
 40
4.4587760000000003
 50
102.77117800000001
 51
193.88349700000001
  0
ARC
  5
174
  8
DETAIL
  6
CONTINUOUS
 62
     5
 10
-50.759467000000001
 20
223.94644400000001
 30
0.0
 40
4.4587760000000003
 50
193.88349700000001
 51
282.77054099999998
  0
ARC
  5
175
  8
DETAIL
  6
CONTINUOUS
 62
     5
 10
-11690.0
 20
0.0
 30
0.0
 40
11980.0
 50
359.58289600000001
 51
0.5197149999999999
  0
ARC
  5
176
  8
DETAIL
  6
CONTINUOUS
 62
     5
 10
-11690.0
 20
0.0
 30
0.0
 40
12000.0
 50
358.720708
 51
1.2792920000000001
  0
ARC
  5
177
  8
DETAIL
  6
CONTINUOUS
 62
     5
 10
-11690.0
 20
0.0
 30
0.0
 40
11996.209999999999
 50
358.720708
 51
1.2792920000000001
  0
ARC
  5
178
  8
DETAIL
  6
CONTINUOUS
 62
     5
 10
-11690.0
 20
0.0
 30
0.0
 40
11996.200000000001
 50
358.720708
 51
1.2792920000000001
  0
LINE
  5
179
  8
DETAIL
  6
CONTINUOUS
 62
     5
 10
87.200000000000003
 20
23.467023999999999
 30
0.0
 11
87.200000000000003
 21
-61.458548999999991
 31
0.0
  0
LINE
  5
17A
  8
DETAIL
  6
CONTINUOUS
 62
     5
 10
89.969887999999997
 20
22.077869
 30
0.0
 11
90.68175699999999
 21
-60.727003000000011
 31
0.0
  0
LINE
  5
17B
  8
DETAIL
  6
CONTINUOUS
 62
     5
 10
89.500004999999987
 20
22.206657
 30
0.0
 11
89.500004999999987
 21
0.0
 31
0.0
  0
LINE
  5
17C
  8
DETAIL
  6
CONTINUOUS
 62
     5
 10
96.326436999999999
 20
23.956478000000001
 30
0.0
 11
95.500005000000016
 21
0.0
 31
0.0
  0
ARC
  5
17D
  8
OUTLINE
  6
CONTINUOUS
 62
     3
 10
-11690.0
 20
0.0
 30
0.0
 40
12000.0
 50
358.720708
 51
1.2792920000000001
  0
ARC
  5
17E
  8
OUTLINE
  6
CONTINUOUS
 62
     3
 10
-11690.0
 20
0.0
 30
0.0
 40
11996.209999999999
 50
358.720708
 51
1.2792920000000001
  0
ARC
  5
17F
  8
OUTLINE
  6
CONTINUOUS
 62
     3
 10
-11690.0
 20
0.0
 30
0.0
 40
11996.200000000001
 50
358.720708
 51
1.2792920000000001
  0
LINE
  5
180
  8
SIZE
  6
CONTINUOUS
 62
    30
 10
320.0
 20
280.0
 30
0.0
 11
535.16408100000001
 21
280.0
 31
0.0
  0
LINE
  5
181
  8
SIZE
  6
CONTINUOUS
 62
    30
 10
320.0
 20
-280.0
 30
0.0
 11
535.16408100000001
 21
-280.0
 31
0.0
  0
LINE
  5
182
  8
SIZE
  6
CONTINUOUS
 62
    30
 10
505.1640809999999
 20
278.0
 30
0.0
 11
505.1640809999999
 21
-278.0
 31
0.0
  0
CIRCLE
  5
183
  8
SIZE
  6
CONTINUOUS
 62
    30
 10
505.1640809999999
 20
280.0
 30
0.0
 40
6.0
  0
CIRCLE
  5
184
  8
SIZE
  6
CONTINUOUS
 62
    30
 10
505.1640809999999
 20
-280.0
 30
0.0
 40
6.0
  0
TEXT
  5
185
  8
SIZE
  6
CONTINUOUS
 62
    30
 10
480.1640809999999
 20
-74.05714285714285
 30
0.0
 40
64.0
  1
560
 50
90.0
 41
0.9
 72
     1
 11
480.1640809999999
 21
0.0
 31
0.0
  0
POINT
  5
186
  8
DEFPOINTS
  6
CONTINUOUS
 62
    30
 10
300.0
 20
280.0
 30
0.0
  0
POINT
  5
187
  8
DEFPOINTS
  6
CONTINUOUS
 62
    30
 10
300.0
 20
-280.0
 30
0.0
  0
POINT
  5
188
  8
DEFPOINTS
  6
CONTINUOUS
 62
    30
 10
505.1640809999999
 20
-280.0
 30
0.0
  0
CIRCLE
  5
189
  8
FIX
  6
CONTINUOUS
 62
    11
 39
50.0
 10
280.0
 20
-280.0
 30
0.0
 40
5.5
  0
ARC
  5
18A
  8
DETAIL
  6
CONTINUOUS
 62
     5
 10
109.021654
 20
159.15995699999999
 30
0.0
 40
220.650463
 50
263.42487699999998
 51
306.0709930000001
  0
ARC
  5
18B
  8
DETAIL
  6
CONTINUOUS
 62
     5
 10
0.0
 20
0.0
 30
0.0
 40
250.80615399999999
 50
285.27612699999997
 51
354.21754299999998
  0
ARC
  5
18C
  8
DETAIL
  6
CONTINUOUS
 62
     5
 10
0.0
 20
0.0
 30
0.0
 40
234.08574400000001
 50
294.17739399999999
 51
342.770802
  0
ARC
  5
18D
  8
DETAIL
  6
CONTINUOUS
 62
     5
 10
154.47906699999999
 20
1786.3543890000001
 30
0.0
 40
2075.1980370000001
 50
270.46339999999998
 51
272.25268499999999
  0
ARC
  5
18E
  8
OUTLINE
  6
CONTINUOUS
 62
     3
 10
0.0
 20
11690.0
 30
0.0
 40
12000.0
 50
271.08509500000002
 51
271.279292
  0
ARC
  5
18F
  8
OUTLINE
  6
CONTINUOUS
 62
     3
 10
0.0
 20
11690.0
 30
0.0
 40
11996.200000000001
 50
271.08543800000001
 51
271.279292
  0
ARC
  5
190
  8
DETAIL
  6
CONTINUOUS
 62
     5
 10
25.556999999999999
 20
10.348644999999999
 30
0.0
 40
162.85003399999999
 50
267.18508700000001
 51
316.730569
  0
ARC
  5
191
  8
DETAIL
  6
CONTINUOUS
 62
     5
 10
25.556999999999999
 20
10.348644999999999
 30
0.0
 40
168.42350400000001
 50
267.18508700000001
 51
316.730569
  0
ARC
  5
192
  8
DETAIL
  6
CONTINUOUS
 62
     5
 10
0.0
 20
0.0
 30
0.0
 40
225.168192
 50
294.17728399999999
 51
342.77074699999997
  0
ARC
  5
193
  8
DETAIL
  6
CONTINUOUS
 62
     5
 10
108.88041800000001
 20
-274.508689
 30
0.0
 40
15.0
 50
269.18088699999998
 51
330.0
  0
ARC
  5
194
  8
DETAIL
  6
CONTINUOUS
 62
     5
 10
94.046423000000004
 20
-209.48464300000001
 30
0.0
 40
4.4587760000000003
 50
203.064583
 51
294.17744800000003
  0
ARC
  5
195
  8
DETAIL
  6
CONTINUOUS
 62
     5
 10
94.046423000000004
 20
-209.48464300000001
 30
0.0
 40
4.4587760000000003
 50
114.17743
 51
203.064583
  0
LINE
  5
196
  8
DETAIL
  6
CONTINUOUS
 62
     5
 10
139.928764
 20
-284.731379
 30
0.0
 11
134.928764
 21
-284.731379
 31
0.0
  0
ARC
  5
197
  8
DETAIL
  6
CONTINUOUS
 62
     5
 10
139.92876100000001
 20
-280.731381
 30
0.0
 40
4.0
 50
270.0
 51
90.0
  0
ARC
  5
198
  8
DETAIL
  6
CONTINUOUS
 62
     5
 10
134.92876100000001
 20
-280.731381
 30
0.0
 40
4.0
 50
90.0
 51
270.0
  0
ARC
  5
199
  8
DETAIL
  6
CONTINUOUS
 62
     5
 10
139.92876100000001
 20
-280.731381
 30
0.0
 40
15.0
 50
30.0
 51
150.0
  0
LINE
  5
19A
  8
DETAIL
  6
CONTINUOUS
 62
     5
 10
158.408457
 20
-282.73915499999998
 30
0.0
 11
152.91914199999999
 21
-273.231381
 31
0.0
  0
LINE
  5
19B
  8
DETAIL
  6
CONTINUOUS
 62
     5
 10
134.92876100000001
 20
-276.731381
 30
0.0
 11
139.92876100000001
 21
-276.731381
 31
0.0
  0
LINE
  5
19C
  8
DETAIL
  6
CONTINUOUS
 62
     5
 10
121.87079900000001
 20
-282.008689
 30
0.0
 11
126.938379
 21
-273.231381
 31
0.0
  0
ARC
  5
19D
  8
DETAIL
  6
CONTINUOUS
 62
     5
 10
168.34980300000001
 20
-278.27439299999998
 30
0.0
 40
10.89791
 50
204.18534500000001
 51
285.50347199999999
  0
ARC
  5
19E
  8
DETAIL
  6
CONTINUOUS
 62
     5
 10
168.974436
 20
-163.31761299999999
 30
0.0
 40
4.0
 50
300.52282000000002
 51
315.97520900000001
  0
LINE
  5
19F
  8
DETAIL
  6
CONTINUOUS
 62
     5
 10
140.26510400000001
 20
-83.327100000000002
 30
0.0
 11
83.755812000000006
 21
-60.039170999999989
 31
0.0
  0
ARC
  5
1A0
  8
DETAIL
  6
CONTINUOUS
 62
     5
 10
17.887594
 20
-145.62476599999999
 30
0.0
 40
6.6881639999999987
 50
196.999211
 51
267.18508700000001
  0
ARC
  5
1A1
  8
DETAIL
  6
CONTINUOUS
 62
     5
 10
17.887594
 20
-145.62476599999999
 30
0.0
 40
12.261634000000001
 50
196.999211
 51
267.18508700000001
  0
ARC
  5
1A2
  8
DETAIL
  6
CONTINUOUS
 62
     5
 10
92.250217000000006
 20
-39.427011
 30
0.0
 40
22.293880000000001
 50
156.85851700000001
 51
247.60309899999999
  0
LINE
  5
1A3
  8
DETAIL
  6
CONTINUOUS
 62
     5
 10
89.500000000000014
 20
-60.62523800000001
 30
0.0
 11
89.500004999999987
 21
0.0
 31
0.0
  0
LINE
  5
1A4
  8
DETAIL
  6
CONTINUOUS
 62
     5
 10
95.500005000000016
 20
-61.07580699999999
 30
0.0
 11
95.500005000000016
 21
0.0
 31
0.0
  0
LINE
  5
1A5
  8
DETAIL
  6
CONTINUOUS
 62
     5
 10
130.176231
 20
-60.474113000000003
 30
0.0
 11
148.870147
 21
-82.937777999999994
 31
0.0
  0
ARC
  5
1A6
  8
DETAIL
  6
CONTINUOUS
 62
     5
 10
136.017878
 20
-93.633208999999994
 30
0.0
 40
11.146940000000001
 50
316.73067800000001
 51
67.603063000000006
  0
ARC
  5
1A7
  8
DETAIL
  6
CONTINUOUS
 62
     5
 10
136.017878
 20
-93.633208999999994
 30
0.0
 40
16.720410000000001
 50
316.73073299999999
 51
39.766762999999997
  0
ARC
  5
1A8
  8
DETAIL
  6
CONTINUOUS
 62
     5
 10
168.974436
 20
-163.31761299999999
 30
0.0
 40
4.0
 50
135.975245
 51
149.47718
  0
ARC
  5
1A9
  8
DETAIL
  6
CONTINUOUS
 62
     5
 10
219.32305600000001
 20
-68.014242999999993
 30
0.0
 40
4.4587760000000003
 50
342.77113000000003
 51
73.883448999999985
  0
ARC
  5
1AA
  8
DETAIL
  6
CONTINUOUS
 62
     5
 10
219.32305600000001
 20
-68.014242999999993
 30
0.0
 40
4.4587760000000003
 50
73.883448999999985
 51
162.77051700000001
  0
ARC
  5
1AB
  8
DETAIL
  6
CONTINUOUS
 62
     5
 10
273.77730700000001
 20
-171.04834500000001
 30
0.0
 40
15.0
 50
359.18088699999998
 51
60.0
  0
ARC
  5
1AC
  8
DETAIL
  6
CONTINUOUS
 62
     5
 10
273.777308
 20
-171.04834299999999
 30
0.0
 40
15.0
 50
359.18088699999998
 51
60.0
  0
ARC
  5
1AD
  8
DETAIL
  6
CONTINUOUS
 62
     5
 10
267.758893
 20
-231.52160000000001
 30
0.0
 40
20.0
 50
284.17132299999997
 51
358.89079900000002
  0
ARC
  5
1AE
  8
DETAIL
  6
CONTINUOUS
 62
     5
 10
267.01889699999998
 20
-267.01889699999998
 30
0.0
 40
36.200000000000003
 50
271.279292
 51
358.720708
  0
ARC
  5
1AF
  8
DETAIL
  6
CONTINUOUS
 62
     5
 10
267.01889699999998
 20
-267.01889699999998
 30
0.0
 40
40.0
 50
271.279292
 51
358.720708
  0
ARC
  5
1B0
  8
DETAIL
  6
CONTINUOUS
 62
     5
 10
267.01889699999998
 20
-267.01889699999998
 30
0.0
 40
36.210000000000001
 50
271.279292
 51
358.720708
  0
LINE
  5
1B1
  8
NOTE
  6
CONTINUOUS
 62
     4
 10
300.0
 20
-280.0
 30
0.0
 11
260.0
 21
-280.0
 31
0.0
  0
LINE
  5
1B2
  8
NOTE
  6
CONTINUOUS
 62
     4
 10
280.0
 20
-300.0
 30
0.0
 11
280.0
 21
-260.0
 31
0.0
  0
ARC
  5
1B3
  8
OUTLINE
  6
CONTINUOUS
 62
     3
 10
267.01889699999998
 20
-267.01889699999998
 30
0.0
 40
36.200000000000003
 50
271.279292
 51
358.720708
  0
ARC
  5
1B4
  8
OUTLINE
  6
CONTINUOUS
 62
     3
 10
267.01889699999998
 20
-267.01889699999998
 30
0.0
 40
40.0
 50
271.279292
 51
358.720708
  0
ARC
  5
1B5
  8
OUTLINE
  6
CONTINUOUS
 62
     3
 10
267.01889699999998
 20
-267.01889699999998
 30
0.0
 40
36.210000000000001
 50
271.279292
 51
358.720708
  0
ARC
  5
1B6
  8
DETAIL
  6
CONTINUOUS
 62
     5
 10
280.0
 20
-280.0
 30
0.0
 40
30.0
 50
104.171323
 51
165.828677
  0
CIRCLE
  5
1B7
  8
DETAIL
  6
CONTINUOUS
 62
     5
 10
280.0
 20
-280.0
 30
0.0
 40
7.0
  0
ARC
  5
1B8
  8
DETAIL
  6
CONTINUOUS
 62
     5
 10
231.52160000000001
 20
-267.758893
 30
0.0
 40
20.0
 50
283.080872
 51
345.82867700000003
  0
ARC
  5
1B9
  8
DETAIL
  6
CONTINUOUS
 62
     5
 10
0.0
 20
11690.0
 30
0.0
 40
12000.0
 50
271.12711899999999
 51
271.279292
  0
ARC
  5
1BA
  8
DETAIL
  6
CONTINUOUS
 62
     5
 10
0.0
 20
11690.0
 30
0.0
 40
11996.200000000001
 50
271.127477
 51
271.279292
  0
ARC
  5
1BB
  8
DETAIL
  6
CONTINUOUS
 62
     5
 10
-11690.0
 20
0.0
 30
0.0
 40
11980.0
 50
358.89079900000002
 51
359.18088699999998
  0
ARC
  5
1BC
  8
DETAIL
  6
CONTINUOUS
 62
     5
 10
274.59549399999997
 20
-108.581101
 30
0.0
 40
14.911904
 50
299.80642599999999
 51
359.67386299999998
  0
LINE
  5
1BD
  8
DETAIL
  6
CONTINUOUS
 62
     5
 10
283.99999800000001
 20
-139.99999800000001
 30
0.0
 11
283.99999800000001
 21
-144.99999800000001
 31
0.0
  0
LINE
  5
1BE
  8
DETAIL
  6
CONTINUOUS
 62
     5
 10
281.27730700000001
 20
-158.057964
 30
0.0
 11
272.5
 21
-152.99038300000001
 31
0.0
  0
LINE
  5
1BF
  8
DETAIL
  6
CONTINUOUS
 62
     5
 10
276.0
 20
-145.00000199999999
 30
0.0
 11
276.0
 21
-140.00000199999999
 31
0.0
  0
ARC
  5
1C0
  8
DETAIL
  6
CONTINUOUS
 62
     5
 10
280.0
 20
-140.00000199999999
 30
0.0
 40
15.0
 50
120.0
 51
240.0
  0
ARC
  5
1C1
  8
DETAIL
  6
CONTINUOUS
 62
     5
 10
280.0
 20
-145.00000199999999
 30
0.0
 40
4.0
 50
180.0
 51
0.0
  0
ARC
  5
1C2
  8
DETAIL
  6
CONTINUOUS
 62
     5
 10
280.0
 20
-140.00000199999999
 30
0.0
 40
4.0
 50
0.0
 51
180.0
  0
LINE
  5
1C3
  8
DETAIL
  6
CONTINUOUS
 62
     5
 10
282.00777299999999
 20
-121.52030499999999
 30
0.0
 11
272.5
 21
-127.009621
 31
0.0
  0
ARC
  5
1C4
  8
DETAIL
  6
CONTINUOUS
 62
     5
 10
-11690.0
 20
0.0
 30
0.0
 40
11980.0
 50
359.48028500000009
 51
359.58289600000001
  0
ARC
  5
1C5
  8
DETAIL
  6
CONTINUOUS
 62
     5
 10
242.875832
 20
-24.595084
 30
0.0
 40
6.6881639999999987
 50
354.21781600000003
 51
126.07087199999999
  0
CIRCLE
  5
1C6
  8
FIX
  6
CONTINUOUS
 62
    11
 39
50.0
 10
280.0
 20
280.0
 30
0.0
 40
5.5
  0
LINE
  5
1C7
  8
NOTE
  6
CONTINUOUS
 62
     4
 39
50.0
 10
280.0
 20
280.0
 30
0.0
 11
321.34750600000001
 21
368.71962600000001
 31
0.0
  0
LINE
  5
1C9
  8
NOTE
  6
CONTINUOUS
 62
     4
 10
321.34750600000001
 20
368.71962600000001
 30
0.0
 11
613.57257400000003
 21
368.71962600000001
 31
0.0
  0
LINE
  5
1CA
  8
NOTE
  6
CONTINUOUS
 62
     4
 10
321.34750600000001
 20
368.71962600000001
 30
0.0
 11
575.52888399999995
 21
368.71962600000001
 31
0.0
  0
TEXT
  5
1CB
  8
NOTE
  6
CONTINUOUS
 62
     4
 10
337.35296399999999
 20
396.93433499999998
 30
0.0
 40
64.0
  1
4-φ14
 41
0.9
  0
ARC
  5
1CE
  8
DETAIL
  6
CONTINUOUS
 62
     5
 10
231.52160000000001
 20
267.758893
 30
0.0
 40
20.0
 50
14.171322999999999
 51
88.890799000000001
  0
ARC
  5
1CF
  8
DETAIL
  6
CONTINUOUS
 62
     5
 10
-141.80698599999999
 20
252.56613100000001
 30
0.0
 40
330.10591199999999
 50
316.16890899999999
 51
345.83985200000001
  0
ARC
  5
1D0
  8
DETAIL
  6
CONTINUOUS
 62
     5
 10
-21.740684000000002
 20
16.958704999999998
 30
0.0
 40
162.85003399999999
 50
27.185117999999999
 51
76.730599999999995
  0
ARC
  5
1D1
  8
DETAIL
  6
CONTINUOUS
 62
     5
 10
-21.740684000000002
 20
16.958704999999998
 30
0.0
 40
168.42350400000001
 50
27.185117999999999
 51
76.730599999999995
  0
LINE
  5
1D2
  8
DETAIL
  6
CONTINUOUS
 62
     5
 10
122.062303
 20
83.742114999999984
 30
0.0
 11
80.983636000000004
 21
39.691789
 31
0.0
  0
LINE
  5
1D3
  8
DETAIL
  6
CONTINUOUS
 62
     5
 10
126.13847199999999
 20
79.940955000000002
 30
0.0
 11
82.700368999999995
 21
33.360565999999999
 31
0.0
  0
ARC
  5
1D4
  8
DETAIL
  6
CONTINUOUS
 62
     5
 10
97.288077000000001
 20
24.487176000000002
 30
0.0
 40
22.293880000000001
 50
136.999168
 51
191.07202699999999
  0
ARC
  5
1D5
  8
DETAIL
  6
CONTINUOUS
 62
     5
 10
0.0
 20
0.0
 30
0.0
 40
89.175522000000015
 50
17.350738
 51
25.843614000000009
  0
ARC
  5
1D6
  8
DETAIL
  6
CONTINUOUS
 62
     5
 10
91.501689999999996
 20
28.588255
 30
0.0
 40
6.6881639999999987
 50
197.350829
 51
316.16901799999999
  0
LINE
  5
1D7
  8
DETAIL
  6
CONTINUOUS
 62
     5
 10
2.0308779999999991
 20
163.13668899999999
 30
0.0
 11
10.117575
 21
102.554277
 31
0.0
  0
ARC
  5
1D8
  8
DETAIL
  6
CONTINUOUS
 62
     5
 10
117.17094899999999
 20
88.303476000000003
 30
0.0
 40
12.261634000000001
 50
316.99924099999998
 51
27.185063
  0
ARC
  5
1D9
  8
DETAIL
  6
CONTINUOUS
 62
     5
 10
117.17094899999999
 20
88.303476000000003
 30
0.0
 40
6.6881639999999987
 50
316.99924099999998
 51
27.185063
  0
ARC
  5
1DA
  8
DETAIL
  6
CONTINUOUS
 62
     5
 10
108.529922
 20
274.50777299999999
 30
0.0
 40
15.0
 50
30.0
 51
89.480284999999995
  0
ARC
  5
1DB
  8
DETAIL
  6
CONTINUOUS
 62
     5
 10
0.0
 20
-11690.0
 30
0.0
 40
11980.0
 50
89.480284999999995
 51
89.582895999999977
  0
ARC
  5
1DC
  8
DETAIL
  6
CONTINUOUS
 62
     5
 10
134.39580900000001
 20
186.188906
 30
0.0
 40
4.4587760000000003
 50
323.06461300000001
 51
54.177424000000002
  0
ARC
  5
1DD
  8
DETAIL
  6
CONTINUOUS
 62
     5
 10
134.39580900000001
 20
186.188906
 30
0.0
 40
4.4587760000000003
 50
234.17746
 51
323.06461300000001
  0
ARC
  5
1DE
  8
DETAIL
  6
CONTINUOUS
 62
     5
 10
171.78388000000001
 20
173.44711100000001
 30
0.0
 40
6.6881639999999987
 50
345.83985200000001
 51
45.276158000000002
  0
ARC
  5
1DF
  8
DETAIL
  6
CONTINUOUS
 62
     5
 10
0.0
 20
-11690.0
 30
0.0
 40
11980.0
 50
88.890799000000001
 51
89.180886999999998
  0
LINE
  5
1E0
  8
DETAIL
  6
CONTINUOUS
 62
     5
 10
231.908759
 20
287.75514600000002
 30
0.0
 11
171.26277899999999
 21
288.77577500000001
 31
0.0
  0
LINE
  5
1E1
  8
DETAIL
  6
CONTINUOUS
 62
     5
 10
139.99999800000001
 20
283.99999800000001
 30
0.0
 11
144.99999800000001
 21
283.99999800000001
 31
0.0
  0
LINE
  5
1E2
  8
DETAIL
  6
CONTINUOUS
 62
     5
 10
158.057964
 20
281.27730700000001
 30
0.0
 11
152.99038300000001
 21
272.5
 31
0.0
  0
LINE
  5
1E3
  8
DETAIL
  6
CONTINUOUS
 62
     5
 10
145.00000199999999
 20
276.0
 30
0.0
 11
140.00000199999999
 21
276.0
 31
0.0
  0
ARC
  5
1E4
  8
DETAIL
  6
CONTINUOUS
 62
     5
 10
140.00000199999999
 20
280.0
 30
0.0
 40
15.0
 50
210.0
 51
330.0
  0
ARC
  5
1E5
  8
DETAIL
  6
CONTINUOUS
 62
     5
 10
145.00000199999999
 20
280.0
 30
0.0
 40
4.0
 50
270.0
 51
90.0
  0
ARC
  5
1E6
  8
DETAIL
  6
CONTINUOUS
 62
     5
 10
140.00000199999999
 20
280.0
 30
0.0
 40
4.0
 50
90.0
 51
270.0
  0
LINE
  5
1E7
  8
DETAIL
  6
CONTINUOUS
 62
     5
 10
121.52030499999999
 20
282.00777299999999
 30
0.0
 11
127.009621
 21
272.5
 31
0.0
  0
ARC
  5
1E8
  8
DETAIL
  6
CONTINUOUS
 62
     5
 10
171.04834500000001
 20
273.77730700000001
 30
0.0
 40
15.0
 50
89.180886999999998
 51
150.0
  0
ARC
  5
1E9
  8
DETAIL
  6
CONTINUOUS
 62
     5
 10
274.508689
 20
108.880416
 30
0.0
 40
15.0
 50
359.18088699999998
 51
60.0
  0
ARC
  5
1EA
  8
DETAIL
  6
CONTINUOUS
 62
     5
 10
278.27439299999998
 20
168.34980100000001
 30
0.0
 40
10.89791
 50
294.18534499999998
 51
15.503472
  0
LINE
  5
1EB
  8
DETAIL
  6
CONTINUOUS
 62
     5
 10
282.73915399999998
 20
158.408456
 30
0.0
 11
273.231381
 21
152.91914
 31
0.0
  0
ARC
  5
1EC
  8
DETAIL
  6
CONTINUOUS
 62
     5
 10
280.731381
 20
139.92875900000001
 30
0.0
 40
4.0
 50
0.0
 51
180.0
  0
ARC
  5
1ED
  8
DETAIL
  6
CONTINUOUS
 62
     5
 10
280.731381
 20
134.92875900000001
 30
0.0
 40
4.0
 50
180.0
 51
0.0
  0
ARC
  5
1EE
  8
DETAIL
  6
CONTINUOUS
 62
     5
 10
280.731381
 20
139.92875900000001
 30
0.0
 40
15.0
 50
120.0
 51
240.0
  0
LINE
  5
1EF
  8
DETAIL
  6
CONTINUOUS
 62
     5
 10
276.731381
 20
134.92875900000001
 30
0.0
 11
276.731381
 21
139.92875900000001
 31
0.0
  0
LINE
  5
1F0
  8
DETAIL
  6
CONTINUOUS
 62
     5
 10
282.008689
 20
121.870797
 30
0.0
 11
273.231381
 21
126.938378
 31
0.0
  0
LINE
  5
1F1
  8
DETAIL
  6
CONTINUOUS
 62
     5
 10
284.731379
 20
139.92876200000001
 30
0.0
 11
284.731379
 21
134.92876200000001
 31
0.0
  0
ARC
  5
1F2
  8
DETAIL
  6
CONTINUOUS
 62
     5
 10
274.50777299999999
 20
108.529922
 30
0.0
 40
15.0
 50
0.5197149999999999
 51
60.0
  0
ARC
  5
1F3
  8
DETAIL
  6
CONTINUOUS
 62
     5
 10
267.758893
 20
231.52160000000001
 30
0.0
 40
20.0
 50
1.1092010000000001
 51
75.828676999999999
  0
ARC
  5
1F4
  8
DETAIL
  6
CONTINUOUS
 62
     5
 10
-11690.0
 20
0.0
 30
0.0
 40
11980.0
 50
0.8191130000000001
 51
1.1092010000000001
  0
LINE
  5
1F5
  8
DETAIL
  6
CONTINUOUS
 62
     5
 10
288.77577500000001
 20
171.26277899999999
 30
0.0
 11
287.75514600000002
 21
231.908759
 31
0.0
  0
LINE
  5
1F6
  8
NOTE
  6
CONTINUOUS
 62
     4
 10
300.0
 20
280.0
 30
0.0
 11
260.0
 21
280.0
 31
0.0
  0
LINE
  5
1F7
  8
NOTE
  6
CONTINUOUS
 62
     4
 10
280.0
 20
260.0
 30
0.0
 11
280.0
 21
300.0
 31
0.0
  0
LINE
  5
1F8
  8
NOTE
  6
CONTINUOUS
 62
     4
 10
287.68685299999999
 20
319.254456
 30
0.0
 11
280.0
 21
280.0
 31
0.0
  0
LINE
  5
1F9
  8
NOTE
  6
CONTINUOUS
 62
     4
 10
280.0
 20
280.0
 30
0.0
 11
306.28423800000002
 21
310.151929
 31
0.0
  0
ARC
  5
1FA
  8
DETAIL
  6
CONTINUOUS
 62
     5
 10
267.01889699999998
 20
267.01889699999998
 30
0.0
 40
40.0
 50
1.2792920000000001
 51
88.720708000000016
  0
ARC
  5
1FB
  8
DETAIL
  6
CONTINUOUS
 62
     5
 10
267.01889699999998
 20
267.01889699999998
 30
0.0
 40
36.210000000000001
 50
1.2792920000000001
 51
88.720708000000016
  0
ARC
  5
1FC
  8
DETAIL
  6
CONTINUOUS
 62
     5
 10
267.01889699999998
 20
267.01889699999998
 30
0.0
 40
36.200000000000003
 50
1.2792920000000001
 51
88.720708000000016
  0
ARC
  5
1FD
  8
OUTLINE
  6
CONTINUOUS
 62
     3
 10
267.01889699999998
 20
267.01889699999998
 30
0.0
 40
40.0
 50
1.2792920000000001
 51
88.720708000000016
  0
ARC
  5
1FE
  8
OUTLINE
  6
CONTINUOUS
 62
     3
 10
267.01889699999998
 20
267.01889699999998
 30
0.0
 40
36.210000000000001
 50
1.2792920000000001
 51
88.720708000000016
  0
ARC
  5
1FF
  8
OUTLINE
  6
CONTINUOUS
 62
     3
 10
267.01889699999998
 20
267.01889699999998
 30
0.0
 40
36.200000000000003
 50
1.2792920000000001
 51
88.720708000000016
  0
CIRCLE
  5
200
  8
DETAIL
  6
CONTINUOUS
 62
     5
 10
280.0
 20
280.0
 30
0.0
 40
7.0
  0
ARC
  5
201
  8
DETAIL
  6
CONTINUOUS
 62
     5
 10
280.0
 20
280.0
 30
0.0
 40
30.0
 50
194.171323
 51
255.828677
  0
TEXT
  5
20B
  8
ETC
  6
CONTINUOUS
 62
    61
 10
406.5286146680229
 20
780.3776756869114
 30
0.0
 40
40.0
  1
EF-50FTB3_3
 41
0.9
  0
TEXT
  5
20C
  8
ETC
  6
CONTINUOUS
 62
    61
 10
448.9104198732129
 20
656.44844668691144
 30
0.0
 40
40.0
  1
EF-50FTB1
 41
0.9
  0
TEXT
  5
20D
  8
ETC
  6
CONTINUOUS
 62
    61
 10
406.5286146680229
 20
719.19176368691137
 30
0.0
 40
40.0
  1
産業扇
 41
0.9
  0
TEXT
  5
20E
  8
ETC
  6
CONTINUOUS
 62
    61
 10
448.9104198732129
 20
595.75606841055435
 30
0.0
 40
40.0
  1
EF-50FTB3
 41
0.9
  0
TEXT
  5
20F
  8
ETC
  6
CONTINUOUS
 62
    61
 10
448.9104198732129
 20
535.0636876963315
 30
0.0
 40
40.0
  1
EF-50FTB40A5
 41
0.9
  0
ENDSEC
  0
EOF
