  0
SECTION
  2
HEADER
  9
$ACADVER
  1
AC1009
  9
$INSBASE
 10
0.0
 20
0.0
 30
0.0
  9
$EXTMIN
 10
-771.77580148188463
 20
-472.32054496686942
 30
-100.119172924072
  9
$EXTMAX
 10
732.34864403766915
 20
574.53919257332927
 30
50.009162623118868
  9
$LIMMIN
 10
-2970.0
 20
-2100.0
  9
$LIMMAX
 10
2970.0
 20
2100.0
  9
$ORTHOMODE
 70
     1
  9
$REGENMODE
 70
     1
  9
$FILLMODE
 70
     1
  9
$QTEXTMODE
 70
     0
  9
$MIRRTEXT
 70
     0
  9
$DRAGMODE
 70
     2
  9
$LTSCALE
 40
20.0
  9
$OSMODE
 70
    37
  9
$ATTMODE
 70
     1
  9
$TEXTSIZE
 40
64.0
  9
$TRACEWID
 40
0.05
  9
$TEXTSTYLE
  7
STANDARD
  9
$CLAYER
  8
ETC
  9
$CELTYPE
  6
CONTINUOUS
  9
$CECOLOR
 62
     7
  9
$DIMSCALE
 40
1.0
  9
$DIMASZ
 40
2.0
  9
$DIMEXO
 40
20.0
  9
$DIMDLI
 40
200.0
  9
$DIMRND
 40
0.0
  9
$DIMDLE
 40
0.0
  9
$DIMEXE
 40
30.0
  9
$DIMTP
 40
0.1
  9
$DIMTM
 40
0.1
  9
$DIMTXT
 40
64.0
  9
$DIMCEN
 40
0.09
  9
$DIMTSZ
 40
0.0
  9
$DIMTOL
 70
     0
  9
$DIMLIM
 70
     0
  9
$DIMTIH
 70
     0
  9
$DIMTOH
 70
     0
  9
$DIMSE1
 70
     0
  9
$DIMSE2
 70
     0
  9
$DIMTAD
 70
     1
  9
$DIMZIN
 70
     8
  9
$DIMBLK
  1
DOT1
  9
$DIMASO
 70
     1
  9
$DIMSHO
 70
     0
  9
$DIMPOST
  1
<>
  9
$DIMAPOST
  1
"
  9
$DIMALT
 70
     0
  9
$DIMALTD
 70
     2
  9
$DIMALTF
 40
0.03937
  9
$DIMLFAC
 40
1.0
  9
$DIMTOFL
 70
     1
  9
$DIMTVP
 40
0.0
  9
$DIMTIX
 70
     0
  9
$DIMSOXD
 70
     0
  9
$DIMSAH
 70
     1
  9
$DIMBLK1
  1

  9
$DIMBLK2
  1

  9
$DIMSTYLE
  2
GEN-ISO
  9
$DIMCLRD
 70
     7
  9
$DIMCLRE
 70
     7
  9
$DIMCLRT
 70
     7
  9
$DIMTFAC
 40
1.0
  9
$DIMGAP
 40
25.0
  9
$LUNITS
 70
     2
  9
$LUPREC
 70
     4
  9
$SKETCHINC
 40
0.1
  9
$FILLETRAD
 40
5.0
  9
$AUNITS
 70
     1
  9
$AUPREC
 70
     3
  9
$MENU
  1
ACAD
  9
$ELEVATION
 40
0.0
  9
$PELEVATION
 40
0.0
  9
$THICKNESS
 40
0.0
  9
$LIMCHECK
 70
     0
  9
$BLIPMODE
 70
     0
  9
$CHAMFERA
 40
0.0
  9
$CHAMFERB
 40
0.0
  9
$SKPOLY
 70
     0
  9
$TDCREATE
 40
2451372.5474537038
  9
$TDUPDATE
 40
2454945.7785524069
  9
$TDINDWG
 40
0.8213240394
  9
$TDUSRTIMER
 40
0.8213240394
  9
$USRTIMER
 70
     1
  9
$ANGBASE
 50
0.0
  9
$ANGDIR
 70
     0
  9
$PDMODE
 70
     3
  9
$PDSIZE
 40
-2.0
  9
$PLINEWID
 40
0.0
  9
$COORDS
 70
     0
  9
$SPLFRAME
 70
     0
  9
$SPLINETYPE
 70
     6
  9
$SPLINESEGS
 70
     8
  9
$ATTDIA
 70
     0
  9
$ATTREQ
 70
     1
  9
$HANDLING
 70
     1
  9
$HANDSEED
  5
351
  9
$SURFTAB1
 70
     6
  9
$SURFTAB2
 70
     6
  9
$SURFTYPE
 70
     6
  9
$SURFU
 70
     6
  9
$SURFV
 70
     6
  9
$UCSNAME
  2

  9
$UCSORG
 10
0.0
 20
0.0
 30
0.0
  9
$UCSXDIR
 10
1.0
 20
0.0
 30
0.0
  9
$UCSYDIR
 10
0.0
 20
1.0
 30
0.0
  9
$PUCSNAME
  2

  9
$PUCSORG
 10
0.0
 20
0.0
 30
0.0
  9
$PUCSXDIR
 10
1.0
 20
0.0
 30
0.0
  9
$PUCSYDIR
 10
0.0
 20
1.0
 30
0.0
  9
$USERI1
 70
     0
  9
$USERI2
 70
     0
  9
$USERI3
 70
     0
  9
$USERI4
 70
     0
  9
$USERI5
 70
     0
  9
$USERR1
 40
20.0
  9
$USERR2
 40
0.0
  9
$USERR3
 40
0.0
  9
$USERR4
 40
0.0
  9
$USERR5
 40
0.0
  9
$WORLDVIEW
 70
     1
  9
$SHADEDGE
 70
     3
  9
$SHADEDIF
 70
    70
  9
$TILEMODE
 70
     1
  9
$MAXACTVP
 70
    48
  9
$PLIMCHECK
 70
     0
  9
$PEXTMIN
 10
-1.0000000000000000E+020
 20
-1.0000000000000000E+020
 30
-1.0000000000000000E+020
  9
$PEXTMAX
 10
1.0000000000000000E+020
 20
1.0000000000000000E+020
 30
1.0000000000000000E+020
  9
$PLIMMIN
 10
0.0
 20
0.0
  9
$PLIMMAX
 10
12.0
 20
9.0
  9
$UNITMODE
 70
     0
  9
$VISRETAIN
 70
     0
  9
$PLINEGEN
 70
     0
  9
$PSLTSCALE
 70
     0
  0
ENDSEC
  0
SECTION
  2
TABLES
  0
TABLE
  2
VPORT
 70
     1
  0
VPORT
  2
*ACTIVE
 70
     0
 10
0.0
 20
0.0
 11
1.0
 21
1.0
 12
14.08693349948294
 22
9.4252780078371643
 13
0.0
 23
0.0
 14
50.0
 24
50.0
 15
400.0
 25
400.0
 16
0.0
 26
0.0
 36
1.0
 17
0.0
 27
0.0
 37
0.0
 40
1298.1228145061409
 41
1.3098995695839311
 42
50.0
 43
0.0
 44
0.0
 50
0.0
 51
0.0
 71
     0
 72
   500
 73
     1
 74
     0
 75
     0
 76
     0
 77
     0
 78
     0
  0
ENDTAB
  0
TABLE
  2
LTYPE
 70
     4
  0
LTYPE
  2
CONTINUOUS
 70
     0
  3
実線
 72
    65
 73
     0
 40
0.0
  0
LTYPE
  2
DASHDOT
 70
     0
  3
____ _ ____ _ ____ _ ____ _ ____ _ ____ _ ____
 72
    65
 73
     4
 40
5.5
 49
4.0
 49
-0.6
 49
0.3
 49
-0.6
  0
LTYPE
  2
DASHED
 70
     0
  3
-- -- -- -- -- -- -- -- -- -- -- -- -- -- --
 72
    65
 73
     2
 40
0.75
 49
0.5
 49
-0.25
  0
ENDTAB
  0
TABLE
  2
LAYER
 70
    12
  0
LAYER
  2
0
 70
     0
 62
     7
  6
CONTINUOUS
  0
LAYER
  2
ETC
 70
     0
 62
    61
  6
CONTINUOUS
  0
LAYER
  2
OUTLINE
 70
     0
 62
     3
  6
CONTINUOUS
  0
LAYER
  2
DETAIL
 70
     0
 62
     5
  6
CONTINUOUS
  0
LAYER
  2
BASIS
 70
     0
 62
     6
  6
DASHDOT
  0
LAYER
  2
NOTE
 70
     0
 62
     4
  6
CONTINUOUS
  0
LAYER
  2
DEFPOINTS
 70
     0
 62
     7
  6
CONTINUOUS
  0
LAYER
  2
SIZE
 70
     0
 62
    30
  6
CONTINUOUS
  0
LAYER
  2
ARRANGE
 70
     0
 62
     1
  6
CONTINUOUS
  0
LAYER
  2
FIX
 70
     0
 62
    11
  6
CONTINUOUS
  0
LAYER
  2
SERVICESPACE
 70
     0
 62
     2
  6
DASHDOT
  0
LAYER
  2
SYMBOLLINE
 70
     0
 62
    15
  6
CONTINUOUS
  0
ENDTAB
  0
TABLE
  2
STYLE
 70
     3
  0
STYLE
  2
STANDARD
 70
     0
 40
0.0
 41
0.9
 50
0.0
 71
     0
 42
64.0
  3
SIMPLEX
  4
BIGFONT
  0
STYLE
  2
ANNOTATIVE
 70
     0
 40
0.0
 41
1.0
 50
0.0
 71
     0
 42
0.2
  3
txt
  4

  0
STYLE
  2

 70
     1
 40
0.0
 41
1.0
 50
0.0
 71
     0
 42
64.0
  3
ltypeshp.shx
  4

  0
ENDTAB
  0
TABLE
  2
VIEW
 70
     1
  0
VIEW
  2
ALL
 70
     0
 40
4282.6198079999986
 10
0.0
 20
41.309903999999989
 41
5940.0
 11
0.0
 21
0.0
 31
1.0
 12
0.0
 22
0.0
 32
0.0
 42
50.0
 43
0.0
 44
0.0
 50
0.0
 71
     0
  0
ENDTAB
  0
TABLE
  2
UCS
 70
     0
  0
ENDTAB
  0
TABLE
  2
APPID
 70
    14
  0
APPID
  2
ACAD
 70
     0
  0
APPID
  2
ACADANNOTATIVE
 70
     0
  0
APPID
  2
ACAD_MLEADERVER
 70
     0
  0
APPID
  2
CONTENTBLOCKDESCRIPTION
 70
     0
  0
APPID
  2
CONTENTBLOCKICON
 70
     0
  0
APPID
  2
GENIUS_GENCFG_13
 70
     0
  0
APPID
  2
GENIUS_GENCFG0_13
 70
     0
  0
APPID
  2
GENIUS_GENCFG1_13
 70
     0
  0
APPID
  2
GENIUS_GENCFG2_13
 70
     0
  0
APPID
  2
GENIUS_GENCFG3_13
 70
     0
  0
APPID
  2
GENIUS_GENCFG4_13
 70
     0
  0
APPID
  2
GENIUS_GEVCFG0_13
 70
     0
  0
APPID
  2
GENIUS_GENOENT_13
 70
     0
  0
APPID
  2
ACAD_EXEMPT_FROM_CAD_STANDARDS
 70
     0
  0
ENDTAB
  0
TABLE
  2
DIMSTYLE
 70
     3
  0
DIMSTYLE
  2
STANDARD
 70
     0
  3

  4

  5

  6

  7

 40
1.0
 41
0.18
 42
0.0625
 43
0.38
 44
0.18
 45
0.0
 46
0.0
 47
0.0
 48
0.0
140
0.18
141
0.09
142
0.0
143
25.399999999999999
144
1.0
145
0.0
146
1.0
147
0.09
 71
     0
 72
     0
 73
     1
 74
     1
 75
     0
 76
     0
 77
     0
 78
     0
170
     0
171
     2
172
     0
173
     0
174
     0
175
     0
176
     0
177
     0
178
     0
  0
DIMSTYLE
  2
ANNOTATIVE
 70
     0
  3

  4

  5

  6

  7

 40
1.0
 41
0.18
 42
0.0625
 43
0.38
 44
0.18
 45
0.0
 46
0.0
 47
0.0
 48
0.0
140
0.18
141
0.09
142
0.0
143
25.399999999999999
144
1.0
145
0.0
146
1.0
147
0.09
 71
     0
 72
     0
 73
     1
 74
     1
 75
     0
 76
     0
 77
     0
 78
     0
170
     0
171
     2
172
     0
173
     0
174
     0
175
     0
176
     0
177
     0
178
     0
  0
DIMSTYLE
  2
GEN-ISO
 70
     0
  3

  4
"
  5

  6

  7

 40
1.0
 41
2.0
 42
20.0
 43
200.0
 44
30.0
 45
0.0
 46
0.0
 47
0.1
 48
0.1
140
64.0
141
0.09
142
0.0
143
0.03937
144
1.0
145
0.0
146
1.0
147
25.0
 71
     0
 72
     0
 73
     0
 74
     0
 75
     0
 76
     0
 77
     1
 78
     8
170
     0
171
     2
172
     1
173
     1
174
     0
175
     0
176
     7
177
     7
178
     7
  0
ENDTAB
  0
ENDSEC
  0
SECTION
  2
BLOCKS
  0
BLOCK
  8
0
  2
$MODEL_SPACE
 70
     0
 10
0.0
 20
0.0
 30
0.0
  3
$MODEL_SPACE
  1

  0
ENDBLK
  5
76
  8
0
  0
BLOCK
 67
     1
  8
0
  2
$PAPER_SPACE
 70
     0
 10
0.0
 20
0.0
 30
0.0
  3
$PAPER_SPACE
  1

  0
ENDBLK
  5
72
 67
     1
  8
0
  0
BLOCK
  8
OUTLINE
  2
DOT1
 70
     0
 10
0.0
 20
0.0
 30
0.0
  3
DOT1
  1

  0
CIRCLE
  5
99
  8
SIZE
  6
CONTINUOUS
 62
     7
 10
0.0
 20
0.0
 30
0.0
 40
3.0
  0
ENDBLK
  5
9A
  8
OUTLINE
  0
ENDSEC
  0
SECTION
  2
ENTITIES
  0
ARC
  5
9E
  8
DETAIL
  6
CONTINUOUS
 62
     5
 39
50.0
 10
268.12173200000001
 20
-45.499979000000003
 30
0.0
 40
2.5
 50
270.0
 51
0.0
  0
LINE
  5
9F
  8
DETAIL
  6
CONTINUOUS
 62
     5
 39
50.0
 10
268.12173200000001
 20
-47.999979000000003
 30
0.0
 11
248.99512200000001
 21
-47.999979000000003
 31
0.0
  0
ARC
  5
A0
  8
DETAIL
  6
CONTINUOUS
 62
     5
 39
50.0
 10
268.12173200000001
 20
-42.501668000000002
 30
0.0
 40
2.5
 50
0.0
 51
90.0
  0
LINE
  5
A1
  8
DETAIL
  6
CONTINUOUS
 62
     5
 39
50.0
 10
248.49512200000001
 20
-39.999979000000003
 30
0.0
 11
268.12173200000001
 21
-39.999979000000003
 31
0.0
  0
ARC
  5
A2
  8
DETAIL
  6
CONTINUOUS
 62
     5
 39
50.0
 10
248.99512200000001
 20
-52.99997900000001
 30
0.0
 40
5.0
 50
90.0
 51
180.0
  0
ARC
  5
A3
  8
DETAIL
  6
CONTINUOUS
 62
     5
 39
50.0
 10
248.49512200000001
 20
-52.499979000000003
 30
0.0
 40
12.5
 50
90.0
 51
180.0
  0
LINE
  5
A4
  8
DETAIL
  6
CONTINUOUS
 62
     5
 39
50.0
 10
252.46628000000001
 20
-56.842006999999988
 30
0.0
 11
223.34885299999999
 21
-56.841664999999992
 31
0.0
  0
LINE
  5
A5
  8
DETAIL
  6
CONTINUOUS
 62
     5
 39
50.0
 10
223.34885299999999
 20
-64.842158999999995
 30
0.0
 11
252.46530300000001
 21
-64.868530000000007
 31
0.0
  0
LINE
  5
A6
  8
DETAIL
  6
CONTINUOUS
 62
     5
 39
50.0
 10
236.561082
 20
-64.855346999999995
 30
0.0
 11
236.56020799999999
 21
-73.338419999999999
 31
0.0
  0
LINE
  5
A7
  8
DETAIL
  6
CONTINUOUS
 62
     5
 10
236.561082
 20
-64.855346999999995
 30
0.0
 11
236.561082
 21
-158.68695199999999
 31
0.0
  0
LINE
  5
A8
  8
DETAIL
  6
CONTINUOUS
 62
     5
 10
244.56108499999999
 20
-64.862973999999994
 30
0.0
 11
244.56108499999999
 21
-158.68695199999999
 31
0.0
  0
LINE
  5
A9
  8
DETAIL
  6
CONTINUOUS
 62
     5
 10
235.99512200000001
 20
-52.499979000000003
 30
0.0
 11
235.99512200000001
 21
-56.841709999999999
 31
0.0
  0
LINE
  5
AA
  8
DETAIL
  6
CONTINUOUS
 62
     5
 10
243.99512200000001
 20
-52.99997900000001
 30
0.0
 11
243.99512200000001
 21
-56.841709999999999
 31
0.0
  0
ARC
  5
AB
  8
DETAIL
  6
CONTINUOUS
 62
     5
 10
150.14555300000001
 20
-154.690505
 30
0.0
 40
94.515668000000005
 50
272.14097400000003
 51
357.36233800000002
  0
ARC
  5
AC
  8
DETAIL
  6
CONTINUOUS
 62
     5
 10
149.312826
 20
-153.96625700000001
 30
0.0
 40
87.375872999999984
 50
273.80877599999991
 51
356.90294699999998
  0
LINE
  5
AD
  8
DETAIL
  6
CONTINUOUS
 62
     5
 39
50.0
 10
137.411351
 20
-249.13951
 30
0.0
 11
145.92070200000001
 21
-249.13951
 31
0.0
  0
LINE
  5
AE
  8
DETAIL
  6
CONTINUOUS
 62
     5
 39
50.0
 10
137.411351
 20
-241.13951
 30
0.0
 11
145.92070200000001
 21
-241.13951
 31
0.0
  0
LINE
  5
AF
  8
DETAIL
  6
CONTINUOUS
 62
     5
 10
145.93133399999999
 20
-229.07210499999999
 30
0.0
 11
145.917813
 21
-261.21516600000001
 31
0.0
  0
LINE
  5
B0
  8
DETAIL
  6
CONTINUOUS
 62
     5
 10
153.855141
 20
-229.393922
 30
0.0
 11
153.84745100000001
 21
-261.53347100000002
 31
0.0
  0
LINE
  5
B1
  8
DETAIL
  6
CONTINUOUS
 62
     5
 10
153.85146399999999
 20
-241.46905799999999
 30
0.0
 11
153.85112799999999
 21
-249.45833500000001
 31
0.0
  0
LINE
  5
B2
  8
DETAIL
  6
CONTINUOUS
 62
     5
 10
270.62173200000001
 20
-42.501668000000002
 30
0.0
 11
270.62173200000001
 21
-45.499979000000003
 31
0.0
  0
LINE
  5
B3
  8
SIZE
  6
CONTINUOUS
 62
    30
 10
-81.355768999999995
 20
-291.374775
 30
0.0
 11
-81.355768999999995
 21
-472.0292419999999
 31
0.0
  0
LINE
  5
B4
  8
SIZE
  6
CONTINUOUS
 62
    30
 10
81.639889999999994
 20
-290.01036199999999
 30
0.0
 11
81.639889999999994
 21
-472.0292419999999
 31
0.0
  0
LINE
  5
B5
  8
SIZE
  6
CONTINUOUS
 62
    30
 10
-79.355768999999995
 20
-442.0292419999999
 30
0.0
 11
79.639890000000008
 21
-442.0292419999999
 31
0.0
  0
LINE
  5
B6
  8
SIZE
  6
CONTINUOUS
 62
    30
 10
81.639889999999994
 20
-442.0292419999999
 30
0.0
 11
322.89703300000002
 21
-442.0292419999999
 31
0.0
  0
CIRCLE
  5
B7
  8
SIZE
  6
CONTINUOUS
 62
    30
 10
-81.355768999999995
 20
-442.0292419999999
 30
0.0
 40
6.0
  0
CIRCLE
  5
B8
  8
SIZE
  6
CONTINUOUS
 62
    30
 10
81.639889999999994
 20
-442.0292419999999
 30
0.0
 40
6.0
  0
TEXT
  5
B9
  8
SIZE
  6
CONTINUOUS
 62
    30
 10
94.377032428571425
 20
-417.0292419999999
 30
0.0
 40
64.0
  1
φ163
 41
0.9
 72
     1
 11
203.268461
 21
-417.0292419999999
 31
0.0
  0
POINT
  5
BA
  8
DEFPOINTS
  6
CONTINUOUS
 62
    30
 10
-81.355768999999995
 20
-271.374775
 30
0.0
  0
POINT
  5
BB
  8
DEFPOINTS
  6
CONTINUOUS
 62
    30
 10
81.639889999999994
 20
-270.01036199999999
 30
0.0
  0
POINT
  5
BC
  8
DEFPOINTS
  6
CONTINUOUS
 62
    30
 10
81.639889999999994
 20
-442.0292419999999
 30
0.0
  0
LINE
  5
BD
  8
DETAIL
  6
CONTINUOUS
 62
     5
 10
-223.34885299999999
 20
-88.973996999999983
 30
0.0
 11
223.34885299999999
 21
-88.973996999999983
 31
0.0
  0
LINE
  5
BE
  8
DETAIL
  6
CONTINUOUS
 62
     5
 10
69.296190999999993
 20
-297.70428199999998
 30
0.0
 11
0.0
 21
-296.98564399999998
 31
0.0
  0
LINE
  5
BF
  8
OUTLINE
  6
CONTINUOUS
 62
     3
 10
69.296190999999993
 20
-297.70428199999998
 30
0.0
 11
0.0
 21
-296.98564399999998
 31
0.0
  0
LINE
  5
C0
  8
DETAIL
  6
CONTINUOUS
 62
     5
 10
69.293746999999996
 20
-129.05006599999999
 30
0.0
 11
-0.002904
 21
-129.27429900000001
 31
0.0
  0
LINE
  5
C1
  8
DETAIL
  6
CONTINUOUS
 62
     5
 10
-8.5490949999999994
 20
-126.748662
 30
0.0
 11
26.108550999999999
 21
-126.748662
 31
0.0
  0
LINE
  5
C2
  8
DETAIL
  6
CONTINUOUS
 62
     5
 10
15.053063
 20
-112.185603
 30
0.0
 11
-0.012139
 21
-112.185603
 31
0.0
  0
LINE
  5
C3
  8
DETAIL
  6
CONTINUOUS
 62
     5
 10
-0.012139
 20
-107.666084
 30
0.0
 11
10.031281
 21
-107.666084
 31
0.0
  0
LINE
  5
C4
  8
SIZE
  6
CONTINUOUS
 62
    30
 10
309.88349799999997
 20
18.649972999999999
 30
0.0
 11
309.88349799999997
 21
218.27557200000001
 31
0.0
  0
LINE
  5
C5
  8
SIZE
  6
CONTINUOUS
 62
    30
 10
-310.11650200000003
 20
17.620429000000001
 30
0.0
 11
-310.11650200000003
 21
218.27557200000001
 31
0.0
  0
LINE
  5
C6
  8
SIZE
  6
CONTINUOUS
 62
    30
 10
307.88349799999997
 20
188.27557200000001
 30
0.0
 11
-308.11650200000003
 21
188.27557200000001
 31
0.0
  0
CIRCLE
  5
C7
  8
SIZE
  6
CONTINUOUS
 62
    30
 10
309.88349799999997
 20
188.27557200000001
 30
0.0
 40
6.0
  0
CIRCLE
  5
C8
  8
SIZE
  6
CONTINUOUS
 62
    30
 10
-310.11650200000003
 20
188.27557200000001
 30
0.0
 40
6.0
  0
TEXT
  5
C9
  8
SIZE
  6
CONTINUOUS
 62
    30
 10
-74.173644857142847
 20
213.27557200000001
 30
0.0
 40
64.0
  1
620
 41
0.9
 72
     1
 11
-0.116502
 21
213.27557200000001
 31
0.0
  0
POINT
  5
CA
  8
DEFPOINTS
  6
CONTINUOUS
 62
    30
 10
309.88349799999997
 20
-1.3500270000000001
 30
0.0
  0
POINT
  5
CB
  8
DEFPOINTS
  6
CONTINUOUS
 62
    30
 10
-310.11650200000003
 20
-2.379570999999999
 30
0.0
  0
POINT
  5
CC
  8
DEFPOINTS
  6
CONTINUOUS
 62
    30
 10
-310.11650200000003
 20
188.27557200000001
 30
0.0
  0
LINE
  5
CD
  8
SIZE
  6
CONTINUOUS
 62
    30
 10
280.0
 20
40.0
 30
0.0
 11
280.0
 21
114.74447000000001
 31
0.0
  0
LINE
  5
CE
  8
SIZE
  6
CONTINUOUS
 62
    30
 10
-280.0
 20
40.0
 30
0.0
 11
-280.0
 21
114.74447000000001
 31
0.0
  0
LINE
  5
CF
  8
SIZE
  6
CONTINUOUS
 62
    30
 10
278.0
 20
84.744469999999993
 30
0.0
 11
-278.0
 21
84.744469999999993
 31
0.0
  0
CIRCLE
  5
D0
  8
SIZE
  6
CONTINUOUS
 62
    30
 10
280.0
 20
84.744469999999993
 30
0.0
 40
6.0
  0
CIRCLE
  5
D1
  8
SIZE
  6
CONTINUOUS
 62
    30
 10
-280.0
 20
84.744469999999993
 30
0.0
 40
6.0
  0
TEXT
  5
D2
  8
SIZE
  6
CONTINUOUS
 62
    30
 10
-74.05714285714285
 20
109.74447000000001
 30
0.0
 40
64.0
  1
560
 41
0.9
 72
     1
 11
0.0
 21
109.74447000000001
 31
0.0
  0
POINT
  5
D3
  8
DEFPOINTS
  6
CONTINUOUS
 62
    30
 10
280.0
 20
20.0
 30
0.0
  0
POINT
  5
D4
  8
DEFPOINTS
  6
CONTINUOUS
 62
    30
 10
-280.0
 20
20.0
 30
0.0
  0
POINT
  5
D5
  8
DEFPOINTS
  6
CONTINUOUS
 62
    30
 10
-280.0
 20
84.744469999999993
 30
0.0
  0
LINE
  5
D6
  8
DETAIL
  6
CONTINUOUS
 62
     5
 10
-105.95862
 20
-219.34956
 30
0.0
 11
0.133252
 21
-219.34956
 31
0.0
  0
LINE
  5
D7
  8
DETAIL
  6
CONTINUOUS
 62
     5
 10
138.09782200000001
 20
-229.99564599999999
 30
0.0
 11
-122.63630499999999
 21
-229.99564599999999
 31
0.0
  0
LINE
  5
D8
  8
DETAIL
  6
CONTINUOUS
 62
     5
 10
-223.34885299999999
 20
-95.0
 30
0.0
 11
8.5369559999999982
 21
-95.0
 31
0.0
  0
LINE
  5
D9
  8
DETAIL
  6
CONTINUOUS
 62
     5
 10
-132.07173599999999
 20
-223.969559
 30
0.0
 11
85.068258999999998
 21
-223.969559
 31
0.0
  0
LINE
  5
DA
  8
DETAIL
  6
CONTINUOUS
 62
     5
 10
-138.09782200000001
 20
-269.16521
 30
0.0
 11
0.202467
 21
-269.28129999999999
 31
0.0
  0
LINE
  5
DB
  8
OUTLINE
  6
CONTINUOUS
 62
     3
 10
138.09782200000001
 20
-229.99564599999999
 30
0.0
 11
-122.63630499999999
 21
-229.99564599999999
 31
0.0
  0
LINE
  5
DC
  8
OUTLINE
  6
CONTINUOUS
 62
     3
 10
-223.34885299999999
 20
-95.0
 30
0.0
 11
8.5369559999999982
 21
-95.0
 31
0.0
  0
LINE
  5
DD
  8
OUTLINE
  6
CONTINUOUS
 62
     3
 10
-132.07173599999999
 20
-223.969559
 30
0.0
 11
85.068258999999998
 21
-223.969559
 31
0.0
  0
LINE
  5
DE
  8
OUTLINE
  6
CONTINUOUS
 62
     3
 10
-138.09782200000001
 20
-269.16521
 30
0.0
 11
0.202467
 21
-269.28129999999999
 31
0.0
  0
LINE
  5
DF
  8
DETAIL
  6
CONTINUOUS
 62
     5
 10
287.24347
 20
-20.0
 30
0.0
 11
0.0
 21
-20.0
 31
0.0
  0
LINE
  5
E0
  8
DETAIL
  6
CONTINUOUS
 62
     5
 10
303.33601299999998
 20
-9.9810110000000005
 30
0.0
 11
-0.177892
 21
-9.9810110000000005
 31
0.0
  0
LINE
  5
E1
  8
DETAIL
  6
CONTINUOUS
 62
     5
 10
307.591589
 20
-7.733477999999999
 30
0.0
 11
0.0
 21
-7.733477999999999
 31
0.0
  0
LINE
  5
E2
  8
OUTLINE
  6
CONTINUOUS
 62
     3
 10
287.24347
 20
-20.086956000000001
 30
0.0
 11
0.0
 21
-20.086956000000001
 31
0.0
  0
LINE
  5
E3
  8
OUTLINE
  6
CONTINUOUS
 62
     3
 10
303.33601299999998
 20
-9.9810110000000005
 30
0.0
 11
-0.355686
 21
-9.994178999999999
 31
0.0
  0
LINE
  5
E4
  8
OUTLINE
  6
CONTINUOUS
 62
     3
 10
307.591589
 20
-7.733477999999999
 30
0.0
 11
0.0
 21
-7.733477999999999
 31
0.0
  0
LINE
  5
E5
  8
DETAIL
  6
CONTINUOUS
 62
     5
 10
-82.657824000000005
 20
-172.494032
 30
0.0
 11
0.060594
 21
-172.562815
 31
0.0
  0
LINE
  5
E6
  8
DETAIL
  6
CONTINUOUS
 62
     5
 10
0.062069
 20
-173.56863300000001
 30
0.0
 11
-82.657824000000005
 21
-173.45086499999999
 31
0.0
  0
LINE
  5
E7
  8
DETAIL
  6
CONTINUOUS
 62
     5
 10
8.5369559999999982
 20
-126.748662
 30
0.0
 11
-26.12069
 21
-126.748662
 31
0.0
  0
LINE
  5
E8
  8
DETAIL
  6
CONTINUOUS
 62
     5
 10
-72.312958999999992
 20
-131.26825700000001
 30
0.0
 11
0.000042
 21
-131.28299000000001
 31
0.0
  0
LINE
  5
E9
  8
DETAIL
  6
CONTINUOUS
 62
     5
 10
-78.462570999999997
 20
-133.57825700000001
 30
0.0
 11
0.003468
 21
-133.61854500000001
 31
0.0
  0
LINE
  5
EA
  8
DETAIL
  6
CONTINUOUS
 62
     5
 10
138.09782200000001
 20
-261.13042799999999
 30
0.0
 11
-15.065217000000001
 21
-261.13042799999999
 31
0.0
  0
LINE
  5
EB
  8
OUTLINE
  6
CONTINUOUS
 62
     3
 10
138.09782200000001
 20
-261.13042799999999
 30
0.0
 11
-15.065217000000001
 21
-261.13042799999999
 31
0.0
  0
LINE
  5
EC
  8
DETAIL
  6
CONTINUOUS
 62
     5
 10
307.78241500000001
 20
0.0
 30
0.0
 11
0.0
 21
0.0
 31
0.0
  0
LINE
  5
ED
  8
OUTLINE
  6
CONTINUOUS
 62
     3
 10
307.78241500000001
 20
0.0
 30
0.0
 11
0.0
 21
0.0
 31
0.0
  0
LINE
  5
EE
  8
BASIS
  6
DASHDOT
 62
     6
 39
100.110011
 10
0.2656449999999999
 20
-312.35121700000002
 30
-100.110011
 11
-0.195981
 21
2.3509889999999989
 31
-100.110011
  0
CIRCLE
  5
EF
  8
ARRANGE
  6
CONTINUOUS
 62
     1
 10
0.0
 20
0.0
 30
0.0
 40
40.0
  0
LINE
  5
F0
  8
SIZE
  6
CONTINUOUS
 62
    30
 10
-300.0
 20
0.0
 30
0.0
 11
-549.97394199999997
 21
0.0
 31
0.0
  0
LINE
  5
F1
  8
SIZE
  6
CONTINUOUS
 62
    30
 10
-340.0
 20
-95.0
 30
0.0
 11
-549.97394199999997
 21
-95.0
 31
0.0
  0
LINE
  5
F2
  8
SIZE
  6
CONTINUOUS
 62
    30
 10
-519.97394199999985
 20
-2.0
 30
0.0
 11
-519.97394199999985
 21
-93.0
 31
0.0
  0
LINE
  5
F3
  8
SIZE
  6
CONTINUOUS
 62
    30
 10
-519.97394199999985
 20
-95.0
 30
0.0
 11
-519.97394199999985
 21
-240.25714300000001
 31
0.0
  0
CIRCLE
  5
F4
  8
SIZE
  6
CONTINUOUS
 62
    30
 10
-519.97394199999985
 20
0.0
 30
0.0
 40
6.0
  0
CIRCLE
  5
F5
  8
SIZE
  6
CONTINUOUS
 62
    30
 10
-519.97394199999985
 20
-95.0
 30
0.0
 40
6.0
  0
TEXT
  5
F6
  8
SIZE
  6
CONTINUOUS
 62
    30
 10
-544.97394199999985
 20
-215.2571424285714
 30
0.0
 40
64.0
  1
95
 50
90.0
 41
0.9
 72
     1
 11
-544.97394199999985
 21
-168.62857099999999
 31
0.0
  0
POINT
  5
F7
  8
DEFPOINTS
  6
CONTINUOUS
 62
    30
 10
-280.0
 20
0.0
 30
0.0
  0
POINT
  5
F8
  8
DEFPOINTS
  6
CONTINUOUS
 62
    30
 10
-320.0
 20
-95.0
 30
0.0
  0
POINT
  5
F9
  8
DEFPOINTS
  6
CONTINUOUS
 62
    30
 10
-519.97394199999985
 20
-95.0
 30
0.0
  0
LINE
  5
FA
  8
SIZE
  6
CONTINUOUS
 62
    30
 10
-320.0
 20
0.0
 30
0.0
 11
-712.62110800000005
 21
0.0
 31
0.0
  0
LINE
  5
FB
  8
SIZE
  6
CONTINUOUS
 62
    30
 10
-85.204948999999999
 20
-297.0
 30
0.0
 11
-712.62110800000005
 21
-297.0
 31
0.0
  0
LINE
  5
FC
  8
SIZE
  6
CONTINUOUS
 62
    30
 10
-682.62110800000005
 20
-2.0
 30
0.0
 11
-682.62110800000005
 21
-295.0
 31
0.0
  0
CIRCLE
  5
FD
  8
SIZE
  6
CONTINUOUS
 62
    30
 10
-682.62110800000005
 20
0.0
 30
0.0
 40
6.0
  0
CIRCLE
  5
FE
  8
SIZE
  6
CONTINUOUS
 62
    30
 10
-682.62110800000005
 20
-297.0
 30
0.0
 40
6.0
  0
TEXT
  5
FF
  8
SIZE
  6
CONTINUOUS
 62
    30
 10
-707.62110800000005
 20
-222.55714285714279
 30
0.0
 40
64.0
  1
297
 50
90.0
 41
0.9
 72
     1
 11
-707.62110800000005
 21
-148.5
 31
0.0
  0
POINT
  5
100
  8
DEFPOINTS
  6
CONTINUOUS
 62
    30
 10
-300.0
 20
0.0
 30
0.0
  0
POINT
  5
101
  8
DEFPOINTS
  6
CONTINUOUS
 62
    30
 10
-65.204948999999999
 20
-297.0
 30
0.0
  0
POINT
  5
102
  8
DEFPOINTS
  6
CONTINUOUS
 62
    30
 10
-682.62110800000005
 20
-297.0
 30
0.0
  0
LINE
  5
103
  8
SIZE
  6
CONTINUOUS
 62
    30
 10
-320.0
 20
0.0
 30
0.0
 11
-399.74876599999999
 21
0.0
 31
0.0
  0
LINE
  5
104
  8
SIZE
  6
CONTINUOUS
 62
    30
 10
-323.51390500000002
 20
-10.0
 30
0.0
 11
-399.74876599999999
 21
-10.0
 31
0.0
  0
LINE
  5
105
  8
SIZE
  6
CONTINUOUS
 62
    30
 10
-369.74876599999999
 20
-12.0
 30
0.0
 11
-369.74876599999999
 21
-14.0
 31
0.0
  0
LINE
  5
106
  8
SIZE
  6
CONTINUOUS
 62
    30
 10
-369.74876599999999
 20
2.0
 30
0.0
 11
-369.74876599999999
 21
136.28571400000001
 31
0.0
  0
LINE
  5
107
  8
SIZE
  6
CONTINUOUS
 62
    30
 10
-369.74876599999999
 20
-10.0
 30
0.0
 11
-369.74876599999999
 21
0.0
 31
0.0
  0
CIRCLE
  5
108
  8
SIZE
  6
CONTINUOUS
 62
    30
 10
-369.74876599999999
 20
-10.0
 30
0.0
 40
6.0
  0
CIRCLE
  5
109
  8
SIZE
  6
CONTINUOUS
 62
    30
 10
-369.74876599999999
 20
0.0
 30
0.0
 40
6.0
  0
TEXT
  5
10A
  8
SIZE
  6
CONTINUOUS
 62
    30
 10
-394.74876599999999
 20
28.999999857142861
 30
0.0
 40
64.0
  1
10
 50
90.0
 41
0.9
 72
     1
 11
-394.74876599999999
 21
70.142856999999992
 31
0.0
  0
POINT
  5
10B
  8
DEFPOINTS
  6
CONTINUOUS
 62
    30
 10
-300.0
 20
0.0
 30
0.0
  0
POINT
  5
10C
  8
DEFPOINTS
  6
CONTINUOUS
 62
    30
 10
-303.51390500000002
 20
-10.0
 30
0.0
  0
POINT
  5
10D
  8
DEFPOINTS
  6
CONTINUOUS
 62
    30
 10
-369.74876599999999
 20
-10.0
 30
0.0
  0
ARC
  5
10E
  8
OUTLINE
  6
CONTINUOUS
 62
     3
 10
-307.790707
 20
-2.3100009999999989
 30
0.0
 40
2.3100000000000001
 50
90.0
 51
196.754805
  0
ARC
  5
10F
  8
DETAIL
  6
CONTINUOUS
 62
     5
 10
-307.790707
 20
-2.3100009999999989
 30
0.0
 40
2.3100000000000001
 50
90.0
 51
196.754805
  0
LINE
  5
110
  8
NOTE
  6
CONTINUOUS
 62
     4
 10
-260.0
 20
0.0
 30
0.0
 11
-300.0
 21
0.0
 31
0.0
  0
LINE
  5
111
  8
NOTE
  6
CONTINUOUS
 62
     4
 10
-280.0
 20
20.0
 30
0.0
 11
-280.0
 21
-20.0
 31
0.0
  0
LINE
  5
112
  8
DETAIL
  6
CONTINUOUS
 62
     5
 10
-203.10869
 20
-20.086956000000001
 30
0.0
 11
-272.70644199999998
 21
-20.086956000000001
 31
0.0
  0
LINE
  5
113
  8
DETAIL
  6
CONTINUOUS
 62
     5
 10
-203.10869
 20
-26.113043000000001
 30
0.0
 11
-272.70644199999998
 21
-26.113043000000001
 31
0.0
  0
LINE
  5
114
  8
OUTLINE
  6
CONTINUOUS
 62
     3
 10
-203.10869
 20
-20.086956000000001
 30
0.0
 11
-272.70644199999998
 21
-20.086956000000001
 31
0.0
  0
LINE
  5
115
  8
OUTLINE
  6
CONTINUOUS
 62
     3
 10
-203.10869
 20
-26.113043000000001
 30
0.0
 11
-272.70644199999998
 21
-26.113043000000001
 31
0.0
  0
LINE
  5
116
  8
DETAIL
  6
CONTINUOUS
 62
     5
 10
-307.60182400000002
 20
-7.733477999999999
 30
0.0
 11
0.0
 21
-7.733477999999999
 31
0.0
  0
LINE
  5
117
  8
DETAIL
  6
CONTINUOUS
 62
     5
 10
-303.51390500000002
 20
-10.0
 30
0.0
 11
0.0
 21
-10.0
 31
0.0
  0
LINE
  5
118
  8
DETAIL
  6
CONTINUOUS
 62
     5
 10
-287.24347
 20
-20.086956000000001
 30
0.0
 11
0.0
 21
-20.086956000000001
 31
0.0
  0
LINE
  5
119
  8
OUTLINE
  6
CONTINUOUS
 62
     3
 10
-307.60182400000002
 20
-7.733477999999999
 30
0.0
 11
0.0
 21
-7.733477999999999
 31
0.0
  0
LINE
  5
11A
  8
OUTLINE
  6
CONTINUOUS
 62
     3
 10
-303.51390500000002
 20
-10.0
 30
0.0
 11
0.0
 21
-10.0
 31
0.0
  0
LINE
  5
11B
  8
OUTLINE
  6
CONTINUOUS
 62
     3
 10
-287.24347
 20
-20.086956000000001
 30
0.0
 11
0.0
 21
-20.086956000000001
 31
0.0
  0
ARC
  5
11C
  8
DETAIL
  6
CONTINUOUS
 62
     5
 10
-143.63117399999999
 20
-158.68695199999999
 30
0.0
 40
102.443476
 50
180.0
 51
270.0
  0
ARC
  5
11D
  8
DETAIL
  6
CONTINUOUS
 62
     5
 10
-150.02280400000001
 20
-158.68695199999999
 30
0.0
 40
102.443476
 50
180.0
 51
270.0
  0
ARC
  5
11E
  8
DETAIL
  6
CONTINUOUS
 62
     5
 10
-153.04450700000001
 20
-158.68695199999999
 30
0.0
 40
70.304345999999995
 50
180.0
 51
270.0
  0
ARC
  5
11F
  8
OUTLINE
  6
CONTINUOUS
 62
     3
 10
-143.63117399999999
 20
-158.68695199999999
 30
0.0
 40
102.443476
 50
180.0
 51
270.0
  0
ARC
  5
120
  8
OUTLINE
  6
CONTINUOUS
 62
     3
 10
-150.02280400000001
 20
-158.68695199999999
 30
0.0
 40
102.443476
 50
180.0
 51
270.0
  0
ARC
  5
121
  8
OUTLINE
  6
CONTINUOUS
 62
     3
 10
-153.04450700000001
 20
-158.68695199999999
 30
0.0
 40
70.304345999999995
 50
180.0
 51
270.0
  0
LINE
  5
122
  8
DETAIL
  6
CONTINUOUS
 62
     5
 10
-307.790707
 20
-0.000001
 30
0.0
 11
0.0
 21
0.0
 31
0.0
  0
LINE
  5
123
  8
OUTLINE
  6
CONTINUOUS
 62
     3
 10
-307.790707
 20
-0.000001
 30
0.0
 11
0.0
 21
0.0
 31
0.0
  0
LINE
  5
124
  8
SIZE
  6
CONTINUOUS
 62
    30
 10
-320.0
 20
-20.0
 30
0.0
 11
-399.52284400000002
 21
-20.0
 31
0.0
  0
LINE
  5
125
  8
SIZE
  6
CONTINUOUS
 62
    30
 10
-323.51390500000002
 20
-10.0
 30
0.0
 11
-399.52284400000002
 21
-10.0
 31
0.0
  0
LINE
  5
126
  8
SIZE
  6
CONTINUOUS
 62
    30
 10
-369.52284400000002
 20
-8.0
 30
0.0
 11
-369.52284400000002
 21
-6.0
 31
0.0
  0
LINE
  5
127
  8
SIZE
  6
CONTINUOUS
 62
    30
 10
-369.52284400000002
 20
-22.0
 30
0.0
 11
-369.52284400000002
 21
-156.28571400000001
 31
0.0
  0
LINE
  5
128
  8
SIZE
  6
CONTINUOUS
 62
    30
 10
-369.52284400000002
 20
-10.0
 30
0.0
 11
-369.52284400000002
 21
-20.0
 31
0.0
  0
CIRCLE
  5
129
  8
SIZE
  6
CONTINUOUS
 62
    30
 10
-369.52284400000002
 20
-10.0
 30
0.0
 40
6.0
  0
CIRCLE
  5
12A
  8
SIZE
  6
CONTINUOUS
 62
    30
 10
-369.52284400000002
 20
-20.0
 30
0.0
 40
6.0
  0
TEXT
  5
12B
  8
SIZE
  6
CONTINUOUS
 62
    30
 10
-394.52284400000002
 20
-131.2857141428571
 30
0.0
 40
64.0
  1
10
 50
90.0
 41
0.9
 72
     1
 11
-394.52284400000002
 21
-90.142857000000006
 31
0.0
  0
POINT
  5
12C
  8
DEFPOINTS
  6
CONTINUOUS
 62
    30
 10
-300.0
 20
-20.0
 30
0.0
  0
POINT
  5
12D
  8
DEFPOINTS
  6
CONTINUOUS
 62
    30
 10
-303.51390500000002
 20
-10.0
 30
0.0
  0
POINT
  5
12E
  8
DEFPOINTS
  6
CONTINUOUS
 62
    30
 10
-369.52284400000002
 20
-10.0
 30
0.0
  0
ARC
  5
12F
  8
DETAIL
  6
CONTINUOUS
 62
     5
 10
-307.12955699999998
 20
-44.79239299999999
 30
0.0
 40
50.217390000000002
 50
297.32044400000001
 51
0.0
  0
ARC
  5
130
  8
OUTLINE
  6
CONTINUOUS
 62
     3
 10
-305.824791
 20
-45.158406999999997
 30
0.0
 40
48.913992999999991
 50
296.39275099999998
 51
0.4287370000000001
  0
LINE
  5
131
  8
DETAIL
  6
CONTINUOUS
 62
     5
 10
-246.07464899999999
 20
-26.113043000000001
 30
0.0
 11
-246.07464899999999
 21
-158.68695199999999
 31
0.0
  0
LINE
  5
132
  8
DETAIL
  6
CONTINUOUS
 62
     5
 10
-252.46628000000001
 20
-26.113043000000001
 30
0.0
 11
-252.46628000000001
 21
-158.68695199999999
 31
0.0
  0
LINE
  5
133
  8
OUTLINE
  6
CONTINUOUS
 62
     3
 10
-246.07464899999999
 20
-26.113043000000001
 30
0.0
 11
-246.07464899999999
 21
-158.68695199999999
 31
0.0
  0
LINE
  5
134
  8
OUTLINE
  6
CONTINUOUS
 62
     3
 10
-252.46628000000001
 20
-26.113043000000001
 30
0.0
 11
-252.46628000000001
 21
-158.68695199999999
 31
0.0
  0
LINE
  5
135
  8
DETAIL
  6
CONTINUOUS
 62
     5
 10
-300.802166
 20
-88.973996999999983
 30
0.0
 11
-252.46628000000001
 21
-88.973996999999983
 31
0.0
  0
LINE
  5
136
  8
DETAIL
  6
CONTINUOUS
 62
     5
 10
-300.82463999999999
 20
-95.0
 30
0.0
 11
-252.46628000000001
 21
-95.0
 31
0.0
  0
LINE
  5
137
  8
OUTLINE
  6
CONTINUOUS
 62
     3
 10
-300.802166
 20
-88.973996999999983
 30
0.0
 11
-252.46628000000001
 21
-88.973996999999983
 31
0.0
  0
LINE
  5
138
  8
OUTLINE
  6
CONTINUOUS
 62
     3
 10
-300.82463999999999
 20
-95.0
 30
0.0
 11
-252.46628000000001
 21
-95.0
 31
0.0
  0
ARC
  5
139
  8
DETAIL
  6
CONTINUOUS
 62
     5
 10
-300.802166
 20
-91.987040000000007
 30
0.0
 40
3.0130430000000001
 50
90.0
 51
269.57263699999999
  0
ARC
  5
13A
  8
OUTLINE
  6
CONTINUOUS
 62
     3
 10
-300.802166
 20
-91.987040000000007
 30
0.0
 40
3.0130430000000001
 50
90.0
 51
269.57263699999999
  0
ARC
  5
13B
  8
DETAIL
  6
CONTINUOUS
 62
     5
 10
-294.12431099999998
 20
-14.091548
 30
0.0
 40
4.0915730000000003
 50
0.429617
 51
90.196545999999998
  0
ARC
  5
13C
  8
DETAIL
  6
CONTINUOUS
 62
     5
 10
-286.01546200000001
 20
-16.069565000000001
 30
0.0
 40
4.017390999999999
 50
180.0
 51
269.999999
  0
ARC
  5
13D
  8
DETAIL
  6
CONTINUOUS
 62
     5
 10
-287.243471
 20
-16.069565000000001
 30
0.0
 40
4.017390999999999
 50
180.0
 51
270.0
  0
ARC
  5
13E
  8
OUTLINE
  6
CONTINUOUS
 62
     3
 10
-294.12431099999998
 20
-14.091548
 30
0.0
 40
4.0915730000000003
 50
0.429617
 51
90.196545999999998
  0
ARC
  5
13F
  8
OUTLINE
  6
CONTINUOUS
 62
     3
 10
-286.01546200000001
 20
-16.069565000000001
 30
0.0
 40
4.017390999999999
 50
180.0
 51
269.999999
  0
ARC
  5
140
  8
OUTLINE
  6
CONTINUOUS
 62
     3
 10
-287.243471
 20
-16.069565000000001
 30
0.0
 40
4.017390999999999
 50
180.0
 51
270.0
  0
ARC
  5
141
  8
OUTLINE
  6
CONTINUOUS
 62
     3
 10
-307.59988099999998
 20
-6.4278269999999988
 30
0.0
 40
1.305652
 50
196.754805
 51
270.0
  0
LINE
  5
142
  8
OUTLINE
  6
CONTINUOUS
 62
     3
 10
-310.00264099999998
 20
-2.975919999999999
 30
0.0
 11
-308.85010499999999
 21
-6.8042160000000003
 31
0.0
  0
ARC
  5
143
  8
DETAIL
  6
CONTINUOUS
 62
     5
 10
-307.59988099999998
 20
-6.4278269999999988
 30
0.0
 40
1.305652
 50
196.754805
 51
270.0
  0
LINE
  5
144
  8
DETAIL
  6
CONTINUOUS
 62
     5
 10
-310.00264099999998
 20
-2.975919999999999
 30
0.0
 11
-308.85010499999999
 21
-6.8042160000000003
 31
0.0
  0
ARC
  5
145
  8
DETAIL
  6
CONTINUOUS
 62
     5
 10
-303.61985099999998
 20
-6.1194779999999991
 30
0.0
 40
3.8819680000000001
 50
204.61331899999999
 51
271.546581
  0
ARC
  5
146
  8
OUTLINE
  6
CONTINUOUS
 62
     3
 10
-303.61985099999998
 20
-6.1194779999999991
 30
0.0
 40
3.8819680000000001
 50
204.61331899999999
 51
271.56390800000003
  0
ARC
  5
147
  8
DETAIL
  6
CONTINUOUS
 62
     5
 10
-295.353452
 20
-14.092017999999999
 30
0.0
 40
4.092708
 50
0.436064
 51
88.947198
  0
LINE
  5
148
  8
DETAIL
  6
CONTINUOUS
 62
     5
 10
-291.26086199999997
 20
-16.069565000000001
 30
0.0
 11
-291.26086199999997
 21
-14.060869
 31
0.0
  0
ARC
  5
149
  8
OUTLINE
  6
CONTINUOUS
 62
     3
 10
-295.353452
 20
-14.092017999999999
 30
0.0
 40
4.092708
 50
0.436064
 51
88.947198
  0
LINE
  5
14A
  8
OUTLINE
  6
CONTINUOUS
 62
     3
 10
-291.26086199999997
 20
-16.069565000000001
 30
0.0
 11
-291.26086199999997
 21
-14.060869
 31
0.0
  0
LINE
  5
14B
  8
DETAIL
  6
DASHED
 62
     5
 10
-263.947968
 20
-10.244353
 30
0.0
 11
-247.37620999999999
 21
-10.244353
 31
0.0
  0
LINE
  5
14C
  8
DETAIL
  6
CONTINUOUS
 62
     5
 10
-265.50469700000002
 20
-26.113043000000001
 30
0.0
 11
-252.46628000000001
 21
-26.113043000000001
 31
0.0
  0
LINE
  5
14D
  8
DETAIL
  6
CONTINUOUS
 62
     5
 10
-263.947968
 20
-34.147818999999998
 30
0.0
 11
-252.46628000000001
 21
-34.147818999999998
 31
0.0
  0
ARC
  5
14E
  8
DETAIL
  6
CONTINUOUS
 62
     5
 10
-263.0440430000001
 20
-30.346616000000001
 30
0.0
 40
3.8012009999999998
 50
270.00001800000001
 51
310.3409759999999
  0
LINE
  5
14F
  8
OUTLINE
  6
DASHED
 62
     3
 10
-263.947968
 20
-10.244353
 30
0.0
 11
-247.37620999999999
 21
-10.244353
 31
0.0
  0
LINE
  5
150
  8
OUTLINE
  6
CONTINUOUS
 62
     3
 10
-265.50469700000002
 20
-26.113043000000001
 30
0.0
 11
-252.46628000000001
 21
-26.113043000000001
 31
0.0
  0
LINE
  5
151
  8
OUTLINE
  6
CONTINUOUS
 62
     3
 10
-263.947968
 20
-34.147818999999998
 30
0.0
 11
-252.46628000000001
 21
-34.147818999999998
 31
0.0
  0
ARC
  5
152
  8
OUTLINE
  6
CONTINUOUS
 62
     3
 10
-263.0440430000001
 20
-30.346616000000001
 30
0.0
 40
3.8012009999999998
 50
270.00001800000001
 51
310.3409759999999
  0
ARC
  5
153
  8
DETAIL
  6
CONTINUOUS
 62
     5
 10
-276.999123
 20
-40.173912000000001
 30
0.0
 40
20.086956000000001
 50
77.660442000000003
 51
90.0
  0
LINE
  5
154
  8
DETAIL
  6
CONTINUOUS
 62
     5
 10
-272.70644199999998
 20
-26.113043000000001
 30
0.0
 11
-272.70644199999998
 21
-20.086956000000001
 31
0.0
  0
LINE
  5
155
  8
DETAIL
  6
CONTINUOUS
 62
     5
 10
-263.94796200000002
 20
-34.147830999999996
 30
0.0
 11
-265.50470100000001
 21
-33.243918999999998
 31
0.0
  0
LINE
  5
156
  8
DETAIL
  6
CONTINUOUS
 62
     5
 10
-265.50469700000002
 20
-33.243912000000002
 30
0.0
 11
-265.50469700000002
 21
-26.113043000000001
 31
0.0
  0
LINE
  5
157
  8
DETAIL
  6
CONTINUOUS
 62
     5
 10
-290.03285299999999
 20
-14.060869
 30
0.0
 11
-290.03285299999999
 21
-16.069565000000001
 31
0.0
  0
ARC
  5
158
  8
OUTLINE
  6
CONTINUOUS
 62
     3
 10
-276.999123
 20
-40.173912000000001
 30
0.0
 40
20.086956000000001
 50
77.660442000000003
 51
90.0
  0
LINE
  5
159
  8
OUTLINE
  6
CONTINUOUS
 62
     3
 10
-272.70644199999998
 20
-26.113043000000001
 30
0.0
 11
-272.70644199999998
 21
-20.086956000000001
 31
0.0
  0
LINE
  5
15A
  8
OUTLINE
  6
CONTINUOUS
 62
     3
 10
-263.94796200000002
 20
-34.147830999999996
 30
0.0
 11
-265.50470100000001
 21
-33.243918999999998
 31
0.0
  0
LINE
  5
15B
  8
OUTLINE
  6
CONTINUOUS
 62
     3
 10
-265.50469700000002
 20
-33.243912000000002
 30
0.0
 11
-265.50469700000002
 21
-26.113043000000001
 31
0.0
  0
LINE
  5
15C
  8
OUTLINE
  6
CONTINUOUS
 62
     3
 10
-290.03285299999999
 20
-14.060869
 30
0.0
 11
-290.03285299999999
 21
-16.069565000000001
 31
0.0
  0
LINE
  5
15D
  8
DETAIL
  6
DASHED
 62
     5
 10
-260.18165399999998
 20
-10.244353
 30
0.0
 11
-260.18165399999998
 21
-10.043478
 31
0.0
  0
LINE
  5
15E
  8
DETAIL
  6
DASHED
 62
     5
 10
-251.14252400000001
 20
-10.244353
 30
0.0
 11
-251.14252400000001
 21
-10.043478
 31
0.0
  0
LINE
  5
15F
  8
DETAIL
  6
DASHED
 62
     5
 10
-250.64035000000001
 20
-10.244353
 30
0.0
 11
-250.64035000000001
 21
-10.043478
 31
0.0
  0
LINE
  5
160
  8
DETAIL
  6
DASHED
 62
     5
 10
-250.64035000000001
 20
-10.043478
 30
0.0
 11
-260.68382800000001
 21
-10.043478
 31
0.0
  0
LINE
  5
161
  8
DETAIL
  6
DASHED
 62
     5
 10
-260.68382800000001
 20
-10.244353
 30
0.0
 11
-260.68382800000001
 21
-10.043478
 31
0.0
  0
LINE
  5
162
  8
DETAIL
  6
CONTINUOUS
 62
     5
 10
-261.34354400000001
 20
-26.113043000000001
 30
0.0
 11
-261.34354400000001
 21
-20.086956000000001
 31
0.0
  0
LINE
  5
163
  8
DETAIL
  6
CONTINUOUS
 62
     5
 10
-249.98064600000001
 20
-20.086956000000001
 30
0.0
 11
-249.98064600000001
 21
-26.113043000000001
 31
0.0
  0
LINE
  5
164
  8
DETAIL
  6
CONTINUOUS
 62
     5
 10
-256.91216700000001
 20
-44.79239299999999
 30
0.0
 11
-256.91216700000001
 21
-40.173912000000001
 31
0.0
  0
ARC
  5
165
  8
DETAIL
  6
CONTINUOUS
 62
     5
 10
-255.66208900000001
 20
-20.298973
 30
0.0
 40
13.848846
 50
249.18466100000001
 51
283.34203000000002
  0
ARC
  5
166
  8
DETAIL
  6
CONTINUOUS
 62
     5
 10
-276.999123
 20
-40.173912000000001
 30
0.0
 40
20.086956000000001
 50
0.0
 51
17.457619999999999
  0
LINE
  5
167
  8
DETAIL
  6
CONTINUOUS
 62
     5
 10
-260.583392
 20
-26.113043999999999
 30
0.0
 11
-260.583392
 21
-33.243912000000002
 31
0.0
  0
LINE
  5
168
  8
OUTLINE
  6
DASHED
 62
     3
 10
-260.18165399999998
 20
-10.244353
 30
0.0
 11
-260.18165399999998
 21
-10.043478
 31
0.0
  0
LINE
  5
169
  8
OUTLINE
  6
DASHED
 62
     3
 10
-251.14252400000001
 20
-10.244353
 30
0.0
 11
-251.14252400000001
 21
-10.043478
 31
0.0
  0
LINE
  5
16A
  8
OUTLINE
  6
DASHED
 62
     3
 10
-250.64035000000001
 20
-10.244353
 30
0.0
 11
-250.64035000000001
 21
-10.043478
 31
0.0
  0
LINE
  5
16B
  8
OUTLINE
  6
DASHED
 62
     3
 10
-250.64035000000001
 20
-10.043478
 30
0.0
 11
-260.68382800000001
 21
-10.043478
 31
0.0
  0
LINE
  5
16C
  8
OUTLINE
  6
DASHED
 62
     3
 10
-260.68382800000001
 20
-10.244353
 30
0.0
 11
-260.68382800000001
 21
-10.043478
 31
0.0
  0
LINE
  5
16D
  8
OUTLINE
  6
CONTINUOUS
 62
     3
 10
-261.34354400000001
 20
-26.113043000000001
 30
0.0
 11
-261.34354400000001
 21
-20.086956000000001
 31
0.0
  0
LINE
  5
16E
  8
OUTLINE
  6
CONTINUOUS
 62
     3
 10
-256.91216700000001
 20
-44.79239299999999
 30
0.0
 11
-256.91216700000001
 21
-40.173912000000001
 31
0.0
  0
ARC
  5
16F
  8
OUTLINE
  6
CONTINUOUS
 62
     3
 10
-255.66208900000001
 20
-20.298973
 30
0.0
 40
13.848846
 50
249.18466100000001
 51
283.34203000000002
  0
ARC
  5
170
  8
OUTLINE
  6
CONTINUOUS
 62
     3
 10
-276.999123
 20
-40.173912000000001
 30
0.0
 40
20.086956000000001
 50
0.0
 51
17.457619999999999
  0
LINE
  5
171
  8
OUTLINE
  6
CONTINUOUS
 62
     3
 10
-260.583392
 20
-26.113043999999999
 30
0.0
 11
-260.583392
 21
-33.243912000000002
 31
0.0
  0
LINE
  5
172
  8
OUTLINE
  6
CONTINUOUS
 62
     3
 10
-249.98064600000001
 20
-20.086956000000001
 30
0.0
 11
-249.98064600000001
 21
-26.113043000000001
 31
0.0
  0
LINE
  5
173
  8
DETAIL
  6
CONTINUOUS
 62
     5
 10
-81.653475999999998
 20
-140.60869199999999
 30
0.0
 11
-81.653475999999998
 21
-171.48968400000001
 31
0.0
  0
ARC
  5
174
  8
DETAIL
  6
CONTINUOUS
 62
     5
 10
-83.461302000000003
 20
-162.40303899999989
 30
0.0
 40
1.506521999999999
 50
180.0
 51
270.0
  0
ARC
  5
175
  8
DETAIL
  6
CONTINUOUS
 62
     5
 10
-306.92859299999998
 20
184.609624
 30
0.0
 40
366.402871
 50
283.38521400000002
 51
289.35991200000001
  0
LINE
  5
176
  8
DETAIL
  6
CONTINUOUS
 62
     5
 10
-150.02280400000001
 20
-261.13042799999999
 30
0.0
 11
-15.065217000000001
 21
-261.13042799999999
 31
0.0
  0
LINE
  5
177
  8
OUTLINE
  6
CONTINUOUS
 62
     3
 10
-150.02280400000001
 20
-261.13042799999999
 30
0.0
 11
-15.065217000000001
 21
-261.13042799999999
 31
0.0
  0
LINE
  5
178
  8
DETAIL
  6
CONTINUOUS
 62
     5
 10
-136.756789
 20
-229.52926299999999
 30
0.0
 11
-137.33036999999999
 21
-261.13042799999999
 31
0.0
  0
LINE
  5
179
  8
DETAIL
  6
CONTINUOUS
 62
     5
 10
-138.09782200000001
 20
-261.13042799999999
 30
0.0
 11
-138.09782200000001
 21
-269.16521
 31
0.0
  0
LINE
  5
17A
  8
OUTLINE
  6
CONTINUOUS
 62
     3
 10
-138.09782200000001
 20
-261.13042799999999
 30
0.0
 11
-138.09782200000001
 21
-269.16521
 31
0.0
  0
LINE
  5
17B
  8
DETAIL
  6
CONTINUOUS
 62
     5
 10
-122.63630499999999
 20
-229.99564599999999
 30
0.0
 11
-153.04450700000001
 21
-228.991298
 31
0.0
  0
ARC
  5
17C
  8
DETAIL
  6
CONTINUOUS
 62
     5
 10
-132.07173599999999
 20
-229.99564599999999
 30
0.0
 40
6.0260870000000004
 50
90.0
 51
170.38722799999999
  0
LINE
  5
17D
  8
OUTLINE
  6
CONTINUOUS
 62
     3
 10
-122.63630499999999
 20
-229.99564599999999
 30
0.0
 11
-153.04450700000001
 21
-228.991298
 31
0.0
  0
ARC
  5
17E
  8
OUTLINE
  6
CONTINUOUS
 62
     3
 10
-132.07173599999999
 20
-229.99564599999999
 30
0.0
 40
6.0260870000000004
 50
90.0
 51
170.38722799999999
  0
LINE
  5
17F
  8
DETAIL
  6
CONTINUOUS
 62
     5
 10
-72.312958999999992
 20
-294.97694899999999
 30
0.0
 11
0.0
 21
-294.97694899999999
 31
0.0
  0
LINE
  5
180
  8
DETAIL
  6
CONTINUOUS
 62
     5
 10
-69.299918000000005
 20
-296.98564399999998
 30
0.0
 11
0.0
 21
-296.98564399999998
 31
0.0
  0
LINE
  5
181
  8
OUTLINE
  6
CONTINUOUS
 62
     3
 10
-72.312958999999992
 20
-294.97694899999999
 30
0.0
 11
0.0
 21
-294.97694899999999
 31
0.0
  0
LINE
  5
182
  8
OUTLINE
  6
CONTINUOUS
 62
     3
 10
-69.299918000000005
 20
-296.98564399999998
 30
0.0
 11
0.0
 21
-296.98564399999998
 31
0.0
  0
LINE
  5
183
  8
DETAIL
  6
CONTINUOUS
 62
     5
 10
-65.784781000000009
 20
-296.98564399999998
 30
0.0
 11
-56.745651000000002
 21
-296.98564399999998
 31
0.0
  0
LINE
  5
184
  8
OUTLINE
  6
CONTINUOUS
 62
     3
 10
-65.784781000000009
 20
-296.98564399999998
 30
0.0
 11
-56.745651000000002
 21
-296.98564399999998
 31
0.0
  0
LINE
  5
185
  8
DETAIL
  6
CONTINUOUS
 62
     5
 10
-69.299998000000002
 20
-296.98564399999998
 30
0.0
 11
-71.308693999999988
 21
-294.97694899999999
 31
0.0
  0
LINE
  5
186
  8
OUTLINE
  6
CONTINUOUS
 62
     3
 10
-69.299998000000002
 20
-296.98564399999998
 30
0.0
 11
-71.308693999999988
 21
-294.97694899999999
 31
0.0
  0
LINE
  5
187
  8
DETAIL
  6
CONTINUOUS
 62
     5
 10
-81.355767999999998
 20
-269.16521
 30
0.0
 11
-81.355767999999998
 21
-271.374776
 31
0.0
  0
LINE
  5
188
  8
DETAIL
  6
CONTINUOUS
 62
     5
 10
-81.355767999999998
 20
-269.16521
 30
0.0
 11
-81.355767999999998
 21
-285.63651399999998
 31
0.0
  0
LINE
  5
189
  8
OUTLINE
  6
CONTINUOUS
 62
     3
 10
-81.355767999999998
 20
-269.16521
 30
0.0
 11
-81.355767999999998
 21
-271.374776
 31
0.0
  0
LINE
  5
18A
  8
OUTLINE
  6
CONTINUOUS
 62
     3
 10
-81.355767999999998
 20
-269.16521
 30
0.0
 11
-81.355767999999998
 21
-285.63651399999998
 31
0.0
  0
ARC
  5
18B
  8
DETAIL
  6
CONTINUOUS
 62
     5
 10
-83.163593999999989
 20
-269.86825399999998
 30
0.0
 40
1.506521999999999
 50
180.0
 51
270.0
  0
LINE
  5
18C
  8
DETAIL
  6
CONTINUOUS
 62
     5
 10
-84.670116000000007
 20
-269.16521
 30
0.0
 11
-84.670116000000007
 21
-269.86825399999998
 31
0.0
  0
ARC
  5
18D
  8
OUTLINE
  6
CONTINUOUS
 62
     3
 10
-83.163593999999989
 20
-269.86825399999998
 30
0.0
 40
1.506521999999999
 50
180.0
 51
270.0
  0
LINE
  5
18E
  8
OUTLINE
  6
CONTINUOUS
 62
     3
 10
-84.670116000000007
 20
-269.16521
 30
0.0
 11
-84.670116000000007
 21
-269.86825399999998
 31
0.0
  0
LINE
  5
18F
  8
DETAIL
  6
CONTINUOUS
 62
     5
 10
-83.163593999999989
 20
-271.374776
 30
0.0
 11
-81.355767999999998
 21
-271.374776
 31
0.0
  0
LINE
  5
190
  8
OUTLINE
  6
CONTINUOUS
 62
     3
 10
-83.163593999999989
 20
-271.374776
 30
0.0
 11
-81.355767999999998
 21
-271.374776
 31
0.0
  0
ARC
  5
191
  8
DETAIL
  6
CONTINUOUS
 62
     5
 10
-72.006772999999995
 20
-285.63296800000001
 30
0.0
 40
9.3489960000000014
 50
180.02173099999999
 51
268.12318800000003
  0
ARC
  5
192
  8
OUTLINE
  6
CONTINUOUS
 62
     3
 10
-72.006772999999995
 20
-285.63296800000001
 30
0.0
 40
9.3489960000000014
 50
180.02173099999999
 51
268.12318800000003
  0
LINE
  5
193
  8
DETAIL
  6
CONTINUOUS
 62
     5
 10
-38.600614999999998
 20
-297.27534300000002
 30
0.0
 11
-48.041483999999997
 21
-297.27534300000002
 31
0.0
  0
LINE
  5
194
  8
DETAIL
  6
CONTINUOUS
 62
     5
 10
-48.041483999999997
 20
-296.98564399999998
 30
0.0
 11
-38.600614999999998
 21
-296.98564399999998
 31
0.0
  0
LINE
  5
195
  8
DETAIL
  6
CONTINUOUS
 62
     5
 10
-41.09661599999999
 20
-294.97694899999999
 30
0.0
 11
-39.684438999999998
 21
-295.87642599999998
 31
0.0
  0
LINE
  5
196
  8
DETAIL
  6
CONTINUOUS
 62
     5
 10
-48.041483999999997
 20
-296.98564399999998
 30
0.0
 11
-48.041483999999997
 21
-297.27534300000002
 31
0.0
  0
LINE
  5
197
  8
DETAIL
  6
CONTINUOUS
 62
     5
 10
-38.600614999999998
 20
-296.98564399999998
 30
0.0
 11
-38.600614999999998
 21
-297.27534300000002
 31
0.0
  0
LINE
  5
198
  8
DETAIL
  6
CONTINUOUS
 62
     5
 10
-39.684438999999998
 20
-295.87642599999998
 30
0.0
 11
-37.925082000000003
 21
-296.98564399999998
 31
0.0
  0
LINE
  5
199
  8
OUTLINE
  6
CONTINUOUS
 62
     3
 10
-38.600614999999998
 20
-297.27534300000002
 30
0.0
 11
-48.041483999999997
 21
-297.27534300000002
 31
0.0
  0
LINE
  5
19A
  8
OUTLINE
  6
CONTINUOUS
 62
     3
 10
-48.041483999999997
 20
-296.98564399999998
 30
0.0
 11
-38.600614999999998
 21
-296.98564399999998
 31
0.0
  0
LINE
  5
19B
  8
OUTLINE
  6
CONTINUOUS
 62
     3
 10
-41.09661599999999
 20
-294.97694899999999
 30
0.0
 11
-39.684438999999998
 21
-295.87642599999998
 31
0.0
  0
LINE
  5
19C
  8
OUTLINE
  6
CONTINUOUS
 62
     3
 10
-48.041483999999997
 20
-296.98564399999998
 30
0.0
 11
-48.041483999999997
 21
-297.27534300000002
 31
0.0
  0
LINE
  5
19D
  8
OUTLINE
  6
CONTINUOUS
 62
     3
 10
-38.600614999999998
 20
-296.98564399999998
 30
0.0
 11
-38.600614999999998
 21
-297.27534300000002
 31
0.0
  0
LINE
  5
19E
  8
OUTLINE
  6
CONTINUOUS
 62
     3
 10
-39.684438999999998
 20
-295.87642599999998
 30
0.0
 11
-37.925082000000003
 21
-296.98564399999998
 31
0.0
  0
LINE
  5
19F
  8
DETAIL
  6
CONTINUOUS
 62
     5
 10
-105.95862
 20
-223.969559
 30
0.0
 11
0.0
 21
-223.969559
 31
0.0
  0
LINE
  5
1A0
  8
OUTLINE
  6
CONTINUOUS
 62
     3
 10
-105.95862
 20
-223.969559
 30
0.0
 11
0.0
 21
-223.969559
 31
0.0
  0
LINE
  5
1A1
  8
DETAIL
  6
CONTINUOUS
 62
     5
 10
-61.900216
 20
-212.82129900000001
 30
0.0
 11
-74.454562999999993
 21
-212.82129900000001
 31
0.0
  0
LINE
  5
1A2
  8
DETAIL
  6
CONTINUOUS
 62
     5
 10
-75.709997999999999
 20
-219.34956
 30
0.0
 11
-60.644781000000009
 21
-219.34956
 31
0.0
  0
ARC
  5
1A3
  8
DETAIL
  6
CONTINUOUS
 62
     5
 10
-68.177389000000005
 20
-223.261145
 30
0.0
 40
10.43984
 50
68.852896999999999
 51
111.147177
  0
ARC
  5
1A4
  8
DETAIL
  6
CONTINUOUS
 62
     5
 10
-73.826844999999992
 20
-215.694897
 30
0.0
 40
2.873597999999999
 50
49.05541199999999
 51
89.999981999999974
  0
LINE
  5
1A5
  8
DETAIL
  6
CONTINUOUS
 62
     5
 10
-71.94369300000001
 20
-219.349559
 30
0.0
 11
-71.94369300000001
 21
-213.52434199999999
 31
0.0
  0
LINE
  5
1A6
  8
DETAIL
  6
CONTINUOUS
 62
     5
 10
-75.709997000000001
 20
-213.52434199999999
 30
0.0
 11
-75.709997000000001
 21
-219.349559
 31
0.0
  0
LINE
  5
1A7
  8
DETAIL
  6
CONTINUOUS
 62
     5
 10
-74.454565000000002
 20
-212.82129499999999
 30
0.0
 11
-75.709999999999994
 21
-213.524338
 31
0.0
  0
LINE
  5
1A8
  8
DETAIL
  6
CONTINUOUS
 62
     5
 10
-78.45411
 20
-219.34956
 30
0.0
 11
-78.45411
 21
-223.969559
 31
0.0
  0
ARC
  5
1A9
  8
DETAIL
  6
CONTINUOUS
 62
     5
 10
-62.527933999999988
 20
-215.694897
 30
0.0
 40
2.873597999999999
 50
89.999981999999974
 51
130.94450699999999
  0
LINE
  5
1AA
  8
DETAIL
  6
CONTINUOUS
 62
     5
 10
-64.411085999999983
 20
-219.34956
 30
0.0
 11
-64.411085999999983
 21
-213.52434199999999
 31
0.0
  0
LINE
  5
1AB
  8
DETAIL
  6
CONTINUOUS
 62
     5
 10
-60.644779
 20
-213.524338
 30
0.0
 11
-61.900213999999998
 21
-212.82129499999999
 31
0.0
  0
LINE
  5
1AC
  8
DETAIL
  6
CONTINUOUS
 62
     5
 10
-60.644781999999992
 20
-219.34956
 30
0.0
 11
-60.644781999999992
 21
-213.52434199999999
 31
0.0
  0
LINE
  5
1AD
  8
DETAIL
  6
CONTINUOUS
 62
     5
 10
-72.194781000000006
 20
-209.055001
 30
0.0
 11
-64.159998000000002
 21
-209.055001
 31
0.0
  0
LINE
  5
1AE
  8
DETAIL
  6
CONTINUOUS
 62
     5
 10
-71.692606999999995
 20
-209.055001
 30
0.0
 11
-71.692606999999995
 21
-212.82130599999999
 31
0.0
  0
LINE
  5
1AF
  8
DETAIL
  6
CONTINUOUS
 62
     5
 10
-72.194781000000006
 20
-209.055001
 30
0.0
 11
-72.194781000000006
 21
-212.82130599999999
 31
0.0
  0
LINE
  5
1B0
  8
DETAIL
  6
CONTINUOUS
 62
     5
 10
-64.662171999999984
 20
-209.055001
 30
0.0
 11
-64.662171999999984
 21
-212.82130599999999
 31
0.0
  0
LINE
  5
1B1
  8
DETAIL
  6
CONTINUOUS
 62
     5
 10
-64.159998000000002
 20
-209.055001
 30
0.0
 11
-64.159998000000002
 21
-212.82130599999999
 31
0.0
  0
LINE
  5
1B2
  8
DETAIL
  6
CONTINUOUS
 62
     5
 10
-94.107388999999998
 20
-211.91738599999999
 30
0.0
 11
-98.727389000000016
 21
-211.91738599999999
 31
0.0
  0
LINE
  5
1B3
  8
DETAIL
  6
CONTINUOUS
 62
     5
 10
-98.727389000000016
 20
-211.91738599999999
 30
0.0
 11
-98.727389000000016
 21
-219.34956
 31
0.0
  0
LINE
  5
1B4
  8
DETAIL
  6
CONTINUOUS
 62
     5
 10
-105.958693
 20
-223.969559
 30
0.0
 11
-105.958693
 21
-219.34956
 31
0.0
  0
ARC
  5
1B5
  8
DETAIL
  6
CONTINUOUS
 62
     5
 10
-85.068258999999998
 20
-216.93912499999999
 30
0.0
 40
2.4104349999999992
 50
270.0
 51
0.0
  0
LINE
  5
1B6
  8
DETAIL
  6
CONTINUOUS
 62
     5
 10
-94.107388999999998
 20
-211.91738599999999
 30
0.0
 11
-94.107388999999998
 21
-219.34956
 31
0.0
  0
LINE
  5
1B7
  8
DETAIL
  6
CONTINUOUS
 62
     5
 10
-82.657824000000005
 20
-172.494032
 30
0.0
 11
-82.657824000000005
 21
-216.93912499999999
 31
0.0
  0
LINE
  5
1B8
  8
DETAIL
  6
CONTINUOUS
 62
     5
 10
-81.653475999999998
 20
-171.48968400000001
 30
0.0
 11
-82.657824000000005
 21
-172.494032
 31
0.0
  0
LINE
  5
1B9
  8
DETAIL
  6
CONTINUOUS
 62
     5
 10
-182.50624999999999
 20
-160.421919
 30
0.0
 11
-60.614635
 21
-95.413041000000007
 31
0.0
  0
LINE
  5
1BA
  8
DETAIL
  6
CONTINUOUS
 62
     5
 10
-223.34885299999999
 20
-34.147818999999998
 30
0.0
 11
-223.34885299999999
 21
-158.68695199999999
 31
0.0
  0
LINE
  5
1BB
  8
OUTLINE
  6
CONTINUOUS
 62
     3
 10
-223.34885299999999
 20
-34.147818999999998
 30
0.0
 11
-223.34885299999999
 21
-158.68695199999999
 31
0.0
  0
ARC
  5
1BC
  8
DETAIL
  6
CONTINUOUS
 62
     5
 10
-1264.0584449999999
 20
1026.112091
 30
0.0
 40
1594.4220399999999
 50
312.39953300000002
 51
315.29913500000009
  0
ARC
  5
1BD
  8
DETAIL
  6
CONTINUOUS
 62
     5
 10
-1264.0584449999999
 20
1026.112091
 30
0.0
 40
1598.4390390000001
 50
312.504346
 51
315.44145300000002
  0
ARC
  5
1BE
  8
DETAIL
  6
CONTINUOUS
 62
     5
 10
-1264.0584449999999
 20
1026.112091
 30
0.0
 40
1578.3528659999999
 50
311.250111
 51
314.71895000000001
  0
ARC
  5
1BF
  8
DETAIL
  6
CONTINUOUS
 62
     5
 10
-181.36533499999999
 20
-155.26040399999999
 30
0.0
 40
4.0173899999999989
 50
132.504177
 51
298.072607
  0
ARC
  5
1C0
  8
DETAIL
  6
CONTINUOUS
 62
     5
 10
-185.153008
 20
-155.45927499999999
 30
0.0
 40
5.6243470000000002
 50
132.399429
 51
298.07238799999999
  0
LINE
  5
1C1
  8
DETAIL
  6
DASHED
 62
     5
 10
-228.438917
 20
-10.244353
 30
0.0
 11
-211.86715899999999
 21
-10.244353
 31
0.0
  0
LINE
  5
1C2
  8
DETAIL
  6
DASHED
 62
     5
 10
-224.67260300000001
 20
-10.244353
 30
0.0
 11
-224.67260300000001
 21
-10.043478
 31
0.0
  0
LINE
  5
1C3
  8
DETAIL
  6
DASHED
 62
     5
 10
-215.63347300000001
 20
-10.244353
 30
0.0
 11
-215.63347300000001
 21
-10.043478
 31
0.0
  0
LINE
  5
1C4
  8
DETAIL
  6
DASHED
 62
     5
 10
-215.13129900000001
 20
-10.244353
 30
0.0
 11
-215.13129900000001
 21
-10.043478
 31
0.0
  0
LINE
  5
1C5
  8
DETAIL
  6
DASHED
 62
     5
 10
-215.13129900000001
 20
-10.043478
 30
0.0
 11
-225.17477700000001
 21
-10.043478
 31
0.0
  0
LINE
  5
1C6
  8
DETAIL
  6
DASHED
 62
     5
 10
-225.17477700000001
 20
-10.244353
 30
0.0
 11
-225.17477700000001
 21
-10.043478
 31
0.0
  0
LINE
  5
1C7
  8
DETAIL
  6
CONTINUOUS
 62
     5
 10
-229.99564599999999
 20
-26.113043000000001
 30
0.0
 11
-210.310429
 21
-26.113043000000001
 31
0.0
  0
LINE
  5
1C8
  8
DETAIL
  6
CONTINUOUS
 62
     5
 10
-203.10869
 20
-20.086956000000001
 30
0.0
 11
-203.10869
 21
-26.113043000000001
 31
0.0
  0
LINE
  5
1C9
  8
DETAIL
  6
CONTINUOUS
 62
     5
 10
-228.438917
 20
-34.147818999999998
 30
0.0
 11
-211.86715899999999
 21
-34.147818999999998
 31
0.0
  0
ARC
  5
1CA
  8
DETAIL
  6
CONTINUOUS
 62
     5
 10
-212.771084
 20
-30.346616000000001
 30
0.0
 40
3.8012009999999998
 50
229.659063
 51
270.00001800000001
  0
ARC
  5
1CB
  8
DETAIL
  6
CONTINUOUS
 62
     5
 10
-220.15303800000001
 20
-20.298973
 30
0.0
 40
13.848846
 50
249.18466100000001
 51
290.81542899999999
  0
ARC
  5
1CC
  8
DETAIL
  6
CONTINUOUS
 62
     5
 10
-227.53499199999999
 20
-30.346616000000001
 30
0.0
 40
3.8012009999999998
 50
270.00001800000001
 51
310.3409759999999
  0
LINE
  5
1CD
  8
DETAIL
  6
CONTINUOUS
 62
     5
 10
-228.43891099999999
 20
-34.147830999999996
 30
0.0
 11
-229.99565000000001
 21
-33.243918999999998
 31
0.0
  0
LINE
  5
1CE
  8
DETAIL
  6
CONTINUOUS
 62
     5
 10
-210.31042500000001
 20
-33.243918999999998
 30
0.0
 11
-211.867165
 21
-34.147830999999996
 31
0.0
  0
LINE
  5
1CF
  8
DETAIL
  6
CONTINUOUS
 62
     5
 10
-215.23173499999999
 20
-26.113042
 30
0.0
 11
-215.23173499999999
 21
-33.243912000000002
 31
0.0
  0
LINE
  5
1D0
  8
DETAIL
  6
CONTINUOUS
 62
     5
 10
-225.074341
 20
-26.113043999999999
 30
0.0
 11
-225.074341
 21
-33.243912000000002
 31
0.0
  0
LINE
  5
1D1
  8
DETAIL
  6
CONTINUOUS
 62
     5
 10
-229.99564599999999
 20
-33.243912000000002
 30
0.0
 11
-229.99564599999999
 21
-26.113043000000001
 31
0.0
  0
LINE
  5
1D2
  8
DETAIL
  6
CONTINUOUS
 62
     5
 10
-210.310429
 20
-26.113043000000001
 30
0.0
 11
-210.310429
 21
-33.243912000000002
 31
0.0
  0
LINE
  5
1D3
  8
OUTLINE
  6
DASHED
 62
     3
 10
-228.438917
 20
-10.244353
 30
0.0
 11
-211.86715899999999
 21
-10.244353
 31
0.0
  0
LINE
  5
1D4
  8
OUTLINE
  6
DASHED
 62
     3
 10
-224.67260300000001
 20
-10.244353
 30
0.0
 11
-224.67260300000001
 21
-10.043478
 31
0.0
  0
LINE
  5
1D5
  8
OUTLINE
  6
DASHED
 62
     3
 10
-215.63347300000001
 20
-10.244353
 30
0.0
 11
-215.63347300000001
 21
-10.043478
 31
0.0
  0
LINE
  5
1D6
  8
OUTLINE
  6
DASHED
 62
     3
 10
-215.13129900000001
 20
-10.244353
 30
0.0
 11
-215.13129900000001
 21
-10.043478
 31
0.0
  0
LINE
  5
1D7
  8
OUTLINE
  6
DASHED
 62
     3
 10
-215.13129900000001
 20
-10.043478
 30
0.0
 11
-225.17477700000001
 21
-10.043478
 31
0.0
  0
LINE
  5
1D8
  8
OUTLINE
  6
DASHED
 62
     3
 10
-225.17477700000001
 20
-10.244353
 30
0.0
 11
-225.17477700000001
 21
-10.043478
 31
0.0
  0
LINE
  5
1D9
  8
OUTLINE
  6
CONTINUOUS
 62
     3
 10
-229.99564599999999
 20
-26.113043000000001
 30
0.0
 11
-210.310429
 21
-26.113043000000001
 31
0.0
  0
LINE
  5
1DA
  8
OUTLINE
  6
CONTINUOUS
 62
     3
 10
-203.10869
 20
-20.086956000000001
 30
0.0
 11
-203.10869
 21
-26.113043000000001
 31
0.0
  0
LINE
  5
1DB
  8
OUTLINE
  6
CONTINUOUS
 62
     3
 10
-228.438917
 20
-34.147818999999998
 30
0.0
 11
-211.86715899999999
 21
-34.147818999999998
 31
0.0
  0
ARC
  5
1DC
  8
OUTLINE
  6
CONTINUOUS
 62
     3
 10
-212.771084
 20
-30.346616000000001
 30
0.0
 40
3.8012009999999998
 50
229.659063
 51
270.00001800000001
  0
ARC
  5
1DD
  8
OUTLINE
  6
CONTINUOUS
 62
     3
 10
-220.15303800000001
 20
-20.298973
 30
0.0
 40
13.848846
 50
249.18466100000001
 51
290.81542899999999
  0
ARC
  5
1DE
  8
OUTLINE
  6
CONTINUOUS
 62
     3
 10
-227.53499199999999
 20
-30.346616000000001
 30
0.0
 40
3.8012009999999998
 50
270.00001800000001
 51
310.3409759999999
  0
LINE
  5
1DF
  8
OUTLINE
  6
CONTINUOUS
 62
     3
 10
-228.43891099999999
 20
-34.147830999999996
 30
0.0
 11
-229.99565000000001
 21
-33.243918999999998
 31
0.0
  0
LINE
  5
1E0
  8
OUTLINE
  6
CONTINUOUS
 62
     3
 10
-210.31042500000001
 20
-33.243918999999998
 30
0.0
 11
-211.867165
 21
-34.147830999999996
 31
0.0
  0
LINE
  5
1E1
  8
OUTLINE
  6
CONTINUOUS
 62
     3
 10
-215.23173499999999
 20
-26.113042
 30
0.0
 11
-215.23173499999999
 21
-33.243912000000002
 31
0.0
  0
LINE
  5
1E2
  8
OUTLINE
  6
CONTINUOUS
 62
     3
 10
-225.074341
 20
-26.113043999999999
 30
0.0
 11
-225.074341
 21
-33.243912000000002
 31
0.0
  0
LINE
  5
1E3
  8
OUTLINE
  6
CONTINUOUS
 62
     3
 10
-229.99564599999999
 20
-33.243912000000002
 30
0.0
 11
-229.99564599999999
 21
-26.113043000000001
 31
0.0
  0
LINE
  5
1E4
  8
OUTLINE
  6
CONTINUOUS
 62
     3
 10
-210.310429
 20
-26.113043000000001
 30
0.0
 11
-210.310429
 21
-33.243912000000002
 31
0.0
  0
LINE
  5
1E5
  8
DETAIL
  6
CONTINUOUS
 62
     5
 10
-56.745651000000002
 20
-129.25956199999999
 30
0.0
 11
-65.784781000000009
 21
-129.25956199999999
 31
0.0
  0
ARC
  5
1E6
  8
DETAIL
  6
CONTINUOUS
 62
     5
 10
-58.252171999999987
 20
-127.451736
 30
0.0
 40
1.506521999999999
 50
0.0
 51
90.0
  0
LINE
  5
1E7
  8
DETAIL
  6
CONTINUOUS
 62
     5
 10
-69.299918000000005
 20
-129.25956199999999
 30
0.0
 11
-0.002904
 21
-129.27429900000001
 31
0.0
  0
LINE
  5
1E8
  8
DETAIL
  6
CONTINUOUS
 62
     5
 10
-69.299998000000002
 20
-129.25956199999999
 30
0.0
 11
-71.308693999999988
 21
-131.26825700000001
 31
0.0
  0
LINE
  5
1E9
  8
DETAIL
  6
CONTINUOUS
 62
     5
 10
-65.784781000000009
 20
-127.451736
 30
0.0
 11
-65.784781000000009
 21
-129.25956199999999
 31
0.0
  0
ARC
  5
1EA
  8
DETAIL
  6
CONTINUOUS
 62
     5
 10
-64.278258999999991
 20
-127.451736
 30
0.0
 40
1.506521999999999
 50
90.0
 51
180.0
  0
LINE
  5
1EB
  8
DETAIL
  6
CONTINUOUS
 62
     5
 10
-58.252171999999987
 20
-125.94521400000001
 30
0.0
 11
-64.278258999999991
 21
-125.94521400000001
 31
0.0
  0
LINE
  5
1EC
  8
DETAIL
  6
CONTINUOUS
 62
     5
 10
-81.653475999999998
 20
-154.870431
 30
0.0
 11
-81.653475999999998
 21
-163.909561
 31
0.0
  0
ARC
  5
1ED
  8
DETAIL
  6
CONTINUOUS
 62
     5
 10
-83.461302000000003
 20
-156.37695199999999
 30
0.0
 40
1.506521999999999
 50
90.0
 51
180.0
  0
LINE
  5
1EE
  8
DETAIL
  6
CONTINUOUS
 62
     5
 10
-84.967823999999979
 20
-156.37695199999999
 30
0.0
 11
-84.967823999999979
 21
-162.40303899999989
 31
0.0
  0
ARC
  5
1EF
  8
DETAIL
  6
CONTINUOUS
 62
     5
 10
-72.31304200000001
 20
-140.60869199999999
 30
0.0
 40
9.3404350000000012
 50
90.0
 51
180.0
  0
LINE
  5
1F0
  8
DETAIL
  6
CONTINUOUS
 62
     5
 10
-83.461302000000003
 20
-154.870431
 30
0.0
 11
-81.653475999999998
 21
-154.870431
 31
0.0
  0
LINE
  5
1F1
  8
DETAIL
  6
CONTINUOUS
 62
     5
 10
-83.461302000000003
 20
-163.909561
 30
0.0
 11
-81.653475999999998
 21
-163.909561
 31
0.0
  0
LINE
  5
1F2
  8
DETAIL
  6
DASHED
 62
     5
 10
-60.614635
 20
-95.413041000000007
 30
0.0
 11
-60.614635
 21
-95.413041000000007
 31
0.0
  0
LINE
  5
1F3
  8
OUTLINE
  6
DASHED
 62
     3
 10
-60.614635
 20
-95.413041000000007
 30
0.0
 11
-60.614635
 21
-95.413041000000007
 31
0.0
  0
LINE
  5
1F4
  8
DETAIL
  6
CONTINUOUS
 62
     5
 10
-25.289287999999999
 20
-117.245693
 30
0.0
 11
-26.120691999999998
 21
-126.74866400000001
 31
0.0
  0
LINE
  5
1F5
  8
DETAIL
  6
CONTINUOUS
 62
     5
 10
-39.675440000000002
 20
-130.36307400000001
 30
0.0
 11
-41.09661599999999
 21
-131.26825700000001
 31
0.0
  0
LINE
  5
1F6
  8
DETAIL
  6
CONTINUOUS
 62
     5
 10
-37.925082000000003
 20
-129.25956199999999
 30
0.0
 11
-39.675440000000002
 21
-130.36307400000001
 31
0.0
  0
LINE
  5
1F7
  8
DETAIL
  6
CONTINUOUS
 62
     5
 10
-56.745651000000002
 20
-127.451736
 30
0.0
 11
-56.745651000000002
 21
-129.25956199999999
 31
0.0
  0
ARC
  5
1F8
  8
DETAIL
  6
CONTINUOUS
 62
     5
 10
-11.550000000000001
 20
-128.51073600000001
 30
0.0
 40
1.8078259999999999
 50
180.0
 51
204.46980099999999
  0
LINE
  5
1F9
  8
DETAIL
  6
CONTINUOUS
 62
     5
 10
-13.357825999999999
 20
-126.748662
 30
0.0
 11
-13.357825999999999
 21
-128.51073600000001
 31
0.0
  0
LINE
  5
1FA
  8
DETAIL
  6
CONTINUOUS
 62
     5
 10
-20.724316999999999
 20
-112.68071399999999
 30
0.0
 11
-15.065172
 21
-112.18560600000001
 31
0.0
  0
LINE
  5
1FB
  8
DETAIL
  6
CONTINUOUS
 62
     5
 10
-14.060869
 20
-95.412956999999992
 30
0.0
 11
-14.060869
 21
-104.15086700000001
 31
0.0
  0
LINE
  5
1FC
  8
DETAIL
  6
CONTINUOUS
 62
     5
 10
-13.056521
 20
-110.169237
 30
0.0
 11
-13.056521
 21
-109.674772
 31
0.0
  0
ARC
  5
1FD
  8
DETAIL
  6
CONTINUOUS
 62
     5
 10
-15.065208999999999
 20
-110.169237
 30
0.0
 40
2.008694999999999
 50
274.99997200000001
 51
0.0
  0
LINE
  5
1FE
  8
DETAIL
  6
CONTINUOUS
 62
     5
 10
-15.065201999999999
 20
-112.185603
 30
0.0
 11
0.0
 21
-112.185603
 31
0.0
  0
LINE
  5
1FF
  8
DETAIL
  6
CONTINUOUS
 62
     5
 10
-10.043478
 20
-107.666084
 30
0.0
 11
-14.060869
 21
-107.666084
 31
0.0
  0
LINE
  5
200
  8
DETAIL
  6
CONTINUOUS
 62
     5
 10
-14.060869
 20
-107.666084
 30
0.0
 11
-14.060869
 21
-105.155215
 31
0.0
  0
LINE
  5
201
  8
DETAIL
  6
CONTINUOUS
 62
     5
 10
-10.043478
 20
-109.674772
 30
0.0
 11
-10.043478
 21
-107.666084
 31
0.0
  0
LINE
  5
202
  8
DETAIL
  6
CONTINUOUS
 62
     5
 10
0.0
 20
-107.666084
 30
0.0
 11
-10.043419
 21
-107.666084
 31
0.0
  0
LINE
  5
203
  8
DETAIL
  6
CONTINUOUS
 62
     5
 10
-13.056521
 20
-105.155215
 30
0.0
 11
-14.060869
 21
-104.15086700000001
 31
0.0
  0
ARC
  5
204
  8
DETAIL
  6
CONTINUOUS
 62
     5
 10
-20.286642000000001
 20
-117.683387
 30
0.0
 40
5.021736999999999
 50
94.999989999999997
 51
174.99981
  0
LINE
  5
205
  8
DETAIL
  6
CONTINUOUS
 62
     5
 10
-24.650601000000002
 20
-115.19869300000001
 30
0.0
 11
-0.023533
 21
-115.21125000000001
 31
0.0
  0
LINE
  5
206
  8
DETAIL
  6
CONTINUOUS
 62
     5
 10
-13.056521
 20
-109.674772
 30
0.0
 11
-0.042856
 21
-109.674772
 31
0.0
  0
LINE
  5
207
  8
DETAIL
  6
CONTINUOUS
 62
     5
 10
-0.042856
 20
-105.155215
 30
0.0
 11
-14.060869
 21
-105.155215
 31
0.0
  0
LINE
  5
208
  8
DETAIL
  6
CONTINUOUS
 62
     5
 10
-0.042856
 20
-104.15086700000001
 30
0.0
 11
-14.060869
 21
-104.15086700000001
 31
0.0
  0
ARC
  5
209
  8
DETAIL
  6
CONTINUOUS
 62
     5
 10
307.56733500000001
 20
-2.3100000000000001
 30
0.0
 40
2.3100000000000001
 50
343.24519500000002
 51
90.0
  0
ARC
  5
20A
  8
OUTLINE
  6
CONTINUOUS
 62
     3
 10
307.56733500000001
 20
-2.3100000000000001
 30
0.0
 40
2.3100000000000001
 50
343.24519500000002
 51
90.0
  0
LINE
  5
20B
  8
NOTE
  6
CONTINUOUS
 62
     4
 10
300.0
 20
0.0
 30
0.0
 11
260.0
 21
0.0
 31
0.0
  0
LINE
  5
20C
  8
NOTE
  6
CONTINUOUS
 62
     4
 10
280.0
 20
20.0
 30
0.0
 11
280.0
 21
-20.0
 31
0.0
  0
LINE
  5
20D
  8
DETAIL
  6
CONTINUOUS
 62
     5
 10
203.10869
 20
-26.113043000000001
 30
0.0
 11
272.70644199999998
 21
-26.113043000000001
 31
0.0
  0
LINE
  5
20E
  8
DETAIL
  6
CONTINUOUS
 62
     5
 10
203.10869
 20
-20.086956000000001
 30
0.0
 11
272.70644199999998
 21
-20.086956000000001
 31
0.0
  0
LINE
  5
20F
  8
OUTLINE
  6
CONTINUOUS
 62
     3
 10
203.10869
 20
-26.113043000000001
 30
0.0
 11
272.70644199999998
 21
-26.113043000000001
 31
0.0
  0
LINE
  5
210
  8
OUTLINE
  6
CONTINUOUS
 62
     3
 10
203.10869
 20
-20.086956000000001
 30
0.0
 11
272.70644199999998
 21
-20.086956000000001
 31
0.0
  0
ARC
  5
211
  8
DETAIL
  6
CONTINUOUS
 62
     5
 10
153.04450700000001
 20
-158.68695199999999
 30
0.0
 40
70.304345999999995
 50
270.0
 51
0.0
  0
ARC
  5
212
  8
DETAIL
  6
CONTINUOUS
 62
     5
 10
159.436137
 20
-158.68695199999999
 30
0.0
 40
70.304345999999995
 50
270.0
 51
0.0
  0
ARC
  5
213
  8
DETAIL
  6
CONTINUOUS
 62
     5
 10
150.02280400000001
 20
-158.68695199999999
 30
0.0
 40
102.443476
 50
270.0
 51
0.0
  0
ARC
  5
214
  8
OUTLINE
  6
CONTINUOUS
 62
     3
 10
153.04450700000001
 20
-158.68695199999999
 30
0.0
 40
70.304345999999995
 50
270.0
 51
0.0
  0
ARC
  5
215
  8
OUTLINE
  6
CONTINUOUS
 62
     3
 10
159.436137
 20
-158.68695199999999
 30
0.0
 40
70.304345999999995
 50
270.0
 51
0.0
  0
ARC
  5
216
  8
OUTLINE
  6
CONTINUOUS
 62
     3
 10
150.02280400000001
 20
-158.68695199999999
 30
0.0
 40
102.443476
 50
270.0
 51
0.0
  0
LINE
  5
217
  8
DETAIL
  6
CONTINUOUS
 62
     5
 10
81.681560000000005
 20
-140.361797
 30
0.0
 11
81.774918
 21
-171.242648
 31
0.0
  0
ARC
  5
218
  8
DETAIL
  6
CONTINUOUS
 62
     5
 10
78.062535999999994
 20
-203.84426099999999
 30
0.0
 40
104.047287
 50
15.62445
 51
27.925674999999998
  0
ARC
  5
219
  8
DETAIL
  6
CONTINUOUS
 62
     5
 10
33.974815999999997
 20
-26.464267
 30
0.0
 40
207.67079200000001
 50
314.01147800000001
 51
335.76860800000009
  0
LINE
  5
21A
  8
DETAIL
  6
CONTINUOUS
 62
     5
 10
138.378894
 20
-270.59877499999999
 30
0.0
 11
0.084837
 21
-269.28068999999999
 31
0.0
  0
LINE
  5
21B
  8
OUTLINE
  6
CONTINUOUS
 62
     3
 10
138.378894
 20
-270.59877499999999
 30
0.0
 11
0.084837
 21
-269.28068999999999
 31
0.0
  0
LINE
  5
21C
  8
DETAIL
  6
CONTINUOUS
 62
     5
 10
105.958693
 20
-223.969559
 30
0.0
 11
132.07173599999999
 21
-223.969559
 31
0.0
  0
LINE
  5
21D
  8
OUTLINE
  6
CONTINUOUS
 62
     3
 10
105.958693
 20
-223.969559
 30
0.0
 11
132.07173599999999
 21
-223.969559
 31
0.0
  0
LINE
  5
21E
  8
DETAIL
  6
CONTINUOUS
 62
     5
 10
72.329901000000007
 20
-295.72693900000002
 30
0.0
 11
0.02083
 21
-294.977057
 31
0.0
  0
LINE
  5
21F
  8
DETAIL
  6
CONTINUOUS
 62
     5
 10
65.781244000000001
 20
-297.66782999999998
 30
0.0
 11
56.742600000000003
 21
-297.574094
 31
0.0
  0
LINE
  5
220
  8
OUTLINE
  6
CONTINUOUS
 62
     3
 10
72.329901000000007
 20
-295.72693900000002
 30
0.0
 11
0.02083
 21
-294.977057
 31
0.0
  0
LINE
  5
221
  8
OUTLINE
  6
CONTINUOUS
 62
     3
 10
65.781244000000001
 20
-297.66782999999998
 30
0.0
 11
56.742600000000003
 21
-297.574094
 31
0.0
  0
LINE
  5
222
  8
DETAIL
  6
CONTINUOUS
 62
     5
 10
38.595534999999998
 20
-297.67561499999999
 30
0.0
 11
48.035896999999991
 21
-297.77351599999997
 31
0.0
  0
LINE
  5
223
  8
DETAIL
  6
CONTINUOUS
 62
     5
 10
48.038901000000003
 20
-297.483833
 30
0.0
 11
38.59854
 21
-297.38593100000003
 31
0.0
  0
LINE
  5
224
  8
DETAIL
  6
CONTINUOUS
 62
     5
 10
41.115237
 20
-295.40322700000002
 30
0.0
 11
39.693808000000011
 21
-296.28801099999998
 31
0.0
  0
LINE
  5
225
  8
DETAIL
  6
CONTINUOUS
 62
     5
 10
48.038901000000003
 20
-297.483833
 30
0.0
 11
48.035896999999991
 21
-297.77351599999997
 31
0.0
  0
LINE
  5
226
  8
DETAIL
  6
CONTINUOUS
 62
     5
 10
38.59854
 20
-297.38593100000003
 30
0.0
 11
38.595534999999998
 21
-297.67561499999999
 31
0.0
  0
LINE
  5
227
  8
DETAIL
  6
CONTINUOUS
 62
     5
 10
39.693808000000011
 20
-296.28801099999998
 30
0.0
 11
37.923043
 21
-297.37892599999998
 31
0.0
  0
LINE
  5
228
  8
OUTLINE
  6
CONTINUOUS
 62
     3
 10
38.595534999999998
 20
-297.67561499999999
 30
0.0
 11
48.035896999999991
 21
-297.77351599999997
 31
0.0
  0
LINE
  5
229
  8
OUTLINE
  6
CONTINUOUS
 62
     3
 10
48.038901000000003
 20
-297.483833
 30
0.0
 11
38.59854
 21
-297.38593100000003
 31
0.0
  0
LINE
  5
22A
  8
OUTLINE
  6
CONTINUOUS
 62
     3
 10
41.115237
 20
-295.40322700000002
 30
0.0
 11
39.693808000000011
 21
-296.28801099999998
 31
0.0
  0
LINE
  5
22B
  8
OUTLINE
  6
CONTINUOUS
 62
     3
 10
48.038901000000003
 20
-297.483833
 30
0.0
 11
48.035896999999991
 21
-297.77351599999997
 31
0.0
  0
LINE
  5
22C
  8
OUTLINE
  6
CONTINUOUS
 62
     3
 10
38.59854
 20
-297.38593100000003
 30
0.0
 11
38.595534999999998
 21
-297.67561499999999
 31
0.0
  0
LINE
  5
22D
  8
OUTLINE
  6
CONTINUOUS
 62
     3
 10
39.693808000000011
 20
-296.28801099999998
 30
0.0
 11
37.923043
 21
-297.37892599999998
 31
0.0
  0
LINE
  5
22E
  8
DETAIL
  6
CONTINUOUS
 62
     5
 10
69.296272000000002
 20
-297.70428199999998
 30
0.0
 11
71.325690000000009
 21
-295.71652499999999
 31
0.0
  0
LINE
  5
22F
  8
DETAIL
  6
CONTINUOUS
 62
     5
 10
81.639889999999994
 20
-270.01036199999999
 30
0.0
 11
81.616977000000006
 21
-272.219808
 31
0.0
  0
LINE
  5
230
  8
DETAIL
  6
CONTINUOUS
 62
     5
 10
81.639889999999994
 20
-270.01036199999999
 30
0.0
 11
81.469083999999995
 21
-286.48077999999998
 31
0.0
  0
ARC
  5
231
  8
DETAIL
  6
CONTINUOUS
 62
     5
 10
83.440329000000006
 20
-270.73211500000002
 30
0.0
 40
1.506521999999999
 50
269.40583500000002
 51
359.40583500000002
  0
LINE
  5
232
  8
DETAIL
  6
CONTINUOUS
 62
     5
 10
84.954059999999998
 20
-270.04473200000001
 30
0.0
 11
84.946768999999989
 21
-270.74773699999997
 31
0.0
  0
LINE
  5
233
  8
DETAIL
  6
CONTINUOUS
 62
     5
 10
83.424706
 20
-272.23855500000002
 30
0.0
 11
81.616977000000006
 21
-272.219808
 31
0.0
  0
ARC
  5
234
  8
DETAIL
  6
CONTINUOUS
 62
     5
 10
72.120627999999996
 20
-286.38028600000001
 30
0.0
 40
9.3489960000000014
 50
271.282646
 51
359.38410399999998
  0
LINE
  5
235
  8
OUTLINE
  6
CONTINUOUS
 62
     3
 10
69.296272000000002
 20
-297.70428199999998
 30
0.0
 11
71.325690000000009
 21
-295.71652499999999
 31
0.0
  0
LINE
  5
236
  8
OUTLINE
  6
CONTINUOUS
 62
     3
 10
81.639889999999994
 20
-270.01036199999999
 30
0.0
 11
81.616977000000006
 21
-272.219808
 31
0.0
  0
LINE
  5
237
  8
OUTLINE
  6
CONTINUOUS
 62
     3
 10
81.639889999999994
 20
-270.01036199999999
 30
0.0
 11
81.469083999999995
 21
-286.48077999999998
 31
0.0
  0
ARC
  5
238
  8
OUTLINE
  6
CONTINUOUS
 62
     3
 10
83.440329000000006
 20
-270.73211500000002
 30
0.0
 40
1.506521999999999
 50
269.40583500000002
 51
359.40583500000002
  0
LINE
  5
239
  8
OUTLINE
  6
CONTINUOUS
 62
     3
 10
84.954059999999998
 20
-270.04473200000001
 30
0.0
 11
84.946768999999989
 21
-270.74773699999997
 31
0.0
  0
LINE
  5
23A
  8
OUTLINE
  6
CONTINUOUS
 62
     3
 10
83.424706
 20
-272.23855500000002
 30
0.0
 11
81.616977000000006
 21
-272.219808
 31
0.0
  0
ARC
  5
23B
  8
OUTLINE
  6
CONTINUOUS
 62
     3
 10
72.120627999999996
 20
-286.38028600000001
 30
0.0
 40
9.3489960000000014
 50
271.282646
 51
359.38410399999998
  0
LINE
  5
23C
  8
DETAIL
  6
CONTINUOUS
 62
     5
 10
0.066031
 20
-173.56862699999999
 30
0.0
 11
82.785190000000014
 21
-173.200784
 31
0.0
  0
LINE
  5
23D
  8
DETAIL
  6
CONTINUOUS
 62
     5
 10
82.782297999999997
 20
-172.243955
 30
0.0
 11
0.064466
 21
-172.56280899999999
 31
0.0
  0
LINE
  5
23E
  8
DETAIL
  6
CONTINUOUS
 62
     5
 10
106.224639
 20
-219.02882600000001
 30
0.0
 11
0.133252
 21
-219.34956
 31
0.0
  0
LINE
  5
23F
  8
DETAIL
  6
CONTINUOUS
 62
     5
 10
106.238679
 20
-223.64880500000001
 30
0.0
 11
106.224712
 21
-219.02882600000001
 31
0.0
  0
LINE
  5
240
  8
DETAIL
  6
CONTINUOUS
 62
     5
 10
62.146700000000003
 20
-212.633791
 30
0.0
 11
74.700990000000004
 21
-212.59583699999999
 31
0.0
  0
LINE
  5
241
  8
DETAIL
  6
CONTINUOUS
 62
     5
 10
75.976155000000006
 20
-219.120273
 30
0.0
 11
60.911006999999998
 21
-219.16581800000009
 31
0.0
  0
ARC
  5
242
  8
DETAIL
  6
CONTINUOUS
 62
     5
 10
68.455406999999994
 20
-223.05461299999999
 30
0.0
 40
10.43984
 50
69.026038
 51
111.320318
  0
ARC
  5
243
  8
DETAIL
  6
CONTINUOUS
 62
     5
 10
74.081962000000004
 20
-215.47131999999999
 30
0.0
 40
2.873597999999999
 50
90.17323300000001
 51
131.11780200000001
  0
LINE
  5
244
  8
DETAIL
  6
CONTINUOUS
 62
     5
 10
72.209867000000003
 20
-219.13165799999999
 30
0.0
 11
72.192256999999984
 21
-213.306468
 31
0.0
  0
LINE
  5
245
  8
DETAIL
  6
CONTINUOUS
 62
     5
 10
75.958543999999989
 20
-213.29508200000001
 30
0.0
 11
75.976154000000008
 21
-219.120272
 31
0.0
  0
LINE
  5
246
  8
DETAIL
  6
CONTINUOUS
 62
     5
 10
74.700991999999985
 20
-212.595833
 30
0.0
 11
75.958546999999996
 21
-213.29507799999999
 31
0.0
  0
LINE
  5
247
  8
DETAIL
  6
CONTINUOUS
 62
     5
 10
78.720255000000009
 20
-219.111977
 30
0.0
 11
78.734222000000003
 21
-223.731956
 31
0.0
  0
ARC
  5
248
  8
DETAIL
  6
CONTINUOUS
 62
     5
 10
62.783103000000011
 20
-215.50547900000001
 30
0.0
 40
2.873597999999999
 50
49.228708000000012
 51
90.17323300000001
  0
LINE
  5
249
  8
DETAIL
  6
CONTINUOUS
 62
     5
 10
64.677295000000001
 20
-219.15443200000001
 30
0.0
 11
64.659684999999996
 21
-213.329241
 31
0.0
  0
LINE
  5
24A
  8
DETAIL
  6
CONTINUOUS
 62
     5
 10
60.893394000000001
 20
-213.34062299999999
 30
0.0
 11
62.146698999999998
 21
-212.63378700000001
 31
0.0
  0
LINE
  5
24B
  8
DETAIL
  6
CONTINUOUS
 62
     5
 10
60.911007999999988
 20
-219.16581800000009
 30
0.0
 11
60.893397999999998
 21
-213.34062700000001
 31
0.0
  0
LINE
  5
24C
  8
DETAIL
  6
CONTINUOUS
 62
     5
 10
72.42983199999999
 20
-208.836389
 30
0.0
 11
64.395085999999992
 21
-208.860679
 31
0.0
  0
LINE
  5
24D
  8
DETAIL
  6
CONTINUOUS
 62
     5
 10
71.927660000000003
 20
-208.837907
 30
0.0
 11
71.939047000000002
 21
-212.60419400000001
 31
0.0
  0
LINE
  5
24E
  8
DETAIL
  6
CONTINUOUS
 62
     5
 10
72.42983199999999
 20
-208.836389
 30
0.0
 11
72.441218000000006
 21
-212.602676
 31
0.0
  0
LINE
  5
24F
  8
DETAIL
  6
CONTINUOUS
 62
     5
 10
64.897257999999994
 20
-208.859161
 30
0.0
 11
64.908643999999995
 21
-212.62544800000001
 31
0.0
  0
LINE
  5
250
  8
DETAIL
  6
CONTINUOUS
 62
     5
 10
64.395085999999992
 20
-208.860679
 30
0.0
 11
64.406471999999994
 21
-212.62696600000001
 31
0.0
  0
LINE
  5
251
  8
DETAIL
  6
CONTINUOUS
 62
     5
 10
94.350994
 20
-211.63251500000001
 30
0.0
 11
98.970972000000003
 21
-211.618548
 31
0.0
  0
LINE
  5
252
  8
DETAIL
  6
CONTINUOUS
 62
     5
 10
98.970972000000003
 20
-211.618548
 30
0.0
 11
98.993441000000004
 21
-219.05068800000001
 31
0.0
  0
ARC
  5
253
  8
DETAIL
  6
CONTINUOUS
 62
     5
 10
85.327085999999994
 20
-216.681558
 30
0.0
 40
2.4104349999999992
 50
180.173215
 51
270.17321500000003
  0
LINE
  5
254
  8
DETAIL
  6
CONTINUOUS
 62
     5
 10
94.350994
 20
-211.63251500000001
 30
0.0
 11
94.373462000000004
 21
-219.06465499999999
 31
0.0
  0
LINE
  5
255
  8
DETAIL
  6
CONTINUOUS
 62
     5
 10
82.782297999999997
 20
-172.243955
 30
0.0
 11
82.916661999999988
 21
-216.68884499999999
 31
0.0
  0
LINE
  5
256
  8
DETAIL
  6
CONTINUOUS
 62
     5
 10
81.774918
 20
-171.242648
 30
0.0
 11
82.782297999999997
 21
-172.243955
 31
0.0
  0
LINE
  5
257
  8
DETAIL
  6
CONTINUOUS
 62
     5
 10
101.037389
 20
-223.969559
 30
0.0
 11
91.797388999999995
 21
-223.969559
 31
0.0
  0
LINE
  5
258
  8
DETAIL
  6
CONTINUOUS
 62
     5
 10
105.958693
 20
-223.969559
 30
0.0
 11
85.068258999999998
 21
-223.969559
 31
0.0
  0
LINE
  5
259
  8
OUTLINE
  6
CONTINUOUS
 62
     3
 10
101.037389
 20
-223.969559
 30
0.0
 11
91.797388999999995
 21
-223.969559
 31
0.0
  0
LINE
  5
25A
  8
OUTLINE
  6
CONTINUOUS
 62
     3
 10
105.958693
 20
-223.969559
 30
0.0
 11
85.068258999999998
 21
-223.969559
 31
0.0
  0
LINE
  5
25B
  8
DETAIL
  6
CONTINUOUS
 62
     5
 10
138.09782200000001
 20
-229.99564599999999
 30
0.0
 11
138.09782200000001
 21
-261.13042799999999
 31
0.0
  0
LINE
  5
25C
  8
DETAIL
  6
CONTINUOUS
 62
     5
 10
138.46221399999999
 20
-262.56442399999997
 30
0.0
 11
138.378894
 21
-270.59877499999999
 31
0.0
  0
LINE
  5
25D
  8
OUTLINE
  6
CONTINUOUS
 62
     3
 10
138.46221399999999
 20
-262.56442399999997
 30
0.0
 11
138.378894
 21
-270.59877499999999
 31
0.0
  0
LINE
  5
25E
  8
DETAIL
  6
CONTINUOUS
 62
     5
 10
138.09782200000001
 20
-261.13042799999999
 30
0.0
 11
150.02280400000001
 21
-261.13042799999999
 31
0.0
  0
LINE
  5
25F
  8
OUTLINE
  6
CONTINUOUS
 62
     3
 10
138.09782200000001
 20
-261.13042799999999
 30
0.0
 11
150.02280400000001
 21
-261.13042799999999
 31
0.0
  0
LINE
  5
260
  8
DETAIL
  6
CONTINUOUS
 62
     5
 10
138.09782200000001
 20
-261.13042799999999
 30
0.0
 11
138.09782200000001
 21
-261.13042799999999
 31
0.0
  0
LINE
  5
261
  8
OUTLINE
  6
CONTINUOUS
 62
     3
 10
138.09782200000001
 20
-261.13042799999999
 30
0.0
 11
138.09782200000001
 21
-261.13042799999999
 31
0.0
  0
LINE
  5
262
  8
DETAIL
  6
CONTINUOUS
 62
     5
 10
138.09782200000001
 20
-229.99564599999999
 30
0.0
 11
159.436137
 21
-228.991298
 31
0.0
  0
LINE
  5
263
  8
OUTLINE
  6
CONTINUOUS
 62
     3
 10
138.09782200000001
 20
-229.99564599999999
 30
0.0
 11
159.436137
 21
-228.991298
 31
0.0
  0
ARC
  5
264
  8
DETAIL
  6
CONTINUOUS
 62
     5
 10
132.07173599999999
 20
-229.99564599999999
 30
0.0
 40
6.0260870000000004
 50
9.6127719999999997
 51
90.0
  0
ARC
  5
265
  8
DETAIL
  6
CONTINUOUS
 62
     5
 10
132.07173599999999
 20
-229.99564599999999
 30
0.0
 40
6.0260870000000004
 50
0.0
 51
9.6127719999999997
  0
ARC
  5
266
  8
OUTLINE
  6
CONTINUOUS
 62
     3
 10
132.07173599999999
 20
-229.99564599999999
 30
0.0
 40
6.0260870000000004
 50
9.6127719999999997
 51
90.0
  0
ARC
  5
267
  8
OUTLINE
  6
CONTINUOUS
 62
     3
 10
132.07173599999999
 20
-229.99564599999999
 30
0.0
 40
6.0260870000000004
 50
0.0
 51
9.6127719999999997
  0
LINE
  5
268
  8
DETAIL
  6
CONTINUOUS
 62
     5
 10
143.96324999999999
 20
-134.887745
 30
0.0
 11
86.149827999999985
 21
-120.872387
 31
0.0
  0
LINE
  5
269
  8
DETAIL
  6
CONTINUOUS
 62
     5
 10
86.555248000000006
 20
-100.12093900000001
 30
0.0
 11
163.436725
 21
-118.865168
 31
0.0
  0
LINE
  5
26A
  8
DETAIL
  6
CONTINUOUS
 62
     5
 10
223.34885299999999
 20
-95.0
 30
0.0
 11
8.5369559999999982
 21
-95.0
 31
0.0
  0
LINE
  5
26B
  8
OUTLINE
  6
CONTINUOUS
 62
     3
 10
223.34885299999999
 20
-95.0
 30
0.0
 11
8.5369559999999982
 21
-95.0
 31
0.0
  0
LINE
  5
26C
  8
DETAIL
  6
CONTINUOUS
 62
     5
 10
85.793974000000006
 20
-103.24338899999999
 30
0.0
 11
166.06533400000001
 21
-122.81409499999999
 31
0.0
  0
ARC
  5
26D
  8
DETAIL
  6
CONTINUOUS
 62
     5
 10
58.240586999999998
 20
-127.27564700000001
 30
0.0
 40
1.506521999999999
 50
90.173214999999985
 51
180.173215
  0
LINE
  5
26E
  8
DETAIL
  6
CONTINUOUS
 62
     5
 10
56.739538000000003
 20
-129.088019
 30
0.0
 11
65.778627
 21
-129.06069299999999
 31
0.0
  0
LINE
  5
26F
  8
DETAIL
  6
CONTINUOUS
 62
     5
 10
78.469414999999984
 20
-133.34104099999999
 30
0.0
 11
0.003857
 21
-133.61854500000001
 31
0.0
  0
LINE
  5
270
  8
DETAIL
  6
CONTINUOUS
 62
     5
 10
72.312848000000002
 20
-131.049643
 30
0.0
 11
0.000222
 21
-131.28299000000001
 31
0.0
  0
LINE
  5
271
  8
DETAIL
  6
CONTINUOUS
 62
     5
 10
14.060869
 20
-95.0
 30
0.0
 11
69.008252999999996
 21
-95.0
 31
0.0
  0
LINE
  5
272
  8
OUTLINE
  6
CONTINUOUS
 62
     3
 10
14.060869
 20
-95.0
 30
0.0
 11
69.008252999999996
 21
-95.0
 31
0.0
  0
LINE
  5
273
  8
DETAIL
  6
CONTINUOUS
 62
     5
 10
56.734073000000002
 20
-127.280202
 30
0.0
 11
56.739538000000003
 21
-129.088019
 31
0.0
  0
LINE
  5
274
  8
DETAIL
  6
CONTINUOUS
 62
     5
 10
39.672741000000002
 20
-130.243133
 30
0.0
 11
41.096648000000002
 21
-131.144015
 31
0.0
  0
LINE
  5
275
  8
DETAIL
  6
CONTINUOUS
 62
     5
 10
37.919055999999998
 20
-129.14491699999999
 30
0.0
 11
39.672741000000002
 21
-130.243133
 31
0.0
  0
ARC
  5
276
  8
DETAIL
  6
CONTINUOUS
 62
     5
 10
11.541829999999999
 20
-128.475831
 30
0.0
 40
1.8078259999999999
 50
335.70341400000001
 51
0.173215
  0
ARC
  5
277
  8
DETAIL
  6
CONTINUOUS
 62
     5
 10
11.536585000000001
 20
-128.51073600000001
 30
0.0
 40
1.8078259999999999
 50
335.53019899999998
 51
0.0
  0
LINE
  5
278
  8
DETAIL
  6
CONTINUOUS
 62
     5
 10
13.344410999999999
 20
-126.748662
 30
0.0
 11
13.344410999999999
 21
-128.51073600000001
 31
0.0
  0
LINE
  5
279
  8
DETAIL
  6
CONTINUOUS
 62
     5
 10
25.277149999999999
 20
-117.245693
 30
0.0
 11
26.108553000000001
 21
-126.74866400000001
 31
0.0
  0
LINE
  5
27A
  8
DETAIL
  6
CONTINUOUS
 62
     5
 10
20.712178000000002
 20
-112.68071399999999
 30
0.0
 11
15.053032999999999
 21
-112.18560600000001
 31
0.0
  0
LINE
  5
27B
  8
DETAIL
  6
CONTINUOUS
 62
     5
 10
14.048731
 20
-95.412956999999992
 30
0.0
 11
14.048731
 21
-104.15086700000001
 31
0.0
  0
LINE
  5
27C
  8
DETAIL
  6
CONTINUOUS
 62
     5
 10
13.044383
 20
-110.169237
 30
0.0
 11
13.044383
 21
-109.674772
 31
0.0
  0
ARC
  5
27D
  8
DETAIL
  6
CONTINUOUS
 62
     5
 10
15.053070999999999
 20
-110.169237
 30
0.0
 40
2.008694999999999
 50
180.0
 51
265.00002799999999
  0
LINE
  5
27E
  8
DETAIL
  6
CONTINUOUS
 62
     5
 10
10.031338999999999
 20
-107.666084
 30
0.0
 11
14.048731
 21
-107.666084
 31
0.0
  0
LINE
  5
27F
  8
DETAIL
  6
CONTINUOUS
 62
     5
 10
14.048731
 20
-107.666084
 30
0.0
 11
14.048731
 21
-105.155215
 31
0.0
  0
LINE
  5
280
  8
DETAIL
  6
CONTINUOUS
 62
     5
 10
10.031338999999999
 20
-109.674772
 30
0.0
 11
10.031338999999999
 21
-107.666084
 31
0.0
  0
LINE
  5
281
  8
DETAIL
  6
CONTINUOUS
 62
     5
 10
13.044383
 20
-105.155215
 30
0.0
 11
14.048731
 21
-104.15086700000001
 31
0.0
  0
ARC
  5
282
  8
DETAIL
  6
CONTINUOUS
 62
     5
 10
20.274504
 20
-117.683387
 30
0.0
 40
5.021736999999999
 50
5.000189999999999
 51
85.000010000000003
  0
LINE
  5
283
  8
DETAIL
  6
CONTINUOUS
 62
     5
 10
24.638463000000002
 20
-115.19869300000001
 30
0.0
 11
0.011394
 21
-115.21125000000001
 31
0.0
  0
LINE
  5
284
  8
DETAIL
  6
CONTINUOUS
 62
     5
 10
13.044383
 20
-109.674772
 30
0.0
 11
0.030717
 21
-109.674772
 31
0.0
  0
LINE
  5
285
  8
DETAIL
  6
CONTINUOUS
 62
     5
 10
0.030717
 20
-105.155215
 30
0.0
 11
14.048731
 21
-105.155215
 31
0.0
  0
LINE
  5
286
  8
DETAIL
  6
CONTINUOUS
 62
     5
 10
0.030717
 20
-104.15086700000001
 30
0.0
 11
14.048731
 21
-104.15086700000001
 31
0.0
  0
ARC
  5
287
  8
DETAIL
  6
CONTINUOUS
 62
     5
 10
64.266646999999992
 20
-127.257429
 30
0.0
 40
1.506521999999999
 50
0.173215
 51
90.173214999999985
  0
LINE
  5
288
  8
DETAIL
  6
CONTINUOUS
 62
     5
 10
58.236032999999999
 20
-125.769132
 30
0.0
 11
64.26209200000001
 21
-125.75091399999999
 31
0.0
  0
LINE
  5
289
  8
DETAIL
  6
CONTINUOUS
 62
     5
 10
81.724675000000005
 20
-154.623471
 30
0.0
 11
81.752002000000005
 21
-163.66256000000001
 31
0.0
  0
ARC
  5
28A
  8
DETAIL
  6
CONTINUOUS
 62
     5
 10
83.537047999999999
 20
-156.12451999999999
 30
0.0
 40
1.506521999999999
 50
0.173215
 51
90.173214999999985
  0
LINE
  5
28B
  8
DETAIL
  6
CONTINUOUS
 62
     5
 10
85.043561999999994
 20
-156.11996600000001
 30
0.0
 11
85.061779999999999
 21
-162.14602500000001
 31
0.0
  0
LINE
  5
28C
  8
DETAIL
  6
CONTINUOUS
 62
     5
 10
83.532492999999988
 20
-154.61800500000001
 30
0.0
 11
81.724675000000005
 21
-154.623471
 31
0.0
  0
LINE
  5
28D
  8
DETAIL
  6
CONTINUOUS
 62
     5
 10
83.559820000000002
 20
-163.657094
 30
0.0
 11
81.752002000000005
 21
-163.66256000000001
 31
0.0
  0
LINE
  5
28E
  8
DETAIL
  6
CONTINUOUS
 62
     5
 10
69.293828000000005
 20
-129.05006499999999
 30
0.0
 11
71.308587000000003
 21
-131.05267900000001
 31
0.0
  0
LINE
  5
28F
  8
DETAIL
  6
CONTINUOUS
 62
     5
 10
65.773161000000002
 20
-127.252875
 30
0.0
 11
65.778627
 21
-129.06069299999999
 31
0.0
  0
ARC
  5
290
  8
DETAIL
  6
CONTINUOUS
 62
     5
 10
72.34116800000001
 20
-140.39003500000001
 30
0.0
 40
9.3404350000000012
 50
0.173215
 51
90.173214999999985
  0
ARC
  5
291
  8
DETAIL
  6
CONTINUOUS
 62
     5
 10
83.555265000000006
 20
-162.15057899999999
 30
0.0
 40
1.506521999999999
 50
270.17321500000003
 51
0.173215
  0
LINE
  5
292
  8
DETAIL
  6
CONTINUOUS
 62
     5
 10
74.580124999999995
 20
-94.483755000000002
 30
0.0
 11
86.555269999999993
 21
-100.120949
 31
0.0
  0
LINE
  5
293
  8
DETAIL
  6
CONTINUOUS
 62
     5
 10
69.008252999999996
 20
-95.412956999999992
 30
0.0
 11
86.778013999999985
 21
-103.77794299999999
 31
0.0
  0
ARC
  5
294
  8
DETAIL
  6
CONTINUOUS
 62
     5
 10
-19.657905
 20
-108.425489
 30
0.0
 40
106.53731500000001
 50
353.60457500000001
 51
2.6606259999999988
  0
LINE
  5
295
  8
DETAIL
  6
CONTINUOUS
 62
     5
 10
223.34885299999999
 20
-34.147818999999998
 30
0.0
 11
223.34885299999999
 21
-158.68695199999999
 31
0.0
  0
LINE
  5
296
  8
DETAIL
  6
CONTINUOUS
 62
     5
 10
229.74048300000001
 20
-26.113043000000001
 30
0.0
 11
229.74048300000001
 21
-158.68695199999999
 31
0.0
  0
LINE
  5
297
  8
OUTLINE
  6
CONTINUOUS
 62
     3
 10
223.34885299999999
 20
-34.147818999999998
 30
0.0
 11
223.34885299999999
 21
-158.68695199999999
 31
0.0
  0
LINE
  5
298
  8
OUTLINE
  6
CONTINUOUS
 62
     3
 10
229.74048300000001
 20
-26.113043000000001
 30
0.0
 11
229.74048300000001
 21
-158.68695199999999
 31
0.0
  0
ARC
  5
299
  8
DETAIL
  6
CONTINUOUS
 62
     5
 10
79.496302
 20
-266.432773
 30
0.0
 40
188.46521000000001
 50
59.868597999999992
 51
65.45365799999999
  0
ARC
  5
29A
  8
DETAIL
  6
CONTINUOUS
 62
     5
 10
168.18625499999999
 20
-112.364346
 30
0.0
 40
10.662812000000001
 50
258.52688000000001
 51
55.815364000000002
  0
ARC
  5
29B
  8
DETAIL
  6
CONTINUOUS
 62
     5
 10
165.815709
 20
-109.10751
 30
0.0
 40
10.043478
 50
256.29820999999998
 51
34.397376999999999
  0
ARC
  5
29C
  8
DETAIL
  6
CONTINUOUS
 62
     5
 10
134.49829099999999
 20
-173.930755
 30
0.0
 40
40.17389
 50
27.925674999999998
 51
76.373025999999996
  0
LINE
  5
29D
  8
DETAIL
  6
CONTINUOUS
 62
     5
 10
228.43891099999999
 20
-34.147830999999996
 30
0.0
 11
229.99565000000001
 21
-33.243918999999998
 31
0.0
  0
LINE
  5
29E
  8
DETAIL
  6
CONTINUOUS
 62
     5
 10
229.99564599999999
 20
-26.113043000000001
 30
0.0
 11
210.310429
 21
-26.113043000000001
 31
0.0
  0
LINE
  5
29F
  8
OUTLINE
  6
CONTINUOUS
 62
     3
 10
228.43891099999999
 20
-34.147830999999996
 30
0.0
 11
229.99565000000001
 21
-33.243918999999998
 31
0.0
  0
LINE
  5
2A0
  8
OUTLINE
  6
CONTINUOUS
 62
     3
 10
229.99564599999999
 20
-26.113043000000001
 30
0.0
 11
210.310429
 21
-26.113043000000001
 31
0.0
  0
LINE
  5
2A1
  8
DETAIL
  6
DASHED
 62
     5
 10
225.17477700000001
 20
-10.244353
 30
0.0
 11
225.17477700000001
 21
-10.043478
 31
0.0
  0
LINE
  5
2A2
  8
DETAIL
  6
DASHED
 62
     5
 10
215.13129900000001
 20
-10.043478
 30
0.0
 11
225.17477700000001
 21
-10.043478
 31
0.0
  0
LINE
  5
2A3
  8
DETAIL
  6
DASHED
 62
     5
 10
215.13129900000001
 20
-10.244353
 30
0.0
 11
215.13129900000001
 21
-10.043478
 31
0.0
  0
LINE
  5
2A4
  8
DETAIL
  6
DASHED
 62
     5
 10
215.63347300000001
 20
-10.244353
 30
0.0
 11
215.63347300000001
 21
-10.043478
 31
0.0
  0
LINE
  5
2A5
  8
DETAIL
  6
DASHED
 62
     5
 10
224.67260300000001
 20
-10.244353
 30
0.0
 11
224.67260300000001
 21
-10.043478
 31
0.0
  0
LINE
  5
2A6
  8
DETAIL
  6
DASHED
 62
     5
 10
228.438917
 20
-10.244353
 30
0.0
 11
211.86715899999999
 21
-10.244353
 31
0.0
  0
ARC
  5
2A7
  8
DETAIL
  6
CONTINUOUS
 62
     5
 10
227.53499199999999
 20
-30.346616000000001
 30
0.0
 40
3.8012009999999998
 50
229.65902399999999
 51
269.99998199999999
  0
ARC
  5
2A8
  8
DETAIL
  6
CONTINUOUS
 62
     5
 10
220.15303800000001
 20
-20.298973
 30
0.0
 40
13.848846
 50
249.18457100000001
 51
290.81533899999999
  0
ARC
  5
2A9
  8
DETAIL
  6
CONTINUOUS
 62
     5
 10
212.771084
 20
-30.346616000000001
 30
0.0
 40
3.8012009999999998
 50
269.99998199999999
 51
310.340937
  0
LINE
  5
2AA
  8
DETAIL
  6
CONTINUOUS
 62
     5
 10
228.438917
 20
-34.147818999999998
 30
0.0
 11
211.86715899999999
 21
-34.147818999999998
 31
0.0
  0
LINE
  5
2AB
  8
DETAIL
  6
CONTINUOUS
 62
     5
 10
225.074341
 20
-26.113043999999999
 30
0.0
 11
225.074341
 21
-33.243912000000002
 31
0.0
  0
LINE
  5
2AC
  8
DETAIL
  6
CONTINUOUS
 62
     5
 10
215.23173499999999
 20
-26.113042
 30
0.0
 11
215.23173499999999
 21
-33.243912000000002
 31
0.0
  0
LINE
  5
2AD
  8
DETAIL
  6
CONTINUOUS
 62
     5
 10
203.10869
 20
-20.086956000000001
 30
0.0
 11
203.10869
 21
-26.113043000000001
 31
0.0
  0
LINE
  5
2AE
  8
DETAIL
  6
CONTINUOUS
 62
     5
 10
210.310429
 20
-26.113043000000001
 30
0.0
 11
210.310429
 21
-33.243912000000002
 31
0.0
  0
LINE
  5
2AF
  8
DETAIL
  6
CONTINUOUS
 62
     5
 10
210.31042500000001
 20
-33.243918999999998
 30
0.0
 11
211.867165
 21
-34.147830999999996
 31
0.0
  0
LINE
  5
2B0
  8
OUTLINE
  6
DASHED
 62
     3
 10
225.17477700000001
 20
-10.244353
 30
0.0
 11
225.17477700000001
 21
-10.043478
 31
0.0
  0
LINE
  5
2B1
  8
OUTLINE
  6
DASHED
 62
     3
 10
215.13129900000001
 20
-10.043478
 30
0.0
 11
225.17477700000001
 21
-10.043478
 31
0.0
  0
LINE
  5
2B2
  8
OUTLINE
  6
DASHED
 62
     3
 10
215.13129900000001
 20
-10.244353
 30
0.0
 11
215.13129900000001
 21
-10.043478
 31
0.0
  0
LINE
  5
2B3
  8
OUTLINE
  6
DASHED
 62
     3
 10
215.63347300000001
 20
-10.244353
 30
0.0
 11
215.63347300000001
 21
-10.043478
 31
0.0
  0
LINE
  5
2B4
  8
OUTLINE
  6
DASHED
 62
     3
 10
224.67260300000001
 20
-10.244353
 30
0.0
 11
224.67260300000001
 21
-10.043478
 31
0.0
  0
LINE
  5
2B5
  8
OUTLINE
  6
DASHED
 62
     3
 10
228.438917
 20
-10.244353
 30
0.0
 11
211.86715899999999
 21
-10.244353
 31
0.0
  0
ARC
  5
2B6
  8
OUTLINE
  6
CONTINUOUS
 62
     3
 10
227.53499199999999
 20
-30.346616000000001
 30
0.0
 40
3.8012009999999998
 50
229.65902399999999
 51
269.99998199999999
  0
ARC
  5
2B7
  8
OUTLINE
  6
CONTINUOUS
 62
     3
 10
220.15303800000001
 20
-20.298973
 30
0.0
 40
13.848846
 50
249.18457100000001
 51
290.81533899999999
  0
ARC
  5
2B8
  8
OUTLINE
  6
CONTINUOUS
 62
     3
 10
212.771084
 20
-30.346616000000001
 30
0.0
 40
3.8012009999999998
 50
269.99998199999999
 51
310.340937
  0
LINE
  5
2B9
  8
OUTLINE
  6
CONTINUOUS
 62
     3
 10
228.438917
 20
-34.147818999999998
 30
0.0
 11
211.86715899999999
 21
-34.147818999999998
 31
0.0
  0
LINE
  5
2BA
  8
OUTLINE
  6
CONTINUOUS
 62
     3
 10
225.074341
 20
-26.113043999999999
 30
0.0
 11
225.074341
 21
-33.243912000000002
 31
0.0
  0
LINE
  5
2BB
  8
OUTLINE
  6
CONTINUOUS
 62
     3
 10
215.23173499999999
 20
-26.113042
 30
0.0
 11
215.23173499999999
 21
-33.243912000000002
 31
0.0
  0
LINE
  5
2BC
  8
OUTLINE
  6
CONTINUOUS
 62
     3
 10
203.10869
 20
-20.086956000000001
 30
0.0
 11
203.10869
 21
-26.113043000000001
 31
0.0
  0
LINE
  5
2BD
  8
OUTLINE
  6
CONTINUOUS
 62
     3
 10
210.310429
 20
-26.113043000000001
 30
0.0
 11
210.310429
 21
-33.243912000000002
 31
0.0
  0
LINE
  5
2BE
  8
OUTLINE
  6
CONTINUOUS
 62
     3
 10
210.31042500000001
 20
-33.243918999999998
 30
0.0
 11
211.867165
 21
-34.147830999999996
 31
0.0
  0
LINE
  5
2BF
  8
DETAIL
  6
CONTINUOUS
 62
     5
 10
229.99564599999999
 20
-33.243912000000002
 30
0.0
 11
229.99564599999999
 21
-26.113043000000001
 31
0.0
  0
LINE
  5
2C0
  8
OUTLINE
  6
CONTINUOUS
 62
     3
 10
229.99564599999999
 20
-33.243912000000002
 30
0.0
 11
229.99564599999999
 21
-26.113043000000001
 31
0.0
  0
ARC
  5
2C1
  8
DETAIL
  6
CONTINUOUS
 62
     5
 10
307.12955699999998
 20
-44.79239299999999
 30
0.0
 40
50.217390000000002
 50
180.0
 51
242.67955599999999
  0
ARC
  5
2C2
  8
OUTLINE
  6
CONTINUOUS
 62
     3
 10
305.82479000000001
 20
-45.158406999999997
 30
0.0
 40
48.913992999999991
 50
179.57126299999999
 51
243.60724999999999
  0
LINE
  5
2C3
  8
DETAIL
  6
CONTINUOUS
 62
     5
 10
252.46628000000001
 20
-26.113043000000001
 30
0.0
 11
252.46628000000001
 21
-158.68695199999999
 31
0.0
  0
LINE
  5
2C4
  8
OUTLINE
  6
CONTINUOUS
 62
     3
 10
252.46628000000001
 20
-26.113043000000001
 30
0.0
 11
252.46628000000001
 21
-158.68695199999999
 31
0.0
  0
LINE
  5
2C5
  8
DETAIL
  6
CONTINUOUS
 62
     5
 10
300.82463999999999
 20
-95.0
 30
0.0
 11
252.46628000000001
 21
-95.0
 31
0.0
  0
LINE
  5
2C6
  8
DETAIL
  6
CONTINUOUS
 62
     5
 10
300.802166
 20
-88.973996999999983
 30
0.0
 11
252.46628000000001
 21
-88.973996999999983
 31
0.0
  0
LINE
  5
2C7
  8
OUTLINE
  6
CONTINUOUS
 62
     3
 10
300.82463999999999
 20
-95.0
 30
0.0
 11
252.46628000000001
 21
-95.0
 31
0.0
  0
LINE
  5
2C8
  8
OUTLINE
  6
CONTINUOUS
 62
     3
 10
300.802166
 20
-88.973996999999983
 30
0.0
 11
252.46628000000001
 21
-88.973996999999983
 31
0.0
  0
ARC
  5
2C9
  8
DETAIL
  6
CONTINUOUS
 62
     5
 10
300.802166
 20
-91.987040000000007
 30
0.0
 40
3.0130430000000001
 50
270.42736300000001
 51
90.0
  0
ARC
  5
2CA
  8
OUTLINE
  6
CONTINUOUS
 62
     3
 10
300.802166
 20
-91.987040000000007
 30
0.0
 40
3.0130430000000001
 50
270.42736300000001
 51
90.0
  0
ARC
  5
2CB
  8
DETAIL
  6
CONTINUOUS
 62
     5
 10
287.35040400000003
 20
-16.113858
 30
0.0
 40
3.9107089999999989
 50
276.425591
 51
0.6489520000000001
  0
ARC
  5
2CC
  8
DETAIL
  6
CONTINUOUS
 62
     5
 10
286.118022
 20
-16.112045999999999
 30
0.0
 40
3.9150619999999998
 50
276.74641100000002
 51
0.6217160000000001
  0
ARC
  5
2CD
  8
DETAIL
  6
CONTINUOUS
 62
     5
 10
294.13566100000003
 20
-14.09625
 30
0.0
 40
4.1029599999999986
 50
91.207385000000016
 51
179.505923
  0
ARC
  5
2CE
  8
OUTLINE
  6
CONTINUOUS
 62
     3
 10
287.243471
 20
-16.069565000000001
 30
0.0
 40
4.017390999999999
 50
270.0
 51
0.0
  0
ARC
  5
2CF
  8
OUTLINE
  6
CONTINUOUS
 62
     3
 10
286.01546200000001
 20
-16.069565000000001
 30
0.0
 40
4.017390999999999
 50
270.000001
 51
0.0
  0
ARC
  5
2D0
  8
OUTLINE
  6
CONTINUOUS
 62
     3
 10
294.13566100000003
 20
-14.09625
 30
0.0
 40
4.1029599999999986
 50
91.192879000000005
 51
179.505923
  0
LINE
  5
2D1
  8
DETAIL
  6
CONTINUOUS
 62
     5
 10
290.03285299999999
 20
-14.060869
 30
0.0
 11
290.03285299999999
 21
-16.069565000000001
 31
0.0
  0
LINE
  5
2D2
  8
DETAIL
  6
CONTINUOUS
 62
     5
 10
249.98064600000001
 20
-20.086956000000001
 30
0.0
 11
249.98064600000001
 21
-26.113043000000001
 31
0.0
  0
LINE
  5
2D3
  8
DETAIL
  6
CONTINUOUS
 62
     5
 10
261.34354400000001
 20
-26.113043000000001
 30
0.0
 11
261.34354400000001
 21
-20.086956000000001
 31
0.0
  0
LINE
  5
2D4
  8
DETAIL
  6
CONTINUOUS
 62
     5
 10
272.70644199999998
 20
-26.113043000000001
 30
0.0
 11
272.70644199999998
 21
-20.086956000000001
 31
0.0
  0
ARC
  5
2D5
  8
DETAIL
  6
CONTINUOUS
 62
     5
 10
278.395779
 20
-48.745294999999999
 30
0.0
 40
28.762595000000001
 50
91.987293000000008
 51
101.40853199999999
  0
LINE
  5
2D6
  8
DETAIL
  6
CONTINUOUS
 62
     5
 10
265.50469700000002
 20
-26.113043000000001
 30
0.0
 11
252.46628000000001
 21
-26.113043000000001
 31
0.0
  0
LINE
  5
2D7
  8
DETAIL
  6
DASHED
 62
     5
 10
260.68382800000001
 20
-10.244353
 30
0.0
 11
260.68382800000001
 21
-10.043478
 31
0.0
  0
LINE
  5
2D8
  8
DETAIL
  6
DASHED
 62
     5
 10
250.64035000000001
 20
-10.043478
 30
0.0
 11
260.68382800000001
 21
-10.043478
 31
0.0
  0
LINE
  5
2D9
  8
DETAIL
  6
DASHED
 62
     5
 10
250.64035000000001
 20
-10.244353
 30
0.0
 11
250.64035000000001
 21
-10.043478
 31
0.0
  0
LINE
  5
2DA
  8
DETAIL
  6
DASHED
 62
     5
 10
251.14252400000001
 20
-10.244353
 30
0.0
 11
251.14252400000001
 21
-10.043478
 31
0.0
  0
LINE
  5
2DB
  8
DETAIL
  6
DASHED
 62
     5
 10
260.18165399999998
 20
-10.244353
 30
0.0
 11
260.18165399999998
 21
-10.043478
 31
0.0
  0
LINE
  5
2DC
  8
DETAIL
  6
DASHED
 62
     5
 10
263.947968
 20
-10.244353
 30
0.0
 11
247.37620999999999
 21
-10.244353
 31
0.0
  0
ARC
  5
2DD
  8
DETAIL
  6
CONTINUOUS
 62
     5
 10
276.999123
 20
-40.173912000000001
 30
0.0
 40
20.086956000000001
 50
162.54238000000001
 51
180.0
  0
ARC
  5
2DE
  8
DETAIL
  6
CONTINUOUS
 62
     5
 10
255.66208900000001
 20
-20.298973
 30
0.0
 40
13.848846
 50
256.65797000000009
 51
290.81533899999999
  0
LINE
  5
2DF
  8
DETAIL
  6
CONTINUOUS
 62
     5
 10
263.94796200000002
 20
-34.147830999999996
 30
0.0
 11
265.50470100000001
 21
-33.243918999999998
 31
0.0
  0
ARC
  5
2E0
  8
DETAIL
  6
CONTINUOUS
 62
     5
 10
263.0440430000001
 20
-30.346616000000001
 30
0.0
 40
3.8012009999999998
 50
229.65902399999999
 51
269.99998199999999
  0
LINE
  5
2E1
  8
DETAIL
  6
CONTINUOUS
 62
     5
 10
263.947968
 20
-34.147818999999998
 30
0.0
 11
252.46628000000001
 21
-34.147818999999998
 31
0.0
  0
LINE
  5
2E2
  8
DETAIL
  6
CONTINUOUS
 62
     5
 10
256.91216700000001
 20
-44.79239299999999
 30
0.0
 11
256.91216700000001
 21
-40.173912000000001
 31
0.0
  0
LINE
  5
2E3
  8
DETAIL
  6
CONTINUOUS
 62
     5
 10
260.583392
 20
-26.113043999999999
 30
0.0
 11
260.583392
 21
-33.243912000000002
 31
0.0
  0
LINE
  5
2E4
  8
DETAIL
  6
CONTINUOUS
 62
     5
 10
265.50469700000002
 20
-33.243912000000002
 30
0.0
 11
265.50469700000002
 21
-26.113043000000001
 31
0.0
  0
LINE
  5
2E5
  8
OUTLINE
  6
CONTINUOUS
 62
     3
 10
290.03285299999999
 20
-14.060869
 30
0.0
 11
290.03285299999999
 21
-16.069565000000001
 31
0.0
  0
LINE
  5
2E6
  8
OUTLINE
  6
CONTINUOUS
 62
     3
 10
249.98064600000001
 20
-20.086956000000001
 30
0.0
 11
249.98064600000001
 21
-26.113043000000001
 31
0.0
  0
LINE
  5
2E7
  8
OUTLINE
  6
CONTINUOUS
 62
     3
 10
261.34354400000001
 20
-26.113043000000001
 30
0.0
 11
261.34354400000001
 21
-20.086956000000001
 31
0.0
  0
LINE
  5
2E8
  8
OUTLINE
  6
CONTINUOUS
 62
     3
 10
272.70644199999998
 20
-26.113043000000001
 30
0.0
 11
272.70644199999998
 21
-20.086956000000001
 31
0.0
  0
ARC
  5
2E9
  8
OUTLINE
  6
CONTINUOUS
 62
     3
 10
276.999123
 20
-40.173912000000001
 30
0.0
 40
20.086956000000001
 50
90.0
 51
102.339558
  0
LINE
  5
2EA
  8
OUTLINE
  6
CONTINUOUS
 62
     3
 10
265.50469700000002
 20
-26.113043000000001
 30
0.0
 11
252.46628000000001
 21
-26.113043000000001
 31
0.0
  0
LINE
  5
2EB
  8
OUTLINE
  6
DASHED
 62
     3
 10
260.68382800000001
 20
-10.244353
 30
0.0
 11
260.68382800000001
 21
-10.043478
 31
0.0
  0
LINE
  5
2EC
  8
OUTLINE
  6
DASHED
 62
     3
 10
250.64035000000001
 20
-10.043478
 30
0.0
 11
260.68382800000001
 21
-10.043478
 31
0.0
  0
LINE
  5
2ED
  8
OUTLINE
  6
DASHED
 62
     3
 10
250.64035000000001
 20
-10.244353
 30
0.0
 11
250.64035000000001
 21
-10.043478
 31
0.0
  0
LINE
  5
2EE
  8
OUTLINE
  6
DASHED
 62
     3
 10
251.14252400000001
 20
-10.244353
 30
0.0
 11
251.14252400000001
 21
-10.043478
 31
0.0
  0
LINE
  5
2EF
  8
OUTLINE
  6
DASHED
 62
     3
 10
260.18165399999998
 20
-10.244353
 30
0.0
 11
260.18165399999998
 21
-10.043478
 31
0.0
  0
LINE
  5
2F0
  8
OUTLINE
  6
DASHED
 62
     3
 10
263.947968
 20
-10.244353
 30
0.0
 11
247.37620999999999
 21
-10.244353
 31
0.0
  0
ARC
  5
2F1
  8
OUTLINE
  6
CONTINUOUS
 62
     3
 10
276.999123
 20
-40.173912000000001
 30
0.0
 40
20.086956000000001
 50
162.54238000000001
 51
180.0
  0
ARC
  5
2F2
  8
OUTLINE
  6
CONTINUOUS
 62
     3
 10
255.66208900000001
 20
-20.298973
 30
0.0
 40
13.848846
 50
256.65797000000009
 51
290.81533899999999
  0
LINE
  5
2F3
  8
OUTLINE
  6
CONTINUOUS
 62
     3
 10
263.94796200000002
 20
-34.147830999999996
 30
0.0
 11
265.50470100000001
 21
-33.243918999999998
 31
0.0
  0
ARC
  5
2F4
  8
OUTLINE
  6
CONTINUOUS
 62
     3
 10
263.0440430000001
 20
-30.346616000000001
 30
0.0
 40
3.8012009999999998
 50
229.65902399999999
 51
269.99998199999999
  0
LINE
  5
2F5
  8
OUTLINE
  6
CONTINUOUS
 62
     3
 10
263.947968
 20
-34.147818999999998
 30
0.0
 11
252.46628000000001
 21
-34.147818999999998
 31
0.0
  0
LINE
  5
2F6
  8
OUTLINE
  6
CONTINUOUS
 62
     3
 10
256.91216700000001
 20
-44.79239299999999
 30
0.0
 11
256.91216700000001
 21
-40.173912000000001
 31
0.0
  0
LINE
  5
2F7
  8
OUTLINE
  6
CONTINUOUS
 62
     3
 10
260.583392
 20
-26.113043999999999
 30
0.0
 11
260.583392
 21
-33.243912000000002
 31
0.0
  0
LINE
  5
2F8
  8
OUTLINE
  6
CONTINUOUS
 62
     3
 10
265.50469700000002
 20
-33.243912000000002
 30
0.0
 11
265.50469700000002
 21
-26.113043000000001
 31
0.0
  0
ARC
  5
2F9
  8
DETAIL
  6
CONTINUOUS
 62
     5
 10
303.64097600000002
 20
-6.1380600000000003
 30
0.0
 40
3.8550319999999991
 50
265.46272499999998
 51
335.50699800000001
  0
ARC
  5
2FA
  8
OUTLINE
  6
CONTINUOUS
 62
     3
 10
303.64102400000002
 20
-6.1381420000000002
 30
0.0
 40
3.8549540000000002
 50
265.46191499999998
 51
335.50780800000001
  0
ARC
  5
2FB
  8
DETAIL
  6
CONTINUOUS
 62
     5
 10
307.376509
 20
-6.4278259999999996
 30
0.0
 40
1.305652
 50
270.0
 51
343.24519500000002
  0
LINE
  5
2FC
  8
DETAIL
  6
CONTINUOUS
 62
     5
 10
309.779269
 20
-2.9759189999999989
 30
0.0
 11
308.626732
 21
-6.8042149999999992
 31
0.0
  0
ARC
  5
2FD
  8
OUTLINE
  6
CONTINUOUS
 62
     3
 10
307.376509
 20
-6.4278259999999996
 30
0.0
 40
1.305652
 50
270.0
 51
343.24519500000002
  0
LINE
  5
2FE
  8
OUTLINE
  6
CONTINUOUS
 62
     3
 10
309.779269
 20
-2.9759189999999989
 30
0.0
 11
308.626732
 21
-6.8042149999999992
 31
0.0
  0
LINE
  5
2FF
  8
DETAIL
  6
CONTINUOUS
 62
     5
 10
291.26086199999997
 20
-16.069565000000001
 30
0.0
 11
291.26086199999997
 21
-14.060869
 31
0.0
  0
ARC
  5
300
  8
DETAIL
  6
CONTINUOUS
 62
     5
 10
295.36366900000002
 20
-14.09625
 30
0.0
 40
4.1029599999999986
 50
91.192879000000005
 51
179.505923
  0
LINE
  5
301
  8
OUTLINE
  6
CONTINUOUS
 62
     3
 10
291.26086199999997
 20
-16.069565000000001
 30
0.0
 11
291.26086199999997
 21
-14.060869
 31
0.0
  0
ARC
  5
302
  8
OUTLINE
  6
CONTINUOUS
 62
     3
 10
295.36366900000002
 20
-14.09625
 30
0.0
 40
4.1029599999999986
 50
91.192879000000005
 51
179.505923
  0
LINE
  5
303
  8
NOTE
  6
CONTINUOUS
 62
     4
 39
50.0
 10
327.54084599999999
 20
97.974937999999995
 30
0.0
 11
280.0
 21
0.000021
 31
0.0
  0
LINE
  5
304
  8
NOTE
  6
CONTINUOUS
 62
     4
 39
50.0
 10
602.25014199999998
 20
97.974937999999995
 30
0.0
 11
327.54084599999999
 21
97.974937999999995
 31
0.0
  0
TEXT
  5
305
  8
NOTE
  6
CONTINUOUS
 62
     4
 10
335.351966
 20
116.711778
 30
0.0
 40
64.0
  1
4-φ14
 41
0.9
  0
LINE
  5
306
  8
NOTE
  6
CONTINUOUS
 62
     4
 10
305.5818910000001
 20
30.750091999999999
 30
0.0
 11
280.0
 21
0.000021
 31
0.0
  0
LINE
  5
307
  8
NOTE
  6
CONTINUOUS
 62
     4
 10
280.0
 20
0.000021
 30
0.0
 11
286.7795319999999
 21
39.421309000000001
 31
0.0
  0
POINT
  5
308
  8
ARRANGE
  6
CONTINUOUS
 62
     1
 10
0.0
 20
0.0
 30
0.0
  0
TEXT
  5
312
  8
ETC
  6
CONTINUOUS
 62
    61
 10
285.3511966936241
 20
534.39412507105408
 30
0.0
 40
40.0
  1
EF-50FTB3_6
 41
0.9
  0
TEXT
  5
313
  8
ETC
  6
CONTINUOUS
 62
    61
 10
327.73300189881411
 20
410.46489607105389
 30
0.0
 40
40.0
  1
EF-50FTB1
 41
0.9
  0
TEXT
  5
314
  8
ETC
  6
CONTINUOUS
 62
    61
 10
285.3511966936241
 20
473.20821307105399
 30
0.0
 40
40.0
  1
産業扇
 41
0.9
  0
TEXT
  5
315
  8
ETC
  6
CONTINUOUS
 62
    61
 10
327.73300189881411
 20
349.77251779469702
 30
0.0
 40
40.0
  1
EF-50FTB3
 41
0.9
  0
TEXT
  5
316
  8
ETC
  6
CONTINUOUS
 62
    61
 10
327.73300189881411
 20
289.08013708047412
 30
0.0
 40
40.0
  1
EF-50FTB40A5
 41
0.9
  0
ENDSEC
  0
EOF
