  0
SECTION
  2
HEADER
  9
$ACADVER
  1
AC1009
  9
$DWGCODEPAGE
  3
ansi_932
  9
$INSBASE
 10
0.0
 20
0.0
 30
0.0
  9
$EXTMIN
 10
-704.065321
 20
-741.050799
 30
0.0
  9
$EXTMAX
 10
1346.383388793673
 20
865.355266844776
 30
50.0
  9
$LIMMIN
 10
-2970.0
 20
-2100.0
  9
$LIMMAX
 10
2970.0
 20
2100.0
  9
$ORTHOMODE
 70
     1
  9
$REGENMODE
 70
     0
  9
$FILLMODE
 70
     1
  9
$QTEXTMODE
 70
     0
  9
$MIRRTEXT
 70
     0
  9
$DRAGMODE
 70
     2
  9
$LTSCALE
 40
20.0
  9
$OSMODE
 70
    37
  9
$ATTMODE
 70
     1
  9
$TEXTSIZE
 40
64.0
  9
$TRACEWID
 40
0.05
  9
$TEXTSTYLE
  7
STANDARD
  9
$CLAYER
  8
SIZE
  9
$CELTYPE
  6
CONTINUOUS
  9
$CECOLOR
 62
     8
  9
$DIMSCALE
 40
1.0
  9
$DIMASZ
 40
12.0
  9
$DIMEXO
 40
20.0
  9
$DIMDLI
 40
200.0
  9
$DIMRND
 40
0.0
  9
$DIMDLE
 40
0.0
  9
$DIMEXE
 40
20.0
  9
$DIMTP
 40
0.0
  9
$DIMTM
 40
0.0
  9
$DIMTXT
 40
64.0
  9
$DIMCEN
 40
0.09
  9
$DIMTSZ
 40
0.0
  9
$DIMTOL
 70
     0
  9
$DIMLIM
 70
     0
  9
$DIMTIH
 70
     0
  9
$DIMTOH
 70
     0
  9
$DIMSE1
 70
     0
  9
$DIMSE2
 70
     0
  9
$DIMTAD
 70
     1
  9
$DIMZIN
 70
     8
  9
$DIMBLK
  1
DOT1
  9
$DIMASO
 70
     1
  9
$DIMSHO
 70
     0
  9
$DIMPOST
  1

  9
$DIMAPOST
  1

  9
$DIMALT
 70
     0
  9
$DIMALTD
 70
     2
  9
$DIMALTF
 40
25.4
  9
$DIMLFAC
 40
1.0
  9
$DIMTOFL
 70
     1
  9
$DIMTVP
 40
0.0
  9
$DIMTIX
 70
     1
  9
$DIMSOXD
 70
     0
  9
$DIMSAH
 70
     1
  9
$DIMBLK1
  1
ORIGIN
  9
$DIMBLK2
  1
ORIGIN
  9
$DIMSTYLE
  2
STANDARD
  9
$DIMCLRD
 70
     0
  9
$DIMCLRE
 70
     0
  9
$DIMCLRT
 70
     0
  9
$DIMTFAC
 40
1.0
  9
$DIMGAP
 40
0.09
  9
$LUNITS
 70
     2
  9
$LUPREC
 70
     4
  9
$SKETCHINC
 40
0.1
  9
$FILLETRAD
 40
8.3
  9
$AUNITS
 70
     1
  9
$AUPREC
 70
     3
  9
$MENU
  1
ACAD
  9
$ELEVATION
 40
0.0
  9
$PELEVATION
 40
0.0
  9
$THICKNESS
 40
50.0
  9
$LIMCHECK
 70
     0
  9
$CHAMFERA
 40
0.0
  9
$CHAMFERB
 40
0.0
  9
$SKPOLY
 70
     0
  9
$TDCREATE
 40
2452310.657101389
  9
$TDUPDATE
 40
2457485.553528981
  9
$TDINDWG
 40
0.1136994213
  9
$TDUSRTIMER
 40
0.1136994213
  9
$USRTIMER
 70
     1
  9
$ANGBASE
 50
0.0
  9
$ANGDIR
 70
     0
  9
$PDMODE
 70
     3
  9
$PDSIZE
 40
-2.0
  9
$PLINEWID
 40
0.0
  9
$COORDS
 70
     1
  9
$SPLFRAME
 70
     0
  9
$SPLINETYPE
 70
     6
  9
$SPLINESEGS
 70
     8
  9
$ATTDIA
 70
     0
  9
$ATTREQ
 70
     1
  9
$HANDLING
 70
     1
  9
$HANDSEED
  5
331
  9
$SURFTAB1
 70
     6
  9
$SURFTAB2
 70
     6
  9
$SURFTYPE
 70
     6
  9
$SURFU
 70
     6
  9
$SURFV
 70
     6
  9
$UCSNAME
  2

  9
$UCSORG
 10
0.0
 20
0.0
 30
0.0
  9
$UCSXDIR
 10
1.0
 20
0.0
 30
0.0
  9
$UCSYDIR
 10
0.0
 20
1.0
 30
0.0
  9
$PUCSNAME
  2

  9
$PUCSORG
 10
0.0
 20
0.0
 30
0.0
  9
$PUCSXDIR
 10
1.0
 20
0.0
 30
0.0
  9
$PUCSYDIR
 10
0.0
 20
1.0
 30
0.0
  9
$USERI1
 70
     0
  9
$USERI2
 70
     0
  9
$USERI3
 70
     0
  9
$USERI4
 70
     0
  9
$USERI5
 70
     0
  9
$USERR1
 40
20.0
  9
$USERR2
 40
0.0
  9
$USERR3
 40
0.0
  9
$USERR4
 40
0.0
  9
$USERR5
 40
0.0
  9
$WORLDVIEW
 70
     1
  9
$SHADEDGE
 70
     3
  9
$SHADEDIF
 70
    70
  9
$TILEMODE
 70
     1
  9
$MAXACTVP
 70
    64
  9
$PLIMCHECK
 70
     0
  9
$PEXTMIN
 10
1.000000000000000E+20
 20
1.000000000000000E+20
 30
1.000000000000000E+20
  9
$PEXTMAX
 10
-1.000000000000000E+20
 20
-1.000000000000000E+20
 30
-1.000000000000000E+20
  9
$PLIMMIN
 10
0.0
 20
0.0
  9
$PLIMMAX
 10
12.0
 20
9.0
  9
$UNITMODE
 70
     0
  9
$VISRETAIN
 70
     1
  9
$PLINEGEN
 70
     0
  9
$PSLTSCALE
 70
     1
  0
ENDSEC
  0
SECTION
  2
TABLES
  0
TABLE
  2
VPORT
 70
     1
  0
VPORT
  2
*ACTIVE
 70
     0
 10
0.0
 20
0.0
 11
1.0
 21
1.0
 12
283.2304430077015
 22
55.71772648071214
 13
0.0
 23
0.0
 14
1.0
 24
1.0
 15
0.0
 25
0.0
 16
0.0
 26
0.0
 36
1.0
 17
0.0
 27
0.0
 37
0.0
 40
2021.504699821153
 41
1.447268106734434
 42
50.0
 43
0.0
 44
0.0
 50
0.0
 51
0.0
 71
     0
 72
   100
 73
     1
 74
     0
 75
     0
 76
     0
 77
     0
 78
     0
  0
ENDTAB
  0
TABLE
  2
LTYPE
 70
     2
  0
LTYPE
  2
CONTINUOUS
 70
     0
  3
実線
 72
    65
 73
     0
 40
0.0
  0
LTYPE
  2
DASHDOT
 70
     0
  3
____ _ ____ _ ____ _ ____ _ ____ _ ____ _ ____
 72
    65
 73
     4
 40
5.5
 49
4.0
 49
-0.6
 49
0.3
 49
-0.6
  0
ENDTAB
  0
TABLE
  2
LAYER
 70
    12
  0
LAYER
  2
0
 70
     0
 62
     7
  6
CONTINUOUS
  0
LAYER
  2
SIZE
 70
     0
 62
    30
  6
CONTINUOUS
  0
LAYER
  2
BASIS
 70
     0
 62
     6
  6
DASHDOT
  0
LAYER
  2
OUTLINE
 70
     0
 62
     3
  6
CONTINUOUS
  0
LAYER
  2
DETAIL
 70
     0
 62
     5
  6
CONTINUOUS
  0
LAYER
  2
ARRANGE
 70
     0
 62
     1
  6
CONTINUOUS
  0
LAYER
  2
DEFPOINTS
 70
     0
 62
     7
  6
CONTINUOUS
  0
LAYER
  2
ETC
 70
     0
 62
    61
  6
CONTINUOUS
  0
LAYER
  2
FIX
 70
     0
 62
    11
  6
CONTINUOUS
  0
LAYER
  2
NOTE
 70
     0
 62
     4
  6
CONTINUOUS
  0
LAYER
  2
SERVICESPACE
 70
     0
 62
     2
  6
DASHDOT
  0
LAYER
  2
SYMBOLLINE
 70
     0
 62
    15
  6
CONTINUOUS
  0
ENDTAB
  0
TABLE
  2
STYLE
 70
     1
  0
STYLE
  2
STANDARD
 70
     0
 40
64.0
 41
0.9
 50
0.0
 71
     0
 42
64.0
  3
SIMPLEX.shx
  4
BIGFONT.shx
  0
ENDTAB
  0
TABLE
  2
VIEW
 70
     1
  0
VIEW
  2
ALL
 70
     0
 40
4282.619807999999
 10
0.0
 20
41.30990399999999
 41
5940.0
 11
0.0
 21
0.0
 31
1.0
 12
0.0
 22
0.0
 32
0.0
 42
50.0
 43
0.0
 44
0.0
 50
0.0
 71
     0
  0
ENDTAB
  0
TABLE
  2
UCS
 70
     0
  0
ENDTAB
  0
TABLE
  2
APPID
 70
     1
  0
APPID
  2
ACAD
 70
     0
  0
ENDTAB
  0
TABLE
  2
DIMSTYLE
 70
     1
  0
DIMSTYLE
  2
STANDARD
 70
     0
  3

  4

  5

  6

  7

 40
1.0
 41
0.18
 42
0.0625
 43
0.38
 44
0.18
 45
0.0
 46
0.0
 47
0.0
 48
0.0
140
0.18
141
0.09
142
0.0
143
25.4
144
1.0
145
0.0
146
1.0
147
0.09
 71
     0
 72
     0
 73
     1
 74
     1
 75
     0
 76
     0
 77
     0
 78
     0
170
     0
171
     2
172
     0
173
     0
174
     0
175
     0
176
     0
177
     0
178
     0
  0
ENDTAB
  0
ENDSEC
  0
SECTION
  2
BLOCKS
  0
BLOCK
  8
0
  2
$MODEL_SPACE
 70
     0
 10
0.0
 20
0.0
 30
0.0
  3
$MODEL_SPACE
  1

  0
ENDBLK
  5
20
  8
0
  0
BLOCK
 67
     1
  8
0
  2
$PAPER_SPACE
 70
     0
 10
0.0
 20
0.0
 30
0.0
  3
$PAPER_SPACE
  1

  0
ENDBLK
  5
1C
 67
     1
  8
0
  0
BLOCK
  8
0
  2
DOT1
 70
     0
 10
0.0
 20
0.0
 30
0.0
  3
DOT1
  1

  0
CIRCLE
  5
34
  8
SIZE
  6
CONTINUOUS
 62
     7
 10
0.0
 20
0.0
 30
0.0
 40
3.0
  0
ENDBLK
  5
35
  8
0
  0
BLOCK
  8
0
  2
_ORIGIN
 70
     0
 10
0.0
 20
0.0
 30
0.0
  3
_ORIGIN
  1

  0
CIRCLE
  5
38
  8
0
  6
CONTINUOUS
 62
     7
 10
0.0
 20
0.0
 30
0.0
 40
0.5
  0
LINE
  5
39
  8
0
  6
CONTINUOUS
 62
     7
 10
0.0
 20
0.0
 30
0.0
 11
-1.0
 21
0.0
 31
0.0
  0
ENDBLK
  5
3A
  8
0
  0
ENDSEC
  0
SECTION
  2
ENTITIES
  0
LINE
  5
3B
  8
BASIS
  6
DASHDOT
 62
     6
 10
0.0
 20
390.447285
 30
0.0
 11
0.0
 21
-391.7615439999999
 31
0.0
  0
LINE
  5
3C
  8
BASIS
  6
DASHDOT
 62
     6
 10
-399.295916
 20
0.0
 30
0.0
 11
399.9370539999999
 21
0.0
 31
0.0
  0
LINE
  5
3D
  8
DETAIL
  6
CONTINUOUS
 62
     5
 10
310.000002
 20
280.000002
 30
0.0
 11
310.000002
 21
-280.0000019999999
 31
0.0
  0
LINE
  5
3E
  8
DETAIL
  6
CONTINUOUS
 62
     5
 10
-310.0000019999999
 20
280.000002
 30
0.0
 11
-310.0000019999999
 21
-280.0000019999999
 31
0.0
  0
LINE
  5
3F
  8
DETAIL
  6
CONTINUOUS
 62
     5
 10
-280.0000019999999
 20
310.000002
 30
0.0
 11
280.000002
 21
310.000002
 31
0.0
  0
LINE
  5
40
  8
DETAIL
  6
CONTINUOUS
 62
     5
 10
-280.0000019999999
 20
-310.0000019999999
 30
0.0
 11
280.000002
 21
-310.0000019999999
 31
0.0
  0
LINE
  5
41
  8
NOTE
  6
CONTINUOUS
 62
     4
 10
280.0
 20
260.0
 30
0.0
 11
280.0
 21
300.0
 31
0.0
  0
LINE
  5
42
  8
NOTE
  6
CONTINUOUS
 62
     4
 10
260.0
 20
280.0
 30
0.0
 11
300.0
 21
280.0
 31
0.0
  0
LINE
  5
43
  8
NOTE
  6
CONTINUOUS
 62
     4
 10
280.0
 20
-299.9999999999999
 30
0.0
 11
280.0
 21
-259.9999999999999
 31
0.0
  0
LINE
  5
44
  8
NOTE
  6
CONTINUOUS
 62
     4
 10
260.0
 20
-279.9999999999999
 30
0.0
 11
300.0
 21
-279.9999999999999
 31
0.0
  0
LINE
  5
45
  8
NOTE
  6
CONTINUOUS
 62
     4
 10
-280.0
 20
-299.9999999999999
 30
0.0
 11
-280.0
 21
-259.9999999999999
 31
0.0
  0
LINE
  5
46
  8
NOTE
  6
CONTINUOUS
 62
     4
 10
-299.9999999999999
 20
-279.9999999999999
 30
0.0
 11
-260.0
 21
-279.9999999999999
 31
0.0
  0
LINE
  5
47
  8
NOTE
  6
CONTINUOUS
 62
     4
 10
-280.0
 20
260.0
 30
0.0
 11
-280.0
 21
300.0
 31
0.0
  0
LINE
  5
48
  8
NOTE
  6
CONTINUOUS
 62
     4
 10
-299.9999999999999
 20
280.0
 30
0.0
 11
-260.0
 21
280.0
 31
0.0
  0
LINE
  5
49
  8
NOTE
  6
CONTINUOUS
 62
     4
 10
243.000002
 20
-280.0000019999999
 30
0.0
 11
243.000002
 21
-240.0000019999999
 31
0.0
  0
LINE
  5
4A
  8
NOTE
  6
CONTINUOUS
 62
     4
 10
223.0000019999999
 20
-260.0000019999999
 30
0.0
 11
263.000002
 21
-260.0000019999999
 31
0.0
  0
TEXT
  5
4B
  8
NOTE
  6
CONTINUOUS
 62
     4
 10
-675.761712
 20
444.088367
 30
0.0
 40
64.0
  1
4-φ14
 41
0.9
  0
LINE
  5
4C
  8
NOTE
  6
CONTINUOUS
 62
     4
 10
-704.065321
 20
418.988818
 30
0.0
 11
-386.955846
 21
418.988818
 31
0.0
  0
LINE
  5
4D
  8
NOTE
  6
CONTINUOUS
 62
     4
 10
-280.0
 20
280.0
 30
0.0
 11
-386.955846
 21
418.988818
 31
0.0
  0
LINE
  5
4E
  8
NOTE
  6
CONTINUOUS
 62
     4
 10
-311.959145
 20
304.0543769999999
 30
0.0
 11
-280.0
 21
280.0
 31
0.0
  0
LINE
  5
4F
  8
NOTE
  6
CONTINUOUS
 62
     4
 10
-280.0
 20
280.0
 30
0.0
 11
-295.6502419999999
 21
316.811274
 31
0.0
  0
LINE
  5
51
  8
NOTE
  6
CONTINUOUS
 62
     4
 10
243.000002
 20
-260.0000019999999
 30
0.0
 11
348.079436
 21
-440.611691
 31
0.0
  0
LINE
  5
52
  8
NOTE
  6
CONTINUOUS
 62
     4
 10
348.079436
 20
-440.611691
 30
0.0
 11
471.853796
 21
-440.611691
 31
0.0
  0
TEXT
  5
53
  8
NOTE
  6
CONTINUOUS
 62
     4
 10
371.9158189999999
 20
-409.866107
 30
0.0
 40
64.0
  1
EL
 41
0.9
  0
LINE
  5
54
  8
NOTE
  6
CONTINUOUS
 62
     4
 10
270.791284
 20
-288.768816
 30
0.0
 11
243.000002
 21
-260.0000019999999
 31
0.0
  0
LINE
  5
55
  8
NOTE
  6
CONTINUOUS
 62
     4
 10
243.000002
 20
-260.0000019999999
 30
0.0
 11
252.6835499999999
 21
-298.8101669999999
 31
0.0
  0
POINT
  5
56
  8
ARRANGE
  6
CONTINUOUS
 62
     1
 10
0.0
 20
0.0
 30
0.0
  0
CIRCLE
  5
57
  8
ARRANGE
  6
CONTINUOUS
 62
     1
 10
0.0
 20
0.0
 30
0.0
 40
40.0
  0
ARC
  5
59
  8
DETAIL
  6
CONTINUOUS
 62
     5
 10
0.0
 20
0.0
 30
0.0
 40
255.0
 50
134.782911
 51
225.217089
  0
ARC
  5
5A
  8
DETAIL
  6
CONTINUOUS
 62
     5
 10
0.0
 20
0.0
 30
0.0
 40
302.4999999999999
 50
135.13407
 51
224.8659299999999
  0
LINE
  5
5B
  8
DETAIL
  6
CONTINUOUS
 62
     5
 10
-108.0
 20
112.853355
 30
0.0
 11
-108.0
 21
-112.853355
 31
0.0
  0
LINE
  5
5C
  8
DETAIL
  6
CONTINUOUS
 62
     5
 10
108.0
 20
112.853355
 30
0.0
 11
108.0
 21
-112.853355
 31
0.0
  0
LINE
  5
5D
  8
SIZE
  6
CONTINUOUS
 62
    30
 10
280.0
 20
320.0
 30
0.0
 11
280.0
 21
496.0316879999999
 31
0.0
  0
LINE
  5
5E
  8
SIZE
  6
CONTINUOUS
 62
    30
 10
-280.0
 20
320.0
 30
0.0
 11
-280.0
 21
496.0316879999999
 31
0.0
  0
LINE
  5
5F
  8
SIZE
  6
CONTINUOUS
 62
    30
 10
268.0
 20
476.0316879999999
 30
0.0
 11
-268.0
 21
476.0316879999999
 31
0.0
  0
CIRCLE
  5
60
  8
SIZE
  6
CONTINUOUS
 62
    30
 10
280.0
 20
476.0316879999999
 30
0.0
 40
6.0
  0
LINE
  5
61
  8
SIZE
  6
CONTINUOUS
 62
    30
 10
280.0
 20
476.0316879999999
 30
0.0
 11
268.0
 21
476.0316879999999
 31
0.0
  0
CIRCLE
  5
62
  8
SIZE
  6
CONTINUOUS
 62
    30
 10
-280.0
 20
476.0316879999999
 30
0.0
 40
6.0
  0
LINE
  5
63
  8
SIZE
  6
CONTINUOUS
 62
    30
 10
-280.0
 20
476.0316879999999
 30
0.0
 11
-268.0
 21
476.0316879999999
 31
0.0
  0
TEXT
  5
64
  8
SIZE
  6
CONTINUOUS
 62
    30
 10
-82.28571428571429
 20
501.0316879999999
 30
0.0
 40
64.0
  1
560
 41
0.9
 72
     1
 11
0.0
 21
501.0316879999999
 31
0.0
  0
POINT
  5
65
  8
DEFPOINTS
  6
CONTINUOUS
 62
    30
 10
280.0
 20
300.0
 30
0.0
  0
POINT
  5
66
  8
DEFPOINTS
  6
CONTINUOUS
 62
    30
 10
-280.0
 20
300.0
 30
0.0
  0
POINT
  5
67
  8
DEFPOINTS
  6
CONTINUOUS
 62
    30
 10
-280.0
 20
476.0316879999999
 30
0.0
  0
LINE
  5
68
  8
SIZE
  6
CONTINUOUS
 62
    30
 10
310.000002
 20
306.1538479999999
 30
0.0
 11
310.000002
 21
622.547654
 31
0.0
  0
LINE
  5
69
  8
SIZE
  6
CONTINUOUS
 62
    30
 10
-310.0000019999999
 20
306.1538479999999
 30
0.0
 11
-310.0000019999999
 21
622.547654
 31
0.0
  0
LINE
  5
6A
  8
SIZE
  6
CONTINUOUS
 62
    30
 10
298.0000019999999
 20
602.5476539999999
 30
0.0
 11
-298.0000019999999
 21
602.5476539999999
 31
0.0
  0
CIRCLE
  5
6B
  8
SIZE
  6
CONTINUOUS
 62
    30
 10
310.000002
 20
602.5476539999999
 30
0.0
 40
6.0
  0
LINE
  5
6C
  8
SIZE
  6
CONTINUOUS
 62
    30
 10
310.000002
 20
602.5476539999999
 30
0.0
 11
298.0000019999999
 21
602.5476539999999
 31
0.0
  0
CIRCLE
  5
6D
  8
SIZE
  6
CONTINUOUS
 62
    30
 10
-310.0000019999999
 20
602.5476539999999
 30
0.0
 40
6.0
  0
LINE
  5
6E
  8
SIZE
  6
CONTINUOUS
 62
    30
 10
-310.0000019999999
 20
602.5476539999999
 30
0.0
 11
-298.0000019999999
 21
602.5476539999999
 31
0.0
  0
TEXT
  5
6F
  8
SIZE
  6
CONTINUOUS
 62
    30
 10
-83.65714285714286
 20
627.5476539999999
 30
0.0
 40
64.0
  1
620
 41
0.9
 72
     1
 11
0.0
 21
627.5476539999999
 31
0.0
  0
POINT
  5
70
  8
DEFPOINTS
  6
CONTINUOUS
 62
    30
 10
310.000002
 20
286.1538479999999
 30
0.0
  0
POINT
  5
71
  8
DEFPOINTS
  6
CONTINUOUS
 62
    30
 10
-310.0000019999999
 20
286.1538479999999
 30
0.0
  0
POINT
  5
72
  8
DEFPOINTS
  6
CONTINUOUS
 62
    30
 10
-310.0000019999999
 20
602.5476539999999
 30
0.0
  0
LINE
  5
73
  8
SIZE
  6
CONTINUOUS
 62
    30
 10
310.606602
 20
280.0
 30
0.0
 11
584.136809
 21
280.0
 31
0.0
  0
LINE
  5
74
  8
SIZE
  6
CONTINUOUS
 62
    30
 10
319.9999999999999
 20
-279.9999999999999
 30
0.0
 11
584.136809
 21
-279.9999999999999
 31
0.0
  0
LINE
  5
75
  8
SIZE
  6
CONTINUOUS
 62
    30
 10
564.1368089999999
 20
268.0
 30
0.0
 11
564.1368089999999
 21
-267.9999999999999
 31
0.0
  0
CIRCLE
  5
76
  8
SIZE
  6
CONTINUOUS
 62
    30
 10
564.1368089999999
 20
280.0
 30
0.0
 40
6.0
  0
LINE
  5
77
  8
SIZE
  6
CONTINUOUS
 62
    30
 10
564.1368089999999
 20
280.0
 30
0.0
 11
564.1368089999999
 21
268.0
 31
0.0
  0
CIRCLE
  5
78
  8
SIZE
  6
CONTINUOUS
 62
    30
 10
564.1368089999999
 20
-279.9999999999999
 30
0.0
 40
6.0
  0
LINE
  5
79
  8
SIZE
  6
CONTINUOUS
 62
    30
 10
564.1368089999999
 20
-279.9999999999999
 30
0.0
 11
564.1368089999999
 21
-267.9999999999999
 31
0.0
  0
TEXT
  5
7A
  8
SIZE
  6
CONTINUOUS
 62
    30
 10
539.1368089999999
 20
-82.28571428571429
 30
0.0
 40
64.0
  1
560
 50
90.0
 41
0.9
 72
     1
 11
539.1368089999999
 21
0.0
 31
0.0
  0
POINT
  5
7B
  8
DEFPOINTS
  6
CONTINUOUS
 62
    30
 10
290.606602
 20
280.0
 30
0.0
  0
POINT
  5
7C
  8
DEFPOINTS
  6
CONTINUOUS
 62
    30
 10
300.0
 20
-279.9999999999999
 30
0.0
  0
POINT
  5
7D
  8
DEFPOINTS
  6
CONTINUOUS
 62
    30
 10
564.1368089999999
 20
-279.9999999999999
 30
0.0
  0
LINE
  5
7E
  8
SIZE
  6
CONTINUOUS
 62
    30
 10
306.1538479999998
 20
310.000002
 30
0.0
 11
725.6240440000001
 21
310.000002
 31
0.0
  0
LINE
  5
7F
  8
SIZE
  6
CONTINUOUS
 62
    30
 10
306.1538479999998
 20
-310.0000019999999
 30
0.0
 11
725.6240440000001
 21
-310.0000019999999
 31
0.0
  0
LINE
  5
80
  8
SIZE
  6
CONTINUOUS
 62
    30
 10
705.624044
 20
298.000002
 30
0.0
 11
705.624044
 21
-298.0000019999999
 31
0.0
  0
CIRCLE
  5
81
  8
SIZE
  6
CONTINUOUS
 62
    30
 10
705.624044
 20
310.000002
 30
0.0
 40
6.0
  0
LINE
  5
82
  8
SIZE
  6
CONTINUOUS
 62
    30
 10
705.624044
 20
310.000002
 30
0.0
 11
705.624044
 21
298.000002
 31
0.0
  0
CIRCLE
  5
83
  8
SIZE
  6
CONTINUOUS
 62
    30
 10
705.624044
 20
-310.0000019999999
 30
0.0
 40
6.0
  0
LINE
  5
84
  8
SIZE
  6
CONTINUOUS
 62
    30
 10
705.624044
 20
-310.0000019999999
 30
0.0
 11
705.624044
 21
-298.0000019999999
 31
0.0
  0
TEXT
  5
85
  8
SIZE
  6
CONTINUOUS
 62
    30
 10
680.624044
 20
-83.65714285714286
 30
0.0
 40
64.0
  1
620
 50
90.0
 41
0.9
 72
     1
 11
680.624044
 21
0.0
 31
0.0
  0
POINT
  5
86
  8
DEFPOINTS
  6
CONTINUOUS
 62
    30
 10
286.1538479999999
 20
310.000002
 30
0.0
  0
POINT
  5
87
  8
DEFPOINTS
  6
CONTINUOUS
 62
    30
 10
286.1538479999999
 20
-310.0000019999999
 30
0.0
  0
POINT
  5
88
  8
DEFPOINTS
  6
CONTINUOUS
 62
    30
 10
705.624044
 20
-310.0000019999999
 30
0.0
  0
LINE
  5
89
  8
SIZE
  6
CONTINUOUS
 62
    30
 10
-302.4999999999999
 20
-20.0
 30
0.0
 11
-302.4999999999999
 21
-741.0507989999999
 31
0.0
  0
LINE
  5
8A
  8
SIZE
  6
CONTINUOUS
 62
    30
 10
302.4999999999999
 20
-20.0
 30
0.0
 11
302.4999999999999
 21
-741.0507989999999
 31
0.0
  0
LINE
  5
8B
  8
SIZE
  6
CONTINUOUS
 62
    30
 10
-290.4999999999999
 20
-721.0507989999999
 30
0.0
 11
290.4999999999999
 21
-721.0507989999999
 31
0.0
  0
CIRCLE
  5
8C
  8
SIZE
  6
CONTINUOUS
 62
    30
 10
-302.4999999999999
 20
-721.0507989999999
 30
0.0
 40
6.0
  0
LINE
  5
8D
  8
SIZE
  6
CONTINUOUS
 62
    30
 10
-302.4999999999999
 20
-721.0507989999999
 30
0.0
 11
-290.4999999999999
 21
-721.0507989999999
 31
0.0
  0
CIRCLE
  5
8E
  8
SIZE
  6
CONTINUOUS
 62
    30
 10
302.4999999999999
 20
-721.0507989999999
 30
0.0
 40
6.0
  0
LINE
  5
8F
  8
SIZE
  6
CONTINUOUS
 62
    30
 10
302.4999999999999
 20
-721.0507989999999
 30
0.0
 11
290.4999999999999
 21
-721.0507989999999
 31
0.0
  0
TEXT
  5
90
  8
SIZE
  6
CONTINUOUS
 62
    30
 10
-106.9714285714286
 20
-696.050799
 30
0.0
 40
64.0
  1
φ605
 41
0.9
 72
     1
 11
0.0
 21
-696.050799
 31
0.0
  0
POINT
  5
91
  8
DEFPOINTS
  6
CONTINUOUS
 62
    30
 10
-302.4999999999999
 20
0.0
 30
0.0
  0
POINT
  5
92
  8
DEFPOINTS
  6
CONTINUOUS
 62
    30
 10
302.4999999999999
 20
0.0
 30
0.0
  0
POINT
  5
93
  8
DEFPOINTS
  6
CONTINUOUS
 62
    30
 10
302.4999999999999
 20
-721.0507989999999
 30
0.0
  0
LINE
  5
94
  8
SIZE
  6
CONTINUOUS
 62
    30
 10
255.0
 20
-20.0
 30
0.0
 11
255.0
 21
-612.6849559999999
 31
0.0
  0
LINE
  5
95
  8
SIZE
  6
CONTINUOUS
 62
    30
 10
-255.0
 20
-20.0
 30
0.0
 11
-255.0
 21
-612.6849559999999
 31
0.0
  0
LINE
  5
96
  8
SIZE
  6
CONTINUOUS
 62
    30
 10
243.0
 20
-592.6849559999998
 30
0.0
 11
-243.0
 21
-592.6849559999998
 31
0.0
  0
CIRCLE
  5
97
  8
SIZE
  6
CONTINUOUS
 62
    30
 10
255.0
 20
-592.6849559999998
 30
0.0
 40
6.0
  0
LINE
  5
98
  8
SIZE
  6
CONTINUOUS
 62
    30
 10
255.0
 20
-592.6849559999998
 30
0.0
 11
243.0
 21
-592.6849559999998
 31
0.0
  0
CIRCLE
  5
99
  8
SIZE
  6
CONTINUOUS
 62
    30
 10
-255.0
 20
-592.6849559999998
 30
0.0
 40
6.0
  0
LINE
  5
9A
  8
SIZE
  6
CONTINUOUS
 62
    30
 10
-255.0
 20
-592.6849559999998
 30
0.0
 11
-243.0
 21
-592.6849559999998
 31
0.0
  0
TEXT
  5
9B
  8
SIZE
  6
CONTINUOUS
 62
    30
 10
-106.9714285714286
 20
-567.6849559999998
 30
0.0
 40
64.0
  1
φ510
 41
0.9
 72
     1
 11
0.0
 21
-567.6849559999998
 31
0.0
  0
POINT
  5
9C
  8
DEFPOINTS
  6
CONTINUOUS
 62
    30
 10
255.0
 20
0.0
 30
0.0
  0
POINT
  5
9D
  8
DEFPOINTS
  6
CONTINUOUS
 62
    30
 10
-255.0
 20
0.0
 30
0.0
  0
POINT
  5
9E
  8
DEFPOINTS
  6
CONTINUOUS
 62
    30
 10
-255.0
 20
-592.6849559999998
 30
0.0
  0
ARC
  5
9F
  8
DETAIL
  6
CONTINUOUS
 62
     5
 10
-280.0000019999999
 20
280.000002
 30
0.0
 40
30.0
 50
90.0
 51
180.0
  0
ARC
  5
A0
  8
DETAIL
  6
CONTINUOUS
 62
     5
 10
-280.0000019999999
 20
-280.0000019999999
 30
0.0
 40
30.0
 50
180.0
 51
270.0
  0
ARC
  5
A1
  8
DETAIL
  6
CONTINUOUS
 62
     5
 10
280.000002
 20
-280.0000019999999
 30
0.0
 40
30.0
 50
270.0
 51
0.0
  0
ARC
  5
A2
  8
DETAIL
  6
CONTINUOUS
 62
     5
 10
280.000002
 20
280.000002
 30
0.0
 40
30.0
 50
0.0
 51
90.0
  0
CIRCLE
  5
A3
  8
DETAIL
  6
CONTINUOUS
 62
     5
 10
-280.0
 20
280.0
 30
0.0
 40
7.0
  0
CIRCLE
  5
A4
  8
FIX
  6
CONTINUOUS
 62
    11
 39
50.0
 10
-280.0
 20
280.0
 30
0.0
 40
7.0
  0
CIRCLE
  5
A5
  8
FIX
  6
CONTINUOUS
 62
    11
 39
50.0
 10
280.0
 20
280.0
 30
0.0
 40
7.0
  0
CIRCLE
  5
A6
  8
DETAIL
  6
CONTINUOUS
 62
     5
 10
280.0
 20
280.0
 30
0.0
 40
7.0
  0
CIRCLE
  5
A7
  8
FIX
  6
CONTINUOUS
 62
    11
 39
50.0
 10
280.0
 20
-279.9999999999999
 30
0.0
 40
7.0
  0
CIRCLE
  5
A8
  8
DETAIL
  6
CONTINUOUS
 62
     5
 10
280.0
 20
-279.9999999999999
 30
0.0
 40
7.0
  0
CIRCLE
  5
A9
  8
FIX
  6
CONTINUOUS
 62
    11
 39
50.0
 10
-280.0
 20
-279.9999999999999
 30
0.0
 40
7.0
  0
CIRCLE
  5
AA
  8
DETAIL
  6
CONTINUOUS
 62
     5
 10
-280.0
 20
-279.9999999999999
 30
0.0
 40
7.0
  0
ARC
  5
AB
  8
DETAIL
  6
CONTINUOUS
 62
     5
 10
0.0
 20
-1176.75
 30
0.0
 40
1298.25
 50
85.41143400000003
 51
94.58856599999999
  0
ARC
  5
AC
  8
DETAIL
  6
CONTINUOUS
 62
     5
 10
-103.5
 20
112.853355
 30
0.0
 40
4.5
 50
94.58856600000003
 51
180.0
  0
ARC
  5
AD
  8
DETAIL
  6
CONTINUOUS
 62
     5
 10
103.5
 20
112.853355
 30
0.0
 40
4.5
 50
0.0
 51
85.41143399999999
  0
ARC
  5
AE
  8
DETAIL
  6
CONTINUOUS
 62
     5
 10
0.0
 20
1176.749999999999
 30
0.0
 40
1298.25
 50
265.411434
 51
272.829673
  0
ARC
  5
AF
  8
DETAIL
  6
CONTINUOUS
 62
     5
 10
-103.5
 20
-112.853355
 30
0.0
 40
4.5
 50
180.0
 51
265.411434
  0
ARC
  5
B0
  8
DETAIL
  6
CONTINUOUS
 62
     5
 10
103.5
 20
-112.853355
 30
0.0
 40
4.5
 50
274.588566
 51
0.0
  0
CIRCLE
  5
B1
  8
DETAIL
  6
CONTINUOUS
 62
     5
 10
0.0
 20
0.0
 30
0.0
 40
81.5
  0
LINE
  5
B2
  8
SIZE
  6
CONTINUOUS
 62
    30
 10
81.49999999999989
 20
-20.0
 30
0.0
 11
81.49999999999989
 21
-476.443603
 31
0.0
  0
LINE
  5
B3
  8
SIZE
  6
CONTINUOUS
 62
    30
 10
-81.5
 20
-20.0
 30
0.0
 11
-81.5
 21
-476.443603
 31
0.0
  0
LINE
  5
B4
  8
SIZE
  6
CONTINUOUS
 62
    30
 10
69.5
 20
-456.443603
 30
0.0
 11
-69.5000000000001
 21
-456.443603
 31
0.0
  0
LINE
  5
B5
  8
SIZE
  6
CONTINUOUS
 62
    30
 10
-81.5
 20
-456.443603
 30
0.0
 11
-581.525309
 21
-456.443603
 31
0.0
  0
CIRCLE
  5
B6
  8
SIZE
  6
CONTINUOUS
 62
    30
 10
81.49999999999989
 20
-456.443603
 30
0.0
 40
6.0
  0
LINE
  5
B7
  8
SIZE
  6
CONTINUOUS
 62
    30
 10
81.49999999999989
 20
-456.443603
 30
0.0
 11
69.5
 21
-456.443603
 31
0.0
  0
CIRCLE
  5
B8
  8
SIZE
  6
CONTINUOUS
 62
    30
 10
-81.5
 20
-456.443603
 30
0.0
 40
6.0
  0
LINE
  5
B9
  8
SIZE
  6
CONTINUOUS
 62
    30
 10
-81.5
 20
-456.443603
 30
0.0
 11
-69.5000000000001
 21
-456.443603
 31
0.0
  0
TEXT
  5
BA
  8
SIZE
  6
CONTINUOUS
 62
    30
 10
-568.8681665714283
 20
-431.443603
 30
0.0
 40
64.0
  1
φ163
 41
0.9
 72
     1
 11
-461.8967379999998
 21
-431.443603
 31
0.0
  0
POINT
  5
BB
  8
DEFPOINTS
  6
CONTINUOUS
 62
    30
 10
81.49999999999989
 20
0.0
 30
0.0
  0
POINT
  5
BC
  8
DEFPOINTS
  6
CONTINUOUS
 62
    30
 10
-81.5
 20
0.0
 30
0.0
  0
POINT
  5
BD
  8
DEFPOINTS
  6
CONTINUOUS
 62
    30
 10
-81.5
 20
-456.443603
 30
0.0
  0
LINE
  5
BE
  8
OUTLINE
  6
CONTINUOUS
 62
     3
 10
-280.0000019999999
 20
310.000002
 30
0.0
 11
280.000002
 21
310.000002
 31
0.0
  0
LINE
  5
BF
  8
OUTLINE
  6
CONTINUOUS
 62
     3
 10
-280.0000019999999
 20
-310.0000019999999
 30
0.0
 11
280.000002
 21
-310.0000019999999
 31
0.0
  0
LINE
  5
C0
  8
OUTLINE
  6
CONTINUOUS
 62
     3
 10
-310.0000019999999
 20
280.000002
 30
0.0
 11
-310.0000019999999
 21
-280.0000019999999
 31
0.0
  0
ARC
  5
C1
  8
OUTLINE
  6
CONTINUOUS
 62
     3
 10
-280.0000019999999
 20
-280.0000019999999
 30
0.0
 40
30.0
 50
180.0
 51
270.0
  0
ARC
  5
C2
  8
OUTLINE
  6
CONTINUOUS
 62
     3
 10
-280.0000019999999
 20
280.000002
 30
0.0
 40
30.0
 50
90.0
 51
180.0
  0
LINE
  5
C3
  8
OUTLINE
  6
CONTINUOUS
 62
     3
 10
310.000002
 20
280.000002
 30
0.0
 11
310.000002
 21
-280.0000019999999
 31
0.0
  0
ARC
  5
C4
  8
OUTLINE
  6
CONTINUOUS
 62
     3
 10
280.000002
 20
-280.0000019999999
 30
0.0
 40
30.0
 50
270.0
 51
0.0
  0
ARC
  5
C5
  8
OUTLINE
  6
CONTINUOUS
 62
     3
 10
280.000002
 20
280.000002
 30
0.0
 40
30.0
 50
0.0
 51
90.0
  0
ARC
  5
C6
  8
DETAIL
  6
CONTINUOUS
 62
     5
 10
-242.337804
 20
266.005857
 30
0.0
 40
17.52155499999999
 50
91.05724100000005
 51
165.4487649999998
  0
ARC
  5
C7
  8
DETAIL
  6
CONTINUOUS
 62
     5
 10
-266.008916
 20
242.327119
 30
0.0
 40
17.52155499999999
 50
104.5545689999999
 51
178.938225
  0
ARC
  5
C8
  8
DETAIL
  6
CONTINUOUS
 62
     5
 10
-278.243893
 20
278.2280979999999
 30
0.0
 40
20.496956
 50
292.463489
 51
337.5720499999998
  0
ARC
  5
C9
  8
DETAIL
  6
CONTINUOUS
 62
     5
 10
182.2243459999999
 20
-39947.83
 30
0.0
 40
40233.6
 50
90.482874
 51
90.60508100000001
  0
LINE
  5
CA
  8
DETAIL
  6
CONTINUOUS
 62
     5
 10
-123.109443
 20
284.7671389999999
 30
0.0
 11
-111.901462
 21
285.029493
 31
0.0
  0
ARC
  5
CB
  8
DETAIL
  6
CONTINUOUS
 62
     5
 10
-156.730001
 20
276.1952189999999
 30
0.0
 40
8.144824
 50
29.99964900000006
 51
90.84244499999991
  0
LINE
  5
CC
  8
DETAIL
  6
CONTINUOUS
 62
     5
 10
-147.053675
 20
275.7250319999999
 30
0.0
 11
-149.67631
 21
280.267598
 31
0.0
  0
ARC
  5
CD
  8
DETAIL
  6
CONTINUOUS
 62
     5
 10
-140.0
 20
279.797406
 30
0.0
 40
8.144824
 50
209.9996299999997
 51
329.9999890000001
  0
LINE
  5
CE
  8
DETAIL
  6
CONTINUOUS
 62
     5
 10
-132.946431
 20
275.7250269999999
 30
0.0
 11
-130.076884
 21
280.6951029999999
 31
0.0
  0
ARC
  5
CF
  8
DETAIL
  6
CONTINUOUS
 62
     5
 10
-123.023477
 20
276.6227679999999
 30
0.0
 40
8.144824
 50
90.60475400000004
 51
149.999588
  0
ARC
  5
D0
  8
DETAIL
  6
CONTINUOUS
 62
     5
 10
27.328754
 20
-12837.87
 30
0.0
 40
13123.64
 50
90.56027400000002
 51
90.60786899999998
  0
ARC
  5
D1
  8
DETAIL
  6
CONTINUOUS
 62
     5
 10
39947.83
 20
-182.233645
 30
0.0
 40
40233.6
 50
179.3949190000003
 51
179.5171260000004
  0
ARC
  5
D2
  8
DETAIL
  6
CONTINUOUS
 62
     5
 10
12837.87
 20
-27.338053
 30
0.0
 40
13123.64
 50
179.3921309999996
 51
179.4397230000005
  0
LINE
  5
D3
  8
DETAIL
  6
CONTINUOUS
 62
     5
 10
-275.72806
 20
132.937132
 30
0.0
 11
-280.6981359999999
 21
130.067585
 31
0.0
  0
LINE
  5
D4
  8
DETAIL
  6
CONTINUOUS
 62
     5
 10
-275.728065
 20
147.044376
 30
0.0
 11
-280.2706309999999
 21
149.667011
 31
0.0
  0
ARC
  5
D5
  8
DETAIL
  6
CONTINUOUS
 62
     5
 10
-279.800439
 20
139.990701
 30
0.0
 40
8.144824
 50
300.0000109999999
 51
60.00037000000017
  0
ARC
  5
D6
  8
DETAIL
  6
CONTINUOUS
 62
     5
 10
-276.6258009999999
 20
123.014178
 30
0.0
 40
8.144824
 50
120.0004119999999
 51
179.3952459999999
  0
ARC
  5
D7
  8
DETAIL
  6
CONTINUOUS
 62
     5
 10
-276.198252
 20
156.7207019999999
 30
0.0
 40
8.144824
 50
179.1575549999997
 51
240.0003509999998
  0
LINE
  5
D8
  8
DETAIL
  6
CONTINUOUS
 62
     5
 10
-284.770172
 20
123.100144
 30
0.0
 11
-285.0325259999999
 21
111.892163
 31
0.0
  0
LINE
  5
D9
  8
DETAIL
  6
CONTINUOUS
 62
     5
 10
-230.9703959999999
 20
270.565384
 30
0.0
 11
-270.565278
 21
230.970422
 31
0.0
  0
LINE
  5
DA
  8
DETAIL
  6
CONTINUOUS
 62
     5
 10
-206.9734550000001
 20
256.167022
 30
0.0
 11
-229.093934
 21
234.0465119999999
 31
0.0
  0
LINE
  5
DB
  8
DETAIL
  6
CONTINUOUS
 62
     5
 10
-226.171164
 20
264.473424
 30
0.0
 11
-218.966813
 21
260.320327
 31
0.0
  0
LINE
  5
DC
  8
DETAIL
  6
CONTINUOUS
 62
     5
 10
-218.966814
 20
260.3203229999999
 30
0.0
 11
-218.966814
 21
252.0141299999999
 31
0.0
  0
LINE
  5
DD
  8
DETAIL
  6
CONTINUOUS
 62
     5
 10
-218.966813
 20
252.014127
 30
0.0
 11
-226.171164
 21
247.8610299999999
 31
0.0
  0
LINE
  5
DE
  8
DETAIL
  6
CONTINUOUS
 62
     5
 10
-206.973442
 20
256.167114
 30
0.0
 11
-221.371674
 21
270.5653
 31
0.0
  0
LINE
  5
DF
  8
DETAIL
  6
CONTINUOUS
 62
     5
 10
-230.970401
 20
270.565241
 30
0.0
 11
-221.371661
 21
270.565241
 31
0.0
  0
LINE
  5
E0
  8
DETAIL
  6
CONTINUOUS
 62
     5
 10
-233.3755200000001
 20
252.0141299999999
 30
0.0
 11
-233.3755200000001
 21
260.3203229999999
 31
0.0
  0
LINE
  5
E1
  8
DETAIL
  6
CONTINUOUS
 62
     5
 10
-226.171169
 20
247.8610299999999
 30
0.0
 11
-233.3755209999999
 21
252.014127
 31
0.0
  0
LINE
  5
E2
  8
DETAIL
  6
CONTINUOUS
 62
     5
 10
-233.3755209999999
 20
260.320327
 30
0.0
 11
-226.171169
 21
264.473424
 31
0.0
  0
LINE
  5
E3
  8
DETAIL
  6
CONTINUOUS
 62
     5
 10
-103.86
 20
117.338932
 30
0.0
 11
-248.968058
 21
252.5675379999999
 31
0.0
  0
LINE
  5
E4
  8
DETAIL
  6
CONTINUOUS
 62
     5
 10
-107.459503
 20
113.73936
 30
0.0
 11
-252.567643
 21
248.967998
 31
0.0
  0
LINE
  5
E5
  8
DETAIL
  6
CONTINUOUS
 62
     5
 10
-256.1672779999999
 20
217.8648049999999
 30
0.0
 11
-263.371629
 21
222.017902
 31
0.0
  0
LINE
  5
E6
  8
DETAIL
  6
CONTINUOUS
 62
     5
 10
-263.371629
 20
230.324102
 30
0.0
 11
-256.1672779999999
 21
234.477199
 31
0.0
  0
LINE
  5
E7
  8
DETAIL
  6
CONTINUOUS
 62
     5
 10
-263.371629
 20
222.0179049999999
 30
0.0
 11
-263.371629
 21
230.324098
 31
0.0
  0
LINE
  5
E8
  8
DETAIL
  6
CONTINUOUS
 62
     5
 10
-270.56529
 20
230.970314
 30
0.0
 11
-270.56529
 21
221.371534
 31
0.0
  0
LINE
  5
E9
  8
DETAIL
  6
CONTINUOUS
 62
     5
 10
-256.167273
 20
234.477199
 30
0.0
 11
-248.962922
 21
230.324102
 31
0.0
  0
LINE
  5
EA
  8
DETAIL
  6
CONTINUOUS
 62
     5
 10
-248.962922
 20
230.324098
 30
0.0
 11
-248.962922
 21
222.0179049999999
 31
0.0
  0
LINE
  5
EB
  8
DETAIL
  6
CONTINUOUS
 62
     5
 10
-248.962922
 20
222.017902
 30
0.0
 11
-256.167273
 21
217.8648049999999
 31
0.0
  0
LINE
  5
EC
  8
DETAIL
  6
CONTINUOUS
 62
     5
 10
-256.167189
 20
206.973428
 30
0.0
 11
-232.693561
 21
230.447018
 31
0.0
  0
LINE
  5
ED
  8
DETAIL
  6
CONTINUOUS
 62
     5
 10
-256.167185
 20
206.973376
 30
0.0
 11
-270.565296
 21
221.371518
 31
0.0
  0
ARC
  5
EE
  8
DETAIL
  6
CONTINUOUS
 62
     5
 10
-0.0000459999999975
 20
0.0000029999999922
 30
0.0
 40
104.9409899999999
 50
147.230902
 51
168.4039419999999
  0
ARC
  5
EF
  8
DETAIL
  6
CONTINUOUS
 62
     5
 10
-0.0000459999999975
 20
0.0000029999999922
 30
0.0
 40
104.9409899999999
 50
191.6002479999999
 51
212.7691899999999
  0
ARC
  5
F0
  8
DETAIL
  6
CONTINUOUS
 62
     5
 10
-95.94440099999997
 20
-19.69496199999996
 30
0.0
 40
6.996064999999999
 50
97.50007599999999
 51
191.600193
  0
ARC
  5
F1
  8
DETAIL
  6
CONTINUOUS
 62
     5
 10
-95.94581900000003
 20
19.68795299999999
 30
0.0
 40
6.996064999999999
 50
168.4039419999999
 51
262.499961
  0
ARC
  5
F2
  8
DETAIL
  6
CONTINUOUS
 62
     5
 10
0.0
 20
0.0
 30
0.0
 40
35.480037
 50
337.9302749999998
 51
22.06963499999999
  0
ARC
  5
F3
  8
DETAIL
  6
CONTINUOUS
 62
     5
 10
0.0
 20
0.0
 30
0.0
 40
33.48114499999999
 50
337.93033
 51
22.06963500000001
  0
ARC
  5
F4
  8
DETAIL
  6
CONTINUOUS
 62
     5
 10
92.80467199999987
 20
5.154333000000008
 30
0.0
 40
6.996064999999999
 50
97.5001310000001
 51
183.178953
  0
ARC
  5
F5
  8
DETAIL
  6
CONTINUOUS
 62
     5
 10
0.0
 20
0.0
 30
0.0
 40
35.480037
 50
157.9303659999999
 51
202.0697259999999
  0
ARC
  5
F6
  8
DETAIL
  6
CONTINUOUS
 62
     5
 10
0.0
 20
0.0
 30
0.0
 40
33.48114499999999
 50
157.9303659999999
 51
202.069671
  0
ARC
  5
F7
  8
DETAIL
  6
CONTINUOUS
 62
     5
 10
-92.804351
 20
5.161470000000008
 30
0.0
 40
6.996064999999999
 50
356.8167869999999
 51
82.49987100000004
  0
ARC
  5
F8
  8
DETAIL
  6
CONTINUOUS
 62
     5
 10
0.0
 20
0.0
 30
0.0
 40
70.460379
 50
359.999927998985
 51
32.160447
  0
ARC
  5
F9
  8
DETAIL
  6
CONTINUOUS
 62
     5
 10
0.0
 20
0.0
 30
0.0
 40
70.460379
 50
147.839554
 51
180.0000729963985
  0
ARC
  5
FA
  8
DETAIL
  6
CONTINUOUS
 62
     5
 10
0.0
 20
0.0
 30
0.0
 40
72.45926999999999
 50
327.8395179999999
 51
32.16033800000001
  0
ARC
  5
FB
  8
DETAIL
  6
CONTINUOUS
 62
     5
 10
0.0
 20
0.0
 30
0.0
 40
72.45926999999999
 50
147.8396629999999
 51
212.1604829999999
  0
ARC
  5
FC
  8
DETAIL
  6
CONTINUOUS
 62
     5
 10
14.45766
 20
-35.658902
 30
0.0
 40
2.998312999999999
 50
45.00000100000008
 51
112.0698529999998
  0
ARC
  5
FD
  8
DETAIL
  6
CONTINUOUS
 62
     5
 10
-0.0000459999999975
 20
0.0000029999999922
 30
0.0
 40
85.951683
 50
222.1008129999999
 51
297.0295499999999
  0
ARC
  5
FE
  8
DETAIL
  6
CONTINUOUS
 62
     5
 10
20.11307999999988
 20
-95.34686299999998
 30
0.0
 40
7.495782000000001
 50
101.9117229999999
 51
281.911796
  0
ARC
  5
FF
  8
DETAIL
  6
CONTINUOUS
 62
     5
 10
14.45766
 20
-35.65892400000001
 30
0.0
 40
4.997187999999999
 50
45.00000099999996
 51
112.0699080000001
  0
ARC
  5
100
  8
DETAIL
  6
CONTINUOUS
 62
     5
 10
0.0
 20
0.0
 30
0.0
 40
72.45926999999999
 50
270.0
 51
302.160465
  0
ARC
  5
101
  8
DETAIL
  6
CONTINUOUS
 62
     5
 10
0.0
 20
0.0
 30
0.0
 40
70.460379
 50
270.0
 51
302.16052
  0
ARC
  5
102
  8
DETAIL
  6
CONTINUOUS
 62
     5
 10
0.0
 20
0.0
 30
0.0
 40
70.460379
 50
237.839481
 51
270.0
  0
ARC
  5
103
  8
DETAIL
  6
CONTINUOUS
 62
     5
 10
0.0
 20
0.0
 30
0.0
 40
72.45926999999999
 50
237.8395359999999
 51
270.0
  0
ARC
  5
104
  8
DETAIL
  6
CONTINUOUS
 62
     5
 10
-0.0000459999999975
 20
0.0000029999999922
 30
0.0
 40
104.9409899999999
 50
236.9116679999999
 51
258.0881509999999
  0
ARC
  5
105
  8
DETAIL
  6
CONTINUOUS
 62
     5
 10
-0.0000459999999975
 20
0.0000029999999922
 30
0.0
 40
89.94941999999999
 50
236.9116679999998
 51
258.0882049999999
  0
ARC
  5
106
  8
DETAIL
  6
CONTINUOUS
 62
     5
 10
-53.19834200000011
 20
-81.64253300000001
 30
0.0
 40
7.495782000000001
 50
56.911759
 51
142.5000399999999
  0
ARC
  5
107
  8
DETAIL
  6
CONTINUOUS
 62
     5
 10
-53.19838800000011
 20
-81.64253300000001
 30
0.0
 40
7.495782000000001
 50
142.5000399999999
 51
236.9116139999999
  0
ARC
  5
108
  8
DETAIL
  6
CONTINUOUS
 62
     5
 10
-20.11321699999999
 20
-95.34686299999998
 30
0.0
 40
7.495782000000001
 50
258.0882049999998
 51
78.08822399999991
  0
LINE
  5
109
  8
DETAIL
  6
CONTINUOUS
 62
     5
 10
-54.99066500000011
 20
-38.02955600000001
 30
0.0
 11
-33.53884300000001
 21
-16.57776999999999
 31
0.0
  0
LINE
  5
10A
  8
DETAIL
  6
CONTINUOUS
 62
     5
 10
-53.577196
 20
-39.44310400000001
 30
0.0
 11
-32.1253530000001
 21
-17.99114300000002
 31
0.0
  0
ARC
  5
10B
  8
DETAIL
  6
CONTINUOUS
 62
     5
 10
-0.0000459999999975
 20
0.0000029999999922
 30
0.0
 40
85.951683
 50
176.816659
 51
183.18775
  0
ARC
  5
10C
  8
DETAIL
  6
CONTINUOUS
 62
     5
 10
-69.3348670000001
 20
-62.65067900000003
 30
0.0
 40
7.495782000000001
 50
42.100886
 51
127.50007
  0
ARC
  5
10D
  8
DETAIL
  6
CONTINUOUS
 62
     5
 10
0.0
 20
0.0
 30
0.0
 40
70.460379
 50
180.0000190144419
 51
212.160538
  0
ARC
  5
10E
  8
DETAIL
  6
CONTINUOUS
 62
     5
 10
-92.80394000000001
 20
-5.168630000000007
 30
0.0
 40
6.996064999999999
 50
277.500095
 51
3.187604999999978
  0
LINE
  5
10F
  8
DETAIL
  6
CONTINUOUS
 62
     5
 10
-91.89076200000001
 20
-12.104849
 30
0.0
 11
-96.857598
 21
-12.75874699999997
 31
0.0
  0
ARC
  5
110
  8
DETAIL
  6
CONTINUOUS
 62
     5
 10
-84.27153699999997
 20
-53.73126799999999
 30
0.0
 40
9.994378999999999
 50
325.840458
 51
32.521464
  0
ARC
  5
111
  8
DETAIL
  6
CONTINUOUS
 62
     5
 10
0.0
 20
0.0
 30
0.0
 40
89.94941999999999
 50
192.448558
 51
212.5518809999999
  0
ARC
  5
112
  8
DETAIL
  6
CONTINUOUS
 62
     5
 10
-81.51739399999997
 20
-52.47231899999996
 30
0.0
 40
7.995505
 50
212.7691899999999
 51
307.5000339999999
  0
LINE
  5
113
  8
DETAIL
  6
CONTINUOUS
 62
     5
 10
-76.65002199999998
 20
-58.81563599999998
 30
0.0
 11
-73.897985
 21
-56.703936
 31
0.0
  0
ARC
  5
114
  8
DETAIL
  6
CONTINUOUS
 62
     5
 10
-97.58273100000002
 20
-21.59524299999998
 30
0.0
 40
9.994378999999999
 50
12.47853000000001
 51
67.62466499999998
  0
ARC
  5
115
  8
DETAIL
  6
CONTINUOUS
 62
     5
 10
-57.1107540000001
 20
-35.90950099999998
 30
0.0
 40
2.998314
 50
212.1602649999999
 51
314.9999100000001
  0
ARC
  5
116
  8
DETAIL
  6
CONTINUOUS
 62
     5
 10
-57.1107540000001
 20
-35.90950099999998
 30
0.0
 40
4.997190999999999
 50
212.160429
 51
314.999964
  0
LINE
  5
117
  8
DETAIL
  6
CONTINUOUS
 62
     5
 10
-39.443037
 20
-53.577178
 30
0.0
 11
-17.991195
 21
-32.12534699999998
 31
0.0
  0
LINE
  5
118
  8
DETAIL
  6
CONTINUOUS
 62
     5
 10
-38.02963600000001
 20
-54.99059699999998
 30
0.0
 11
-16.57779800000012
 21
-33.53876200000001
 31
0.0
  0
ARC
  5
119
  8
DETAIL
  6
CONTINUOUS
 62
     5
 10
-35.90949499999999
 20
-57.11077699999998
 30
0.0
 40
4.997190999999999
 50
135.000055
 51
237.839536
  0
ARC
  5
11A
  8
DETAIL
  6
CONTINUOUS
 62
     5
 10
-35.90949499999999
 20
-57.11077699999998
 30
0.0
 40
2.998314
 50
135.000055
 51
237.8397539999997
  0
ARC
  5
11B
  8
DETAIL
  6
CONTINUOUS
 62
     5
 10
-35.658919
 20
-14.45762300000001
 30
0.0
 40
4.997187999999999
 50
315.000128
 51
22.06963500000004
  0
ARC
  5
11C
  8
DETAIL
  6
CONTINUOUS
 62
     5
 10
-35.658919
 20
-14.45763099999999
 30
0.0
 40
2.998312999999999
 50
314.9999100000001
 51
22.06963500000009
  0
ARC
  5
11D
  8
DETAIL
  6
CONTINUOUS
 62
     5
 10
0.0
 20
0.0
 30
0.0
 40
33.48114499999999
 50
247.930184
 51
270.0
  0
ARC
  5
11E
  8
DETAIL
  6
CONTINUOUS
 62
     5
 10
0.0
 20
0.0
 30
0.0
 40
35.480037
 50
247.9301299999999
 51
270.0
  0
ARC
  5
11F
  8
DETAIL
  6
CONTINUOUS
 62
     5
 10
-14.45766000000012
 20
-35.65892400000001
 30
0.0
 40
4.997187999999999
 50
67.9301109999999
 51
135.0000000000001
  0
ARC
  5
120
  8
DETAIL
  6
CONTINUOUS
 62
     5
 10
-14.45766000000012
 20
-35.658902
 30
0.0
 40
2.998312999999999
 50
67.93016500000022
 51
135.0000000000001
  0
CIRCLE
  5
121
  8
DETAIL
  6
CONTINUOUS
 62
     5
 10
-22.96805700000002
 20
-22.96805999999998
 30
0.0
 40
4.997190999999999
  0
ARC
  5
122
  8
DETAIL
  6
CONTINUOUS
 62
     5
 10
0.0
 20
0.0
 30
0.0
 40
35.480037
 50
270.0
 51
292.0698719999999
  0
ARC
  5
123
  8
DETAIL
  6
CONTINUOUS
 62
     5
 10
0.0
 20
0.0
 30
0.0
 40
33.48114499999999
 50
270.0
 51
292.0698169999999
  0
ARC
  5
124
  8
DETAIL
  6
CONTINUOUS
 62
     5
 10
53.19825
 20
-81.64253300000001
 30
0.0
 40
7.495782000000001
 50
37.49996200000005
 51
123.08826
  0
ARC
  5
125
  8
DETAIL
  6
CONTINUOUS
 62
     5
 10
-0.0000459999999975
 20
0.0000029999999922
 30
0.0
 40
104.9409899999999
 50
281.9118509999999
 51
297.134102
  0
ARC
  5
126
  8
DETAIL
  6
CONTINUOUS
 62
     5
 10
-0.0000459999999975
 20
0.0000029999999922
 30
0.0
 40
104.9409899999999
 50
302.8660509999999
 51
303.088278
  0
ARC
  5
127
  8
DETAIL
  6
CONTINUOUS
 62
     5
 10
0.0
 20
0.0
 30
0.0
 40
89.94941999999999
 50
281.911796
 51
296.655989
  0
ARC
  5
128
  8
DETAIL
  6
CONTINUOUS
 62
     5
 10
53.19825
 20
-81.64253300000001
 30
0.0
 40
7.495782000000001
 50
303.088333
 51
37.49990700000001
  0
ARC
  5
129
  8
DETAIL
  6
CONTINUOUS
 62
     5
 10
69.33473000000001
 20
-62.65067900000003
 30
0.0
 40
7.495782000000001
 50
52.49994900000002
 51
137.899115
  0
ARC
  5
12A
  8
DETAIL
  6
CONTINUOUS
 62
     5
 10
0.0
 20
0.0
 30
0.0
 40
70.460379
 50
327.8394629999999
 51
359.9999829672693
  0
ARC
  5
12B
  8
DETAIL
  6
CONTINUOUS
 62
     5
 10
35.90949499999991
 20
-57.11077699999998
 30
0.0
 40
4.997190999999999
 50
302.160465
 51
44.999946
  0
LINE
  5
12C
  8
DETAIL
  6
CONTINUOUS
 62
     5
 10
54.99062899999998
 20
-38.02957100000003
 30
0.0
 11
33.53879999999998
 21
-16.57772699999997
 31
0.0
  0
LINE
  5
12D
  8
DETAIL
  6
CONTINUOUS
 62
     5
 10
53.57715400000001
 20
-39.44305400000002
 30
0.0
 11
32.12536099999988
 21
-17.991107
 31
0.0
  0
ARC
  5
12E
  8
DETAIL
  6
CONTINUOUS
 62
     5
 10
35.90949499999991
 20
-57.11077699999998
 30
0.0
 40
2.998314
 50
302.1602469999999
 51
44.99994600000014
  0
CIRCLE
  5
12F
  8
DETAIL
  6
CONTINUOUS
 62
     5
 10
22.9680569999999
 20
-22.96805999999998
 30
0.0
 40
4.997190999999999
  0
LINE
  5
130
  8
DETAIL
  6
CONTINUOUS
 62
     5
 10
39.4429979999999
 20
-53.57716499999999
 30
0.0
 11
17.99119899999988
 21
-32.125356
 31
0.0
  0
ARC
  5
131
  8
DETAIL
  6
CONTINUOUS
 62
     5
 10
35.65891899999988
 20
-14.45763099999999
 30
0.0
 40
2.998312999999999
 50
157.930311
 51
225.000037
  0
ARC
  5
132
  8
DETAIL
  6
CONTINUOUS
 62
     5
 10
35.65891899999988
 20
-14.45762300000001
 30
0.0
 40
4.997187999999999
 50
157.9303110000001
 51
224.9998179999999
  0
ARC
  5
133
  8
DETAIL
  6
CONTINUOUS
 62
     5
 10
57.1107539999999
 20
-35.90950099999998
 30
0.0
 40
4.997190999999999
 50
224.999982
 51
327.839573
  0
ARC
  5
134
  8
DETAIL
  6
CONTINUOUS
 62
     5
 10
57.1107539999999
 20
-35.90950099999998
 30
0.0
 40
2.998314
 50
225.000037
 51
327.8397360000001
  0
ARC
  5
135
  8
DETAIL
  6
CONTINUOUS
 62
     5
 10
-0.0000459999999975
 20
0.0000029999999922
 30
0.0
 40
85.951683
 50
302.970626
 51
317.8991879999999
  0
LINE
  5
136
  8
DETAIL
  6
CONTINUOUS
 62
     5
 10
38.02959099999998
 20
-54.99062400000003
 30
0.0
 11
16.5777799999999
 21
-33.53876100000002
 31
0.0
  0
ARC
  5
137
  8
DETAIL
  6
CONTINUOUS
 62
     5
 10
-0.0000459999999975
 20
0.0000029999999922
 30
0.0
 40
85.951683
 50
356.821103
 51
3.17880699999984
  0
LINE
  5
138
  8
DETAIL
  6
CONTINUOUS
 62
     5
 10
91.89149099999992
 20
-12.09054800000001
 30
0.0
 11
96.86032299999988
 21
-12.74471499999999
 31
0.0
  0
ARC
  5
139
  8
DETAIL
  6
CONTINUOUS
 62
     5
 10
97.58268599999991
 20
-21.59524299999998
 30
0.0
 40
9.994378999999999
 50
112.2103910000001
 51
167.5215359999999
  0
ARC
  5
13A
  8
DETAIL
  6
CONTINUOUS
 62
     5
 10
-0.0000459999999975
 20
0.0000029999999922
 30
0.0
 40
104.9409899999999
 50
327.230866
 51
348.408168
  0
ARC
  5
13B
  8
DETAIL
  6
CONTINUOUS
 62
     5
 10
84.27149099999991
 20
-53.73126799999999
 30
0.0
 40
9.994378999999999
 50
147.478483
 51
214.1594889999999
  0
LINE
  5
13C
  8
DETAIL
  6
CONTINUOUS
 62
     5
 10
76.64988099999991
 20
-58.81559300000004
 30
0.0
 11
73.8978449999999
 21
-56.703891
 31
0.0
  0
ARC
  5
13D
  8
DETAIL
  6
CONTINUOUS
 62
     5
 10
92.80467199999987
 20
-5.154327000000023
 30
0.0
 40
6.996064999999999
 50
176.8210299999999
 51
262.4998519999999
  0
ARC
  5
13E
  8
DETAIL
  6
CONTINUOUS
 62
     5
 10
0.0
 20
0.0
 30
0.0
 40
89.94941999999999
 50
327.448121
 51
347.5514439999998
  0
ARC
  5
13F
  8
DETAIL
  6
CONTINUOUS
 62
     5
 10
81.51730199999989
 20
-52.47231899999996
 30
0.0
 40
7.995505
 50
232.4999129999999
 51
327.2308109999998
  0
ARC
  5
140
  8
DETAIL
  6
CONTINUOUS
 62
     5
 10
14.45766
 20
35.65890699999999
 30
0.0
 40
2.998312999999999
 50
247.9301839999999
 51
315.0000190000002
  0
ARC
  5
141
  8
DETAIL
  6
CONTINUOUS
 62
     5
 10
-0.0000459999999975
 20
0.0000029999999922
 30
0.0
 40
85.951683
 50
42.10083899999999
 51
137.899115
  0
ARC
  5
142
  8
DETAIL
  6
CONTINUOUS
 62
     5
 10
20.11307999999988
 20
95.34688599999998
 30
0.0
 40
7.495782000000001
 50
78.08818700000006
 51
258.0882599999998
  0
ARC
  5
143
  8
DETAIL
  6
CONTINUOUS
 62
     5
 10
14.45766
 20
35.65890699999999
 30
0.0
 40
4.997187999999999
 50
247.9301299999997
 51
315.0000189999999
  0
ARC
  5
144
  8
DETAIL
  6
CONTINUOUS
 62
     5
 10
0.0
 20
0.0
 30
0.0
 40
72.45926999999999
 50
57.83957200000001
 51
90.0
  0
ARC
  5
145
  8
DETAIL
  6
CONTINUOUS
 62
     5
 10
0.0
 20
0.0
 30
0.0
 40
70.460379
 50
57.83951700000001
 51
90.0
  0
ARC
  5
146
  8
DETAIL
  6
CONTINUOUS
 62
     5
 10
-20.11321699999999
 20
95.34688599999998
 30
0.0
 40
7.495782000000001
 50
281.911741
 51
101.9118150000001
  0
ARC
  5
147
  8
DETAIL
  6
CONTINUOUS
 62
     5
 10
-0.0000459999999975
 20
0.0000029999999922
 30
0.0
 40
104.9409899999999
 50
101.911777
 51
123.0883139999999
  0
ARC
  5
148
  8
DETAIL
  6
CONTINUOUS
 62
     5
 10
-0.0000459999999975
 20
0.0000029999999922
 30
0.0
 40
89.94941999999999
 50
101.911777
 51
123.0883139999999
  0
LINE
  5
149
  8
DETAIL
  6
CONTINUOUS
 62
     5
 10
-33.538826
 20
16.57774499999999
 30
0.0
 11
-54.990673
 21
38.02963699999997
 31
0.0
  0
LINE
  5
14A
  8
DETAIL
  6
CONTINUOUS
 62
     5
 10
-53.57724200000001
 20
39.44306499999998
 30
0.0
 11
-32.12542700000012
 21
17.99120499999997
 31
0.0
  0
ARC
  5
14B
  8
DETAIL
  6
CONTINUOUS
 62
     5
 10
-69.3348670000001
 20
62.650687
 30
0.0
 40
7.495782000000001
 50
232.4999669999999
 51
317.899079
  0
ARC
  5
14C
  8
DETAIL
  6
CONTINUOUS
 62
     5
 10
-84.27162800000002
 20
53.73132499999996
 30
0.0
 40
9.994378999999999
 50
327.4785009999998
 51
34.15928899999999
  0
ARC
  5
14D
  8
DETAIL
  6
CONTINUOUS
 62
     5
 10
0.0
 20
0.0
 30
0.0
 40
89.94941999999999
 50
147.478537
 51
167.551917
  0
ARC
  5
14E
  8
DETAIL
  6
CONTINUOUS
 62
     5
 10
-81.51739399999997
 20
52.47235899999998
 30
0.0
 40
7.995505
 50
52.49993100000002
 51
147.230847
  0
LINE
  5
14F
  8
DETAIL
  6
CONTINUOUS
 62
     5
 10
-76.65004699999997
 20
58.815566
 30
0.0
 11
-73.89797900000002
 21
56.703831
 31
0.0
  0
ARC
  5
150
  8
DETAIL
  6
CONTINUOUS
 62
     5
 10
-57.1107540000001
 20
35.90948400000001
 30
0.0
 40
2.998314
 50
45.00000099999994
 51
147.8397720000001
  0
ARC
  5
151
  8
DETAIL
  6
CONTINUOUS
 62
     5
 10
-57.1107540000001
 20
35.90948400000001
 30
0.0
 40
4.997190999999999
 50
45.00000099999993
 51
147.8396089999999
  0
ARC
  5
152
  8
DETAIL
  6
CONTINUOUS
 62
     5
 10
-53.19838800000011
 20
81.64255600000003
 30
0.0
 40
7.495782000000001
 50
123.0883689999999
 51
217.499943
  0
ARC
  5
153
  8
DETAIL
  6
CONTINUOUS
 62
     5
 10
-53.19834200000011
 20
81.64255600000003
 30
0.0
 40
7.495782000000001
 50
217.499943
 51
303.088224
  0
LINE
  5
154
  8
DETAIL
  6
CONTINUOUS
 62
     5
 10
-91.89114999999998
 20
12.09769099999999
 30
0.0
 11
-96.85898800000001
 21
12.75169699999997
 31
0.0
  0
ARC
  5
155
  8
DETAIL
  6
CONTINUOUS
 62
     5
 10
-97.58273100000002
 20
21.59525200000001
 30
0.0
 40
9.994378999999999
 50
292.292864
 51
347.521172
  0
ARC
  5
156
  8
DETAIL
  6
CONTINUOUS
 62
     5
 10
0.0
 20
0.0
 30
0.0
 40
70.460379
 50
90.0
 51
122.160501
  0
ARC
  5
157
  8
DETAIL
  6
CONTINUOUS
 62
     5
 10
0.0
 20
0.0
 30
0.0
 40
72.45926999999999
 50
90.0
 51
122.1604469999999
  0
LINE
  5
158
  8
DETAIL
  6
CONTINUOUS
 62
     5
 10
-38.02963
 20
54.99064499999999
 30
0.0
 11
-16.5777820000001
 21
33.53875299999999
 31
0.0
  0
LINE
  5
159
  8
DETAIL
  6
CONTINUOUS
 62
     5
 10
-39.44304500000001
 20
53.57716700000003
 30
0.0
 11
-17.99121700000001
 21
32.125384
 31
0.0
  0
ARC
  5
15A
  8
DETAIL
  6
CONTINUOUS
 62
     5
 10
-35.90949499999999
 20
57.11078800000001
 30
0.0
 40
2.998314
 50
122.1602279999999
 51
225.000037
  0
ARC
  5
15B
  8
DETAIL
  6
CONTINUOUS
 62
     5
 10
-35.90949499999999
 20
57.11078800000001
 30
0.0
 40
4.997190999999999
 50
122.160338
 51
225.000037
  0
ARC
  5
15C
  8
DETAIL
  6
CONTINUOUS
 62
     5
 10
0.0
 20
0.0
 30
0.0
 40
35.480037
 50
90.0
 51
112.069853
  0
ARC
  5
15D
  8
DETAIL
  6
CONTINUOUS
 62
     5
 10
0.0
 20
0.0
 30
0.0
 40
33.48114499999999
 50
90.0
 51
112.069799
  0
ARC
  5
15E
  8
DETAIL
  6
CONTINUOUS
 62
     5
 10
-14.45766000000012
 20
35.65890699999999
 30
0.0
 40
4.997187999999999
 50
224.9999819999998
 51
292.069872
  0
ARC
  5
15F
  8
DETAIL
  6
CONTINUOUS
 62
     5
 10
-14.45766000000012
 20
35.65890699999999
 30
0.0
 40
2.998312999999999
 50
224.9999819999997
 51
292.0698169999998
  0
CIRCLE
  5
160
  8
DETAIL
  6
CONTINUOUS
 62
     5
 10
-22.96805700000002
 20
22.96804600000002
 30
0.0
 40
4.997190999999999
  0
ARC
  5
161
  8
DETAIL
  6
CONTINUOUS
 62
     5
 10
0.0
 20
0.0
 30
0.0
 40
33.48114499999999
 50
67.93021999999996
 51
90.0
  0
ARC
  5
162
  8
DETAIL
  6
CONTINUOUS
 62
     5
 10
0.0
 20
0.0
 30
0.0
 40
35.480037
 50
67.93016500000002
 51
90.0
  0
ARC
  5
163
  8
DETAIL
  6
CONTINUOUS
 62
     5
 10
-35.658919
 20
14.457646
 30
0.0
 40
4.997187999999999
 50
337.9302749999998
 51
44.99989199999994
  0
ARC
  5
164
  8
DETAIL
  6
CONTINUOUS
 62
     5
 10
-35.658919
 20
14.45763099999999
 30
0.0
 40
2.998312999999999
 50
337.9302210000001
 51
45.00000100000008
  0
ARC
  5
165
  8
DETAIL
  6
CONTINUOUS
 62
     5
 10
-0.0000459999999975
 20
0.0000029999999922
 30
0.0
 40
104.9409899999999
 50
56.91168699999999
 51
78.088241
  0
ARC
  5
166
  8
DETAIL
  6
CONTINUOUS
 62
     5
 10
69.33473000000001
 20
62.650687
 30
0.0
 40
7.495782000000001
 50
222.100868
 51
307.5000339999999
  0
ARC
  5
167
  8
DETAIL
  6
CONTINUOUS
 62
     5
 10
35.90949499999991
 20
57.11078800000001
 30
0.0
 40
4.997190999999999
 50
314.9999639999999
 51
57.83966399999994
  0
LINE
  5
168
  8
DETAIL
  6
CONTINUOUS
 62
     5
 10
33.53878699999999
 20
16.57773300000001
 30
0.0
 11
54.9906179999999
 21
38.02964199999997
 31
0.0
  0
LINE
  5
169
  8
DETAIL
  6
CONTINUOUS
 62
     5
 10
53.57720699999999
 20
39.44303300000001
 30
0.0
 11
32.12535999999989
 21
17.99114099999996
 31
0.0
  0
ARC
  5
16A
  8
DETAIL
  6
CONTINUOUS
 62
     5
 10
-0.0000459999999975
 20
0.0000029999999922
 30
0.0
 40
89.94941999999999
 50
56.91168699999999
 51
78.088241
  0
ARC
  5
16B
  8
DETAIL
  6
CONTINUOUS
 62
     5
 10
35.90949499999991
 20
57.11078800000001
 30
0.0
 40
2.998314
 50
314.9999640000001
 51
57.83977299999979
  0
CIRCLE
  5
16C
  8
DETAIL
  6
CONTINUOUS
 62
     5
 10
22.9680109999999
 20
22.96804600000002
 30
0.0
 40
4.997190999999999
  0
LINE
  5
16D
  8
DETAIL
  6
CONTINUOUS
 62
     5
 10
39.44300399999989
 20
53.57712300000002
 30
0.0
 11
17.99119999999999
 21
32.12531899999998
 31
0.0
  0
ARC
  5
16E
  8
DETAIL
  6
CONTINUOUS
 62
     5
 10
57.1107539999999
 20
35.90948400000001
 30
0.0
 40
4.997190999999999
 50
32.16039300000007
 51
135.0000000000001
  0
ARC
  5
16F
  8
DETAIL
  6
CONTINUOUS
 62
     5
 10
57.1107539999999
 20
35.90948400000001
 30
0.0
 40
2.998314
 50
32.16022899999992
 51
135.0000000000001
  0
ARC
  5
170
  8
DETAIL
  6
CONTINUOUS
 62
     5
 10
53.19825
 20
81.64255600000003
 30
0.0
 40
7.495782000000001
 50
236.9117779999998
 51
322.5000039999998
  0
ARC
  5
171
  8
DETAIL
  6
CONTINUOUS
 62
     5
 10
53.19825
 20
81.64255600000003
 30
0.0
 40
7.495782000000001
 50
322.5000039999998
 51
56.91157799999996
  0
LINE
  5
172
  8
DETAIL
  6
CONTINUOUS
 62
     5
 10
38.02959499999989
 20
54.990613
 30
0.0
 11
16.5777799999999
 21
33.53875299999999
 31
0.0
  0
ARC
  5
173
  8
DETAIL
  6
CONTINUOUS
 62
     5
 10
35.65891899999988
 20
14.457646
 30
0.0
 40
4.997187999999999
 50
135.000055
 51
202.069671
  0
ARC
  5
174
  8
DETAIL
  6
CONTINUOUS
 62
     5
 10
35.65891899999988
 20
14.45763099999999
 30
0.0
 40
2.998312999999999
 50
134.9999460000002
 51
202.0697259999998
  0
ARC
  5
175
  8
DETAIL
  6
CONTINUOUS
 62
     5
 10
-0.0000459999999975
 20
0.0000029999999922
 30
0.0
 40
104.9409899999999
 50
11.59184199999996
 51
32.76911700000001
  0
ARC
  5
176
  8
DETAIL
  6
CONTINUOUS
 62
     5
 10
84.27158199999991
 20
53.73132499999996
 30
0.0
 40
9.994378999999999
 50
145.840658
 51
212.521445
  0
LINE
  5
177
  8
DETAIL
  6
CONTINUOUS
 62
     5
 10
76.649937
 20
58.815597
 30
0.0
 11
73.89785199999989
 21
56.70388399999998
 31
0.0
  0
ARC
  5
178
  8
DETAIL
  6
CONTINUOUS
 62
     5
 10
0.0
 20
0.0
 30
0.0
 40
89.94941999999999
 50
12.44808500000001
 51
32.521464
  0
ARC
  5
179
  8
DETAIL
  6
CONTINUOUS
 62
     5
 10
81.51730199999989
 20
52.47235899999998
 30
0.0
 40
7.995505
 50
32.76914700000005
 51
127.50007
  0
LINE
  5
17A
  8
DETAIL
  6
CONTINUOUS
 62
     5
 10
91.89148699999998
 20
12.09054500000001
 30
0.0
 11
96.86031700000001
 21
12.74473
 31
0.0
  0
ARC
  5
17B
  8
DETAIL
  6
CONTINUOUS
 62
     5
 10
97.58268599999991
 20
21.59525200000001
 30
0.0
 40
9.994378999999999
 50
192.4785009999999
 51
247.7896459999999
  0
ARC
  5
17C
  8
DETAIL
  6
CONTINUOUS
 62
     5
 10
95.94719199999992
 20
19.68095299999998
 30
0.0
 40
6.996064999999999
 50
277.5002040000001
 51
11.59163300000002
  0
LINE
  5
17D
  8
DETAIL
  6
CONTINUOUS
 62
     5
 10
107.4595029999999
 20
113.73936
 30
0.0
 11
252.5676429999999
 21
248.967998
 31
0.0
  0
LINE
  5
17E
  8
DETAIL
  6
CONTINUOUS
 62
     5
 10
103.86
 20
117.338932
 30
0.0
 11
248.968058
 21
252.5675379999999
 31
0.0
  0
LINE
  5
17F
  8
DETAIL
  6
CONTINUOUS
 62
     5
 10
233.375521
 20
260.320327
 30
0.0
 11
226.1711689999999
 21
264.473424
 31
0.0
  0
LINE
  5
180
  8
DETAIL
  6
CONTINUOUS
 62
     5
 10
226.1711689999999
 20
247.8610299999999
 30
0.0
 11
233.375521
 21
252.014127
 31
0.0
  0
LINE
  5
181
  8
DETAIL
  6
CONTINUOUS
 62
     5
 10
230.9703959999999
 20
270.565384
 30
0.0
 11
270.5652779999999
 21
230.970422
 31
0.0
  0
ARC
  5
182
  8
DETAIL
  6
CONTINUOUS
 62
     5
 10
-182.224346
 20
-39947.83
 30
0.0
 40
40233.6
 50
89.39491899999997
 51
89.51712599999999
  0
ARC
  5
183
  8
DETAIL
  6
CONTINUOUS
 62
     5
 10
-39947.83
 20
-182.233645
 30
0.0
 40
40233.6
 50
0.4828739999996682
 51
0.6050809999997143
  0
LINE
  5
184
  8
DETAIL
  6
CONTINUOUS
 62
     5
 10
284.770172
 20
123.100144
 30
0.0
 11
285.0325259999999
 21
111.892163
 31
0.0
  0
ARC
  5
185
  8
DETAIL
  6
CONTINUOUS
 62
     5
 10
276.198252
 20
156.7207019999999
 30
0.0
 40
8.144824
 50
299.9996490000001
 51
0.8424450000002964
  0
ARC
  5
186
  8
DETAIL
  6
CONTINUOUS
 62
     5
 10
276.625801
 20
123.014178
 30
0.0
 40
8.144824
 50
0.6047540000001134
 51
59.99958799999999
  0
ARC
  5
187
  8
DETAIL
  6
CONTINUOUS
 62
     5
 10
279.800439
 20
139.990701
 30
0.0
 40
8.144824
 50
119.9996299999998
 51
239.9999890000001
  0
LINE
  5
188
  8
DETAIL
  6
CONTINUOUS
 62
     5
 10
275.728065
 20
147.044376
 30
0.0
 11
280.270631
 21
149.667011
 31
0.0
  0
LINE
  5
189
  8
DETAIL
  6
CONTINUOUS
 62
     5
 10
275.72806
 20
132.937132
 30
0.0
 11
280.6981359999999
 21
130.067585
 31
0.0
  0
ARC
  5
18A
  8
DETAIL
  6
CONTINUOUS
 62
     5
 10
266.008916
 20
242.327119
 30
0.0
 40
17.52155499999999
 50
1.061774999999964
 51
75.44543100000008
  0
LINE
  5
18B
  8
DETAIL
  6
CONTINUOUS
 62
     5
 10
256.167185
 20
206.973376
 30
0.0
 11
270.5652959999999
 21
221.371518
 31
0.0
  0
LINE
  5
18C
  8
DETAIL
  6
CONTINUOUS
 62
     5
 10
256.1671889999999
 20
206.973428
 30
0.0
 11
232.693561
 21
230.447018
 31
0.0
  0
LINE
  5
18D
  8
DETAIL
  6
CONTINUOUS
 62
     5
 10
248.962922
 20
222.017902
 30
0.0
 11
256.167273
 21
217.8648049999999
 31
0.0
  0
LINE
  5
18E
  8
DETAIL
  6
CONTINUOUS
 62
     5
 10
248.962922
 20
230.324098
 30
0.0
 11
248.962922
 21
222.0179049999999
 31
0.0
  0
LINE
  5
18F
  8
DETAIL
  6
CONTINUOUS
 62
     5
 10
256.167273
 20
234.477199
 30
0.0
 11
248.962922
 21
230.324102
 31
0.0
  0
LINE
  5
190
  8
DETAIL
  6
CONTINUOUS
 62
     5
 10
270.56529
 20
230.970314
 30
0.0
 11
270.56529
 21
221.371534
 31
0.0
  0
LINE
  5
191
  8
DETAIL
  6
CONTINUOUS
 62
     5
 10
263.371629
 20
222.0179049999999
 30
0.0
 11
263.371629
 21
230.324098
 31
0.0
  0
LINE
  5
192
  8
DETAIL
  6
CONTINUOUS
 62
     5
 10
263.371629
 20
230.324102
 30
0.0
 11
256.1672779999999
 21
234.477199
 31
0.0
  0
LINE
  5
193
  8
DETAIL
  6
CONTINUOUS
 62
     5
 10
256.1672779999999
 20
217.8648049999999
 30
0.0
 11
263.371629
 21
222.017902
 31
0.0
  0
LINE
  5
194
  8
DETAIL
  6
CONTINUOUS
 62
     5
 10
233.3755200000001
 20
252.0141299999999
 30
0.0
 11
233.3755200000001
 21
260.3203229999999
 31
0.0
  0
ARC
  5
195
  8
DETAIL
  6
CONTINUOUS
 62
     5
 10
278.243893
 20
278.2280979999999
 30
0.0
 40
20.496956
 50
202.42795
 51
247.536511
  0
ARC
  5
196
  8
DETAIL
  6
CONTINUOUS
 62
     5
 10
242.3378039999999
 20
266.005857
 30
0.0
 40
17.52155499999999
 50
14.55123500000001
 51
88.94275899999994
  0
LINE
  5
197
  8
DETAIL
  6
CONTINUOUS
 62
     5
 10
123.109443
 20
284.7671389999999
 30
0.0
 11
111.901462
 21
285.029493
 31
0.0
  0
LINE
  5
198
  8
DETAIL
  6
CONTINUOUS
 62
     5
 10
206.973455
 20
256.167022
 30
0.0
 11
229.093934
 21
234.0465119999999
 31
0.0
  0
LINE
  5
199
  8
DETAIL
  6
CONTINUOUS
 62
     5
 10
230.9704009999999
 20
270.565241
 30
0.0
 11
221.371661
 21
270.565241
 31
0.0
  0
LINE
  5
19A
  8
DETAIL
  6
CONTINUOUS
 62
     5
 10
206.973442
 20
256.167114
 30
0.0
 11
221.3716739999999
 21
270.5653
 31
0.0
  0
LINE
  5
19B
  8
DETAIL
  6
CONTINUOUS
 62
     5
 10
218.966813
 20
252.014127
 30
0.0
 11
226.1711639999999
 21
247.8610299999999
 31
0.0
  0
LINE
  5
19C
  8
DETAIL
  6
CONTINUOUS
 62
     5
 10
218.966814
 20
260.3203229999999
 30
0.0
 11
218.966814
 21
252.0141299999999
 31
0.0
  0
LINE
  5
19D
  8
DETAIL
  6
CONTINUOUS
 62
     5
 10
226.1711639999999
 20
264.473424
 30
0.0
 11
218.966813
 21
260.320327
 31
0.0
  0
ARC
  5
19E
  8
DETAIL
  6
CONTINUOUS
 62
     5
 10
123.0234769999999
 20
276.6227679999999
 30
0.0
 40
8.144824
 50
30.000412
 51
89.39524599999996
  0
LINE
  5
19F
  8
DETAIL
  6
CONTINUOUS
 62
     5
 10
132.946431
 20
275.7250269999999
 30
0.0
 11
130.076884
 21
280.6951029999999
 31
0.0
  0
ARC
  5
1A0
  8
DETAIL
  6
CONTINUOUS
 62
     5
 10
139.9999999999999
 20
279.797406
 30
0.0
 40
8.144824
 50
210.0000109999999
 51
330.0003700000003
  0
LINE
  5
1A1
  8
DETAIL
  6
CONTINUOUS
 62
     5
 10
147.0536749999999
 20
275.7250319999999
 30
0.0
 11
149.6763099999999
 21
280.267598
 31
0.0
  0
ARC
  5
1A2
  8
DETAIL
  6
CONTINUOUS
 62
     5
 10
156.730001
 20
276.1952189999999
 30
0.0
 40
8.144824
 50
89.1575550000001
 51
150.0003509999999
  0
ARC
  5
1A3
  8
DETAIL
  6
CONTINUOUS
 62
     5
 10
-27.328754
 20
-12837.87
 30
0.0
 40
13123.64
 50
89.392131
 51
89.439726
  0
ARC
  5
1A4
  8
DETAIL
  6
CONTINUOUS
 62
     5
 10
-12837.86999999999
 20
-27.338053
 30
0.0
 40
13123.64
 50
0.5602769999995135
 51
0.607869000000428
  0
LINE
  5
1A5
  8
DETAIL
  6
CONTINUOUS
 62
     5
 10
-107.459503
 20
-113.73936
 30
0.0
 11
-252.567643
 21
-248.9679979999999
 31
0.0
  0
LINE
  5
1A6
  8
DETAIL
  6
CONTINUOUS
 62
     5
 10
-103.86
 20
-117.338932
 30
0.0
 11
-248.968058
 21
-252.567538
 31
0.0
  0
LINE
  5
1A7
  8
DETAIL
  6
CONTINUOUS
 62
     5
 10
-233.3755209999999
 20
-260.320327
 30
0.0
 11
-226.171169
 21
-264.4734239999999
 31
0.0
  0
LINE
  5
1A8
  8
DETAIL
  6
CONTINUOUS
 62
     5
 10
-226.171169
 20
-247.86103
 30
0.0
 11
-233.3755209999999
 21
-252.014127
 31
0.0
  0
LINE
  5
1A9
  8
DETAIL
  6
CONTINUOUS
 62
     5
 10
-230.9703959999999
 20
-270.5653839999999
 30
0.0
 11
-270.565278
 21
-230.9704219999999
 31
0.0
  0
ARC
  5
1AA
  8
DETAIL
  6
CONTINUOUS
 62
     5
 10
182.2243459999999
 20
39947.83
 30
0.0
 40
40233.6
 50
269.394919
 51
269.5171259999999
  0
ARC
  5
1AB
  8
DETAIL
  6
CONTINUOUS
 62
     5
 10
39947.83
 20
182.233645
 30
0.0
 40
40233.6
 50
180.4828739999996
 51
180.6050809999997
  0
ARC
  5
1AC
  8
DETAIL
  6
CONTINUOUS
 62
     5
 10
12837.87
 20
27.338053
 30
0.0
 40
13123.64
 50
180.5602769999995
 51
180.6078690000004
  0
LINE
  5
1AD
  8
DETAIL
  6
CONTINUOUS
 62
     5
 10
-284.770172
 20
-123.1001439999999
 30
0.0
 11
-285.0325259999999
 21
-111.8921629999999
 31
0.0
  0
ARC
  5
1AE
  8
DETAIL
  6
CONTINUOUS
 62
     5
 10
-276.198252
 20
-156.7207019999999
 30
0.0
 40
8.144824
 50
119.9996489999997
 51
180.8424450000003
  0
ARC
  5
1AF
  8
DETAIL
  6
CONTINUOUS
 62
     5
 10
-276.6258009999999
 20
-123.014178
 30
0.0
 40
8.144824
 50
180.6047540000001
 51
239.999588
  0
ARC
  5
1B0
  8
DETAIL
  6
CONTINUOUS
 62
     5
 10
-279.800439
 20
-139.9907009999999
 30
0.0
 40
8.144824
 50
299.9996299999998
 51
59.99998900000006
  0
LINE
  5
1B1
  8
DETAIL
  6
CONTINUOUS
 62
     5
 10
-275.728065
 20
-147.0443759999999
 30
0.0
 11
-280.2706309999999
 21
-149.6670109999999
 31
0.0
  0
LINE
  5
1B2
  8
DETAIL
  6
CONTINUOUS
 62
     5
 10
-275.72806
 20
-132.937132
 30
0.0
 11
-280.6981359999999
 21
-130.0675849999999
 31
0.0
  0
ARC
  5
1B3
  8
DETAIL
  6
CONTINUOUS
 62
     5
 10
-266.008916
 20
-242.327119
 30
0.0
 40
17.52155499999999
 50
181.061775
 51
255.4454310000001
  0
LINE
  5
1B4
  8
DETAIL
  6
CONTINUOUS
 62
     5
 10
-256.167185
 20
-206.973376
 30
0.0
 11
-270.565296
 21
-221.371518
 31
0.0
  0
LINE
  5
1B5
  8
DETAIL
  6
CONTINUOUS
 62
     5
 10
-256.167189
 20
-206.973428
 30
0.0
 11
-232.693561
 21
-230.447018
 31
0.0
  0
LINE
  5
1B6
  8
DETAIL
  6
CONTINUOUS
 62
     5
 10
-248.962922
 20
-222.017902
 30
0.0
 11
-256.167273
 21
-217.8648049999999
 31
0.0
  0
LINE
  5
1B7
  8
DETAIL
  6
CONTINUOUS
 62
     5
 10
-248.962922
 20
-230.324098
 30
0.0
 11
-248.962922
 21
-222.0179049999999
 31
0.0
  0
LINE
  5
1B8
  8
DETAIL
  6
CONTINUOUS
 62
     5
 10
-256.167273
 20
-234.477199
 30
0.0
 11
-248.962922
 21
-230.324102
 31
0.0
  0
LINE
  5
1B9
  8
DETAIL
  6
CONTINUOUS
 62
     5
 10
-270.56529
 20
-230.970314
 30
0.0
 11
-270.56529
 21
-221.371534
 31
0.0
  0
LINE
  5
1BA
  8
DETAIL
  6
CONTINUOUS
 62
     5
 10
-263.371629
 20
-222.0179049999999
 30
0.0
 11
-263.371629
 21
-230.324098
 31
0.0
  0
LINE
  5
1BB
  8
DETAIL
  6
CONTINUOUS
 62
     5
 10
-263.371629
 20
-230.324102
 30
0.0
 11
-256.1672779999999
 21
-234.477199
 31
0.0
  0
LINE
  5
1BC
  8
DETAIL
  6
CONTINUOUS
 62
     5
 10
-256.1672779999999
 20
-217.8648049999999
 30
0.0
 11
-263.371629
 21
-222.017902
 31
0.0
  0
LINE
  5
1BD
  8
DETAIL
  6
CONTINUOUS
 62
     5
 10
-233.3755200000001
 20
-252.01413
 30
0.0
 11
-233.3755200000001
 21
-260.3203229999998
 31
0.0
  0
ARC
  5
1BE
  8
DETAIL
  6
CONTINUOUS
 62
     5
 10
-278.243893
 20
-278.228098
 30
0.0
 40
20.496956
 50
22.42794999999997
 51
67.53651099999998
  0
ARC
  5
1BF
  8
DETAIL
  6
CONTINUOUS
 62
     5
 10
-242.337804
 20
-266.0058569999999
 30
0.0
 40
17.52155499999999
 50
194.551235
 51
268.942759
  0
LINE
  5
1C0
  8
DETAIL
  6
CONTINUOUS
 62
     5
 10
-123.109443
 20
-284.767139
 30
0.0
 11
-111.901462
 21
-285.0294929999999
 31
0.0
  0
LINE
  5
1C1
  8
DETAIL
  6
CONTINUOUS
 62
     5
 10
-206.9734550000001
 20
-256.167022
 30
0.0
 11
-229.093934
 21
-234.0465119999999
 31
0.0
  0
LINE
  5
1C2
  8
DETAIL
  6
CONTINUOUS
 62
     5
 10
-230.970401
 20
-270.5652409999999
 30
0.0
 11
-221.371661
 21
-270.5652409999999
 31
0.0
  0
LINE
  5
1C3
  8
DETAIL
  6
CONTINUOUS
 62
     5
 10
-206.973442
 20
-256.167114
 30
0.0
 11
-221.371674
 21
-270.5652999999999
 31
0.0
  0
LINE
  5
1C4
  8
DETAIL
  6
CONTINUOUS
 62
     5
 10
-218.966813
 20
-252.014127
 30
0.0
 11
-226.171164
 21
-247.86103
 31
0.0
  0
LINE
  5
1C5
  8
DETAIL
  6
CONTINUOUS
 62
     5
 10
-218.966814
 20
-260.3203229999998
 30
0.0
 11
-218.966814
 21
-252.01413
 31
0.0
  0
LINE
  5
1C6
  8
DETAIL
  6
CONTINUOUS
 62
     5
 10
-226.171164
 20
-264.4734239999999
 30
0.0
 11
-218.966813
 21
-260.320327
 31
0.0
  0
ARC
  5
1C7
  8
DETAIL
  6
CONTINUOUS
 62
     5
 10
-123.023477
 20
-276.6227679999999
 30
0.0
 40
8.144824
 50
210.000412
 51
269.3952459999999
  0
LINE
  5
1C8
  8
DETAIL
  6
CONTINUOUS
 62
     5
 10
-132.946431
 20
-275.7250269999999
 30
0.0
 11
-130.076884
 21
-280.6951029999999
 31
0.0
  0
ARC
  5
1C9
  8
DETAIL
  6
CONTINUOUS
 62
     5
 10
-140.0
 20
-279.7974059999999
 30
0.0
 40
8.144824
 50
30.00001099999995
 51
150.0003699999998
  0
LINE
  5
1CA
  8
DETAIL
  6
CONTINUOUS
 62
     5
 10
-147.053675
 20
-275.725032
 30
0.0
 11
-149.67631
 21
-280.2675979999999
 31
0.0
  0
ARC
  5
1CB
  8
DETAIL
  6
CONTINUOUS
 62
     5
 10
-156.730001
 20
-276.1952189999999
 30
0.0
 40
8.144824
 50
269.1575550000001
 51
330.0003509999998
  0
ARC
  5
1CC
  8
DETAIL
  6
CONTINUOUS
 62
     5
 10
27.328754
 20
12837.87
 30
0.0
 40
13123.64
 50
269.3921309999999
 51
269.4397259999999
  0
ARC
  5
1CD
  8
DETAIL
  6
CONTINUOUS
 62
     5
 10
-182.224346
 20
39947.83
 30
0.0
 40
40233.6
 50
270.482874
 51
270.6050809999999
  0
LINE
  5
1CE
  8
DETAIL
  6
CONTINUOUS
 62
     5
 10
230.9703959999999
 20
-270.5653839999999
 30
0.0
 11
270.5652779999999
 21
-230.9704219999999
 31
0.0
  0
LINE
  5
1CF
  8
DETAIL
  6
CONTINUOUS
 62
     5
 10
226.1711689999999
 20
-247.86103
 30
0.0
 11
233.375521
 21
-252.014127
 31
0.0
  0
LINE
  5
1D0
  8
DETAIL
  6
CONTINUOUS
 62
     5
 10
233.375521
 20
-260.320327
 30
0.0
 11
226.1711689999999
 21
-264.4734239999999
 31
0.0
  0
LINE
  5
1D1
  8
DETAIL
  6
CONTINUOUS
 62
     5
 10
123.109443
 20
-284.767139
 30
0.0
 11
111.901462
 21
-285.0294929999999
 31
0.0
  0
ARC
  5
1D2
  8
DETAIL
  6
CONTINUOUS
 62
     5
 10
-27.328754
 20
12837.87
 30
0.0
 40
13123.64
 50
270.5602739999999
 51
270.607869
  0
LINE
  5
1D3
  8
DETAIL
  6
CONTINUOUS
 62
     5
 10
206.973455
 20
-256.167022
 30
0.0
 11
223.171985
 21
-239.96847
 31
0.0
  0
ARC
  5
1D4
  8
DETAIL
  6
CONTINUOUS
 62
     5
 10
156.730001
 20
-276.1952189999999
 30
0.0
 40
8.144824
 50
209.9996490000001
 51
270.8424449999999
  0
LINE
  5
1D5
  8
DETAIL
  6
CONTINUOUS
 62
     5
 10
147.0536749999999
 20
-275.725032
 30
0.0
 11
149.6763099999999
 21
-280.2675979999999
 31
0.0
  0
ARC
  5
1D6
  8
DETAIL
  6
CONTINUOUS
 62
     5
 10
139.9999999999999
 20
-279.7974059999999
 30
0.0
 40
8.144824
 50
29.99962999999973
 51
149.9999890000001
  0
LINE
  5
1D7
  8
DETAIL
  6
CONTINUOUS
 62
     5
 10
132.946431
 20
-275.7250269999999
 30
0.0
 11
130.076884
 21
-280.6951029999999
 31
0.0
  0
ARC
  5
1D8
  8
DETAIL
  6
CONTINUOUS
 62
     5
 10
123.0234769999999
 20
-276.6227679999999
 30
0.0
 40
8.144824
 50
270.604754
 51
329.999588
  0
LINE
  5
1D9
  8
DETAIL
  6
CONTINUOUS
 62
     5
 10
226.1711639999999
 20
-264.4734239999999
 30
0.0
 11
218.966813
 21
-260.320327
 31
0.0
  0
LINE
  5
1DA
  8
DETAIL
  6
CONTINUOUS
 62
     5
 10
218.966814
 20
-260.3203229999998
 30
0.0
 11
218.966814
 21
-252.01413
 31
0.0
  0
LINE
  5
1DB
  8
DETAIL
  6
CONTINUOUS
 62
     5
 10
218.966813
 20
-252.014127
 30
0.0
 11
226.1711639999999
 21
-247.86103
 31
0.0
  0
LINE
  5
1DC
  8
DETAIL
  6
CONTINUOUS
 62
     5
 10
206.973442
 20
-256.167114
 30
0.0
 11
221.3716739999999
 21
-270.5652999999999
 31
0.0
  0
LINE
  5
1DD
  8
DETAIL
  6
CONTINUOUS
 62
     5
 10
230.9704009999999
 20
-270.5652409999999
 30
0.0
 11
221.371661
 21
-270.5652409999999
 31
0.0
  0
ARC
  5
1DE
  8
DETAIL
  6
CONTINUOUS
 62
     5
 10
-39947.83
 20
182.233645
 30
0.0
 40
40233.6
 50
359.3949190000003
 51
359.5171260000003
  0
LINE
  5
1DF
  8
DETAIL
  6
CONTINUOUS
 62
     5
 10
275.72806
 20
-132.937132
 30
0.0
 11
280.6981359999999
 21
-130.0675849999999
 31
0.0
  0
LINE
  5
1E0
  8
DETAIL
  6
CONTINUOUS
 62
     5
 10
275.728065
 20
-147.0443759999999
 30
0.0
 11
280.270631
 21
-149.6670109999999
 31
0.0
  0
ARC
  5
1E1
  8
DETAIL
  6
CONTINUOUS
 62
     5
 10
279.800439
 20
-139.9907009999999
 30
0.0
 40
8.144824
 50
120.0000109999999
 51
240.0003700000002
  0
ARC
  5
1E2
  8
DETAIL
  6
CONTINUOUS
 62
     5
 10
276.625801
 20
-123.014178
 30
0.0
 40
8.144824
 50
300.000412
 51
359.3952459999999
  0
ARC
  5
1E3
  8
DETAIL
  6
CONTINUOUS
 62
     5
 10
276.198252
 20
-156.7207019999999
 30
0.0
 40
8.144824
 50
359.1575549999997
 51
60.00035099999993
  0
LINE
  5
1E4
  8
DETAIL
  6
CONTINUOUS
 62
     5
 10
284.770172
 20
-123.1001439999999
 30
0.0
 11
285.297898
 21
-100.555255
 31
0.0
  0
ARC
  5
1E5
  8
DETAIL
  6
CONTINUOUS
 62
     5
 10
266.008916
 20
-242.327119
 30
0.0
 40
17.52155499999999
 50
284.554569
 51
358.938225
  0
LINE
  5
1E6
  8
DETAIL
  6
CONTINUOUS
 62
     5
 10
256.1672779999999
 20
-217.8648049999999
 30
0.0
 11
263.371629
 21
-222.017902
 31
0.0
  0
LINE
  5
1E7
  8
DETAIL
  6
CONTINUOUS
 62
     5
 10
263.371629
 20
-230.324102
 30
0.0
 11
256.1672779999999
 21
-234.477199
 31
0.0
  0
LINE
  5
1E8
  8
DETAIL
  6
CONTINUOUS
 62
     5
 10
263.371629
 20
-222.0179049999999
 30
0.0
 11
263.371629
 21
-230.324098
 31
0.0
  0
LINE
  5
1E9
  8
DETAIL
  6
CONTINUOUS
 62
     5
 10
270.56529
 20
-230.970314
 30
0.0
 11
270.56529
 21
-221.371534
 31
0.0
  0
LINE
  5
1EA
  8
DETAIL
  6
CONTINUOUS
 62
     5
 10
256.167273
 20
-234.477199
 30
0.0
 11
248.962922
 21
-230.324102
 31
0.0
  0
LINE
  5
1EB
  8
DETAIL
  6
CONTINUOUS
 62
     5
 10
248.962922
 20
-230.324098
 30
0.0
 11
248.962922
 21
-222.0179049999999
 31
0.0
  0
LINE
  5
1EC
  8
DETAIL
  6
CONTINUOUS
 62
     5
 10
248.962922
 20
-222.017902
 30
0.0
 11
256.167273
 21
-217.8648049999999
 31
0.0
  0
LINE
  5
1ED
  8
DETAIL
  6
CONTINUOUS
 62
     5
 10
256.1671889999999
 20
-206.973428
 30
0.0
 11
233.370057
 21
-229.770522
 31
0.0
  0
LINE
  5
1EE
  8
DETAIL
  6
CONTINUOUS
 62
     5
 10
256.167185
 20
-206.973376
 30
0.0
 11
270.5652959999999
 21
-221.371518
 31
0.0
  0
ARC
  5
1EF
  8
DETAIL
  6
CONTINUOUS
 62
     5
 10
242.3378039999999
 20
-266.0058569999999
 30
0.0
 40
17.52155499999999
 50
271.057241
 51
345.448765
  0
ARC
  5
1F0
  8
DETAIL
  6
CONTINUOUS
 62
     5
 10
278.243893
 20
-278.228098
 30
0.0
 40
20.496956
 50
112.4634890000001
 51
157.5720499999998
  0
LINE
  5
1F1
  8
DETAIL
  6
CONTINUOUS
 62
     5
 10
233.3755200000001
 20
-252.01413
 30
0.0
 11
233.3755200000001
 21
-260.3203229999998
 31
0.0
  0
LINE
  5
1F2
  8
DETAIL
  6
CONTINUOUS
 62
     5
 10
36.83171899999999
 20
-72.70264399999996
 30
0.0
 11
69.74058299999999
 21
-129.7029049999999
 31
0.0
  0
LINE
  5
1F3
  8
DETAIL
  6
CONTINUOUS
 62
     5
 10
44.54664699999989
 20
-68.24841600000002
 30
0.0
 11
77.56740099999999
 21
-125.442032
 31
0.0
  0
LINE
  5
1F4
  8
DETAIL
  6
CONTINUOUS
 62
     5
 10
82.4665039999999
 20
-127.9345819999999
 30
0.0
 11
112.436309
 21
-123.067407
 31
0.0
  0
LINE
  5
1F5
  8
DETAIL
  6
CONTINUOUS
 62
     5
 10
112.189701
 20
-131.6185369999999
 30
0.0
 11
82.847373
 21
-136.42299
 31
0.0
  0
ARC
  5
1F6
  8
DETAIL
  6
CONTINUOUS
 62
     5
 10
81.95998099999989
 20
-122.869373
 30
0.0
 40
5.090513999999999
 50
210.000122
 51
275.7106400000001
  0
ARC
  5
1F7
  8
DETAIL
  6
CONTINUOUS
 62
     5
 10
81.4966489999999
 20
-122.91559
 30
0.0
 40
13.574709
 50
209.999811
 51
275.71064
  0
LINE
  5
1F8
  8
DETAIL
  6
CONTINUOUS
 62
     5
 10
128.7018739999999
 20
-132.2920159999999
 30
0.0
 11
120.902828
 21
-140.0910609999999
 31
0.0
  0
ARC
  5
1F9
  8
DETAIL
  6
CONTINUOUS
 62
     5
 10
112.696227
 20
-136.6837219999999
 30
0.0
 40
5.090513999999999
 50
45.00000099999979
 51
95.71067600000013
  0
ARC
  5
1FA
  8
DETAIL
  6
CONTINUOUS
 62
     5
 10
113.787057
 20
-136.5747049999999
 30
0.0
 40
13.574709
 50
45.00009000000009
 51
95.71067599999999
  0
LINE
  5
1FB
  8
DETAIL
  6
CONTINUOUS
 62
     5
 10
122.102731
 20
-138.8912
 30
0.0
 11
116.295725
 21
-133.084234
 31
0.0
  0
LINE
  5
1FC
  8
DETAIL
  6
CONTINUOUS
 62
     5
 10
120.902828
 20
-140.0910609999999
 30
0.0
 11
126.9020229999999
 21
-146.090255
 31
0.0
  0
LINE
  5
1FD
  8
DETAIL
  6
CONTINUOUS
 62
     5
 10
113.8910919999999
 20
-117.481235
 30
0.0
 11
250.167955
 21
-253.767507
 31
0.0
  0
LINE
  5
1FE
  8
DETAIL
  6
CONTINUOUS
 62
     5
 10
117.490635
 20
-113.881634
 30
0.0
 11
252.567603
 21
-248.9680479999999
 31
0.0
  0
ARC
  5
1FF
  8
DETAIL
  6
CONTINUOUS
 62
     5
 10
193.526752
 20
-37.21184499999998
 30
0.0
 40
107.980277
 50
217.621652
 51
225.237748
  0
ARC
  5
200
  8
DETAIL
  6
CONTINUOUS
 62
     5
 10
177.873005
 20
-52.83079199999997
 30
0.0
 40
90.957985
 50
219.8083799999999
 51
225.2977589999999
  0
LINE
  5
201
  8
DETAIL
  6
CONTINUOUS
 62
     5
 10
239.0772709999999
 20
-255.875099
 30
0.0
 11
128.1019149999999
 21
-144.890373
 31
0.0
  0
LINE
  5
202
  8
DETAIL
  6
CONTINUOUS
 62
     5
 10
237.8693739999999
 20
-257.0670909999999
 30
0.0
 11
221.971422
 21
-241.1691389999999
 31
0.0
  0
LINE
  5
203
  8
DETAIL
  6
CONTINUOUS
 62
     5
 10
253.767509
 20
-248.9680089999999
 30
0.0
 11
233.970055
 21
-229.1705939999999
 31
0.0
  0
ARC
  5
204
  8
DETAIL
  6
CONTINUOUS
 62
     5
 10
242.3688719999999
 20
-252.5676429999999
 30
0.0
 40
4.666305999999999
 50
315.0000189999998
 51
44.9998920000001
  0
ARC
  5
205
  8
DETAIL
  6
CONTINUOUS
 62
     5
 10
242.368949
 20
-252.5676429999999
 30
0.0
 40
4.666305999999999
 50
224.999982
 51
315.0000189999998
  0
ARC
  5
206
  8
DETAIL
  6
CONTINUOUS
 62
     5
 10
251.367766
 20
-250.1679089999999
 30
0.0
 40
1.696838999999999
 50
315.000019
 51
44.99989199999985
  0
ARC
  5
207
  8
DETAIL
  6
CONTINUOUS
 62
     5
 10
251.367766
 20
-251.3677569999999
 30
0.0
 40
3.393676999999999
 50
314.9995819999999
 51
44.99989199999959
  0
ARC
  5
208
  8
DETAIL
  6
CONTINUOUS
 62
     5
 10
242.3688719999999
 20
-252.5676429999999
 30
0.0
 40
5.514724
 50
315.000019
 51
12.79680699999979
  0
LINE
  5
209
  8
DETAIL
  6
CONTINUOUS
 62
     5
 10
246.8683149999999
 20
-257.0671689999999
 30
0.0
 11
252.567656
 21
-251.367789
 31
0.0
  0
LINE
  5
20A
  8
DETAIL
  6
CONTINUOUS
 62
     5
 10
250.46777
 20
-257.06712
 30
0.0
 11
253.7674669999999
 21
-253.767462
 31
0.0
  0
ARC
  5
20B
  8
DETAIL
  6
CONTINUOUS
 62
     5
 10
242.3688719999999
 20
-252.5676819999999
 30
0.0
 40
6.363142999999999
 50
224.999982
 51
315.0000190000001
  0
ARC
  5
20C
  8
DETAIL
  6
CONTINUOUS
 62
     5
 10
244.1685649999999
 20
-250.767911
 30
0.0
 40
8.908401
 50
224.9999819999996
 51
315.000019
  0
ARC
  5
20D
  8
DETAIL
  6
CONTINUOUS
 62
     5
 10
242.368949
 20
-252.5676429999999
 30
0.0
 40
5.514724
 50
192.79555
 51
315.000019
  0
LINE
  5
20E
  8
DETAIL
  6
CONTINUOUS
 62
     5
 10
247.035165
 20
-259.2024959999999
 30
0.0
 11
247.035165
 21
-352.8897879999999
 31
0.0
  0
LINE
  5
20F
  8
DETAIL
  6
CONTINUOUS
 62
     5
 10
237.702539
 20
-256.9002439999999
 30
0.0
 11
237.702539
 21
-352.8897879999999
 31
0.0
  0
LINE
  5
210
  8
DETAIL
  6
CONTINUOUS
 62
     5
 10
247.035165
 20
-352.8897879999999
 30
0.0
 11
237.702539
 21
-352.8897879999999
 31
0.0
  0
LINE
  5
211
  8
DETAIL
  6
CONTINUOUS
 62
     5
 10
251.206254
 20
-388.4629399999999
 30
0.0
 11
250.3046029999999
 21
-383.3494759999999
 31
0.0
  0
LINE
  5
212
  8
DETAIL
  6
CONTINUOUS
 62
     5
 10
241.0962039999999
 20
-352.8897879999999
 30
0.0
 11
241.0962039999999
 21
-384.0437609999998
 31
0.0
  0
LINE
  5
213
  8
DETAIL
  6
CONTINUOUS
 62
     5
 10
243.641462
 20
-352.8897879999999
 30
0.0
 11
243.641462
 21
-384.0437609999998
 31
0.0
  0
LINE
  5
214
  8
DETAIL
  6
CONTINUOUS
 62
     5
 10
242.3688329999999
 20
-389.2361089999998
 30
0.0
 11
242.3688329999999
 21
-384.0437609999998
 31
0.0
  0
LINE
  5
215
  8
DETAIL
  6
CONTINUOUS
 62
     5
 10
243.641462
 20
-384.0437609999998
 30
0.0
 11
241.0962039999999
 21
-384.0437609999998
 31
0.0
  0
LINE
  5
216
  8
DETAIL
  6
CONTINUOUS
 62
     5
 10
241.0962329999999
 20
-352.889807
 30
0.0
 11
235.6864
 21
-383.5704399999999
 31
0.0
  0
LINE
  5
217
  8
DETAIL
  6
CONTINUOUS
 62
     5
 10
238.5896049999999
 20
-352.44782
 30
0.0
 11
233.1797649999999
 21
-383.1284909999999
 31
0.0
  0
LINE
  5
218
  8
DETAIL
  6
CONTINUOUS
 62
     5
 10
233.531425
 20
-388.4629389999999
 30
0.0
 11
234.433077
 21
-383.3494759999999
 31
0.0
  0
LINE
  5
219
  8
DETAIL
  6
CONTINUOUS
 62
     5
 10
233.1797959999999
 20
-383.128495
 30
0.0
 11
235.6863479999999
 21
-383.5704619999998
 31
0.0
  0
LINE
  5
21A
  8
DETAIL
  6
CONTINUOUS
 62
     5
 10
243.641432
 20
-352.8897799999999
 30
0.0
 11
249.051272
 21
-383.5704509999999
 31
0.0
  0
LINE
  5
21B
  8
DETAIL
  6
CONTINUOUS
 62
     5
 10
246.148022
 20
-352.447799
 30
0.0
 11
251.5578619999999
 21
-383.1284709999999
 31
0.0
  0
LINE
  5
21C
  8
DETAIL
  6
CONTINUOUS
 62
     5
 10
251.557885
 20
-383.128509
 30
0.0
 11
249.0512939999999
 21
-383.5704829999999
 31
0.0
  0
LINE
  5
21D
  8
DETAIL
  6
CONTINUOUS
 62
     5
 10
134.7010679999999
 20
-138.2912099999999
 30
0.0
 11
126.9020229999999
 21
-146.090255
 31
0.0
  0
ARC
  5
21E
  8
DETAIL
  6
CONTINUOUS
 62
     5
 10
95.94719199999992
 20
-19.68095299999998
 30
0.0
 40
6.996064999999999
 50
348.4083669999998
 51
82.49979599999996
  0
ARC
  5
21F
  8
DETAIL
  6
CONTINUOUS
 62
     5
 10
0.0
 20
0.0
 30
0.0
 40
250.0
 50
176.8760149999999
 51
240.245412
  0
ARC
  5
220
  8
DETAIL
  6
CONTINUOUS
 62
     5
 10
101.9482159999999
 20
106.913206
 30
0.0
 40
164.150591
 50
272.112818
 51
322.5356489999999
  0
ARC
  5
221
  8
DETAIL
  6
CONTINUOUS
 62
     5
 10
-0.000001999999995
 20
0.0
 30
0.0
 40
235.416623
 50
315.620496
 51
344.2792549999999
  0
ARC
  5
222
  8
DETAIL
  6
CONTINUOUS
 62
     5
 10
-0.000001999999995
 20
0.0
 30
0.0
 40
229.166624
 50
315.6374739999999
 51
344.2779429999998
  0
ARC
  5
223
  8
DETAIL
  6
CONTINUOUS
 62
     5
 10
-10.019689
 20
-20.23759699999999
 30
0.0
 40
125.9115889999999
 50
141.093102
 51
196.7305579999999
  0
ARC
  5
224
  8
DETAIL
  6
CONTINUOUS
 62
     5
 10
-0.000001999999995
 20
0.0
 30
0.0
 40
235.416623
 50
180.7207039999998
 51
225.403154
  0
ARC
  5
225
  8
DETAIL
  6
CONTINUOUS
 62
     5
 10
-0.000001999999995
 20
0.0
 30
0.0
 40
229.166624
 50
180.7220149999997
 51
225.4692359999999
  0
ARC
  5
226
  8
DETAIL
  6
CONTINUOUS
 62
     5
 10
44.40963799999989
 20
-136.181681
 30
0.0
 40
168.9195989999999
 50
180.1359630000017
 51
203.835551
  0
ARC
  5
227
  8
DETAIL
  6
CONTINUOUS
 62
     5
 10
38.49314699999999
 20
-149.8449399999999
 30
0.0
 40
164.9558899999999
 50
152.632299
 51
173.221208
  0
LINE
  5
228
  8
DETAIL
  6
CONTINUOUS
 62
     5
 10
-118.630483
 20
-65.38556499999997
 30
0.0
 11
-108.0
 21
-65.38556499999997
 31
0.0
  0
ARC
  5
229
  8
DETAIL
  6
CONTINUOUS
 62
     5
 10
-118.630483
 20
-52.88556599999998
 30
0.0
 40
12.499999
 50
196.730722
 51
270.0
  0
ARC
  5
22A
  8
DETAIL
  6
CONTINUOUS
 62
     5
 10
-0.000001999999995
 20
0.0
 30
0.0
 40
235.416623
 50
300.7206799999999
 51
312.1091169999999
  0
ARC
  5
22B
  8
DETAIL
  6
CONTINUOUS
 62
     5
 10
-0.000001999999995
 20
0.0
 30
0.0
 40
229.166624
 50
300.7220459999999
 51
312.0302709999999
  0
ARC
  5
22C
  8
DETAIL
  6
CONTINUOUS
 62
     5
 10
199.842388
 20
-19.89480400000001
 30
0.0
 40
223.9435049999999
 50
206.981895
 51
245.163067
  0
ARC
  5
22D
  8
DETAIL
  6
CONTINUOUS
 62
     5
 10
118.7734989999999
 20
-199.8726879999999
 30
0.0
 40
2.916666999999999
 50
210.0000850000001
 51
300.7203520000002
  0
ARC
  5
22E
  8
DETAIL
  6
CONTINUOUS
 62
     5
 10
118.5651399999999
 20
-199.5118179999999
 30
0.0
 40
2.916666999999999
 50
120.7225490000005
 51
210.0000850000001
  0
LINE
  5
22F
  8
DETAIL
  6
CONTINUOUS
 62
     5
 10
116.2475789999999
 20
-201.3310079999999
 30
0.0
 11
116.0392209999999
 21
-200.970139
 31
0.0
  0
ARC
  5
230
  8
DETAIL
  6
CONTINUOUS
 62
     5
 10
22.77637899999999
 20
0.8025329999999822
 30
0.0
 40
125.9115889999999
 50
267.185106
 51
286.009066
  0
ARC
  5
231
  8
DETAIL
  6
CONTINUOUS
 62
     5
 10
17.04281599999999
 20
-115.8015
 30
0.0
 40
9.166664
 50
218.121097
 51
267.185106
  0
ARC
  5
232
  8
DETAIL
  6
CONTINUOUS
 62
     5
 10
-0.000001999999995
 20
0.0
 30
0.0
 40
229.166624
 50
60.72202199999998
 51
104.277919
  0
ARC
  5
233
  8
DETAIL
  6
CONTINUOUS
 62
     5
 10
-0.000001999999995
 20
0.0
 30
0.0
 40
235.416623
 50
60.72071
 51
104.279231
  0
ARC
  5
234
  8
DETAIL
  6
CONTINUOUS
 62
     5
 10
-142.8767
 20
49.82090699999998
 30
0.0
 40
149.215794
 50
28.685527
 51
82.24960300000002
  0
ARC
  5
235
  8
DETAIL
  6
CONTINUOUS
 62
     5
 10
-116.835849
 20
-164.6517029999999
 30
0.0
 40
225.377668
 50
87.75316399999998
 51
124.9981749999999
  0
ARC
  5
236
  8
DETAIL
  6
CONTINUOUS
 62
     5
 10
-232.064869
 20
-2.924536999999986
 30
0.0
 40
2.916666999999999
 50
0.7225250000004283
 51
90.0
  0
ARC
  5
237
  8
DETAIL
  6
CONTINUOUS
 62
     5
 10
-232.481586
 20
-2.924575000000004
 30
0.0
 40
2.916666999999999
 50
90.0
 51
180.7203209999998
  0
LINE
  5
238
  8
DETAIL
  6
CONTINUOUS
 62
     5
 10
-232.481586
 20
-0.007896000000017
 30
0.0
 11
-232.064869
 21
-0.007896000000017
 31
0.0
  0
ARC
  5
239
  8
DETAIL
  6
CONTINUOUS
 62
     5
 10
-57.2381070000001
 20
224.914343
 30
0.0
 40
2.916666999999999
 50
194.9998420000001
 51
284.277955
  0
ARC
  5
23A
  8
DETAIL
  6
CONTINUOUS
 62
     5
 10
-57.3459490000001
 20
225.3168319999999
 30
0.0
 40
2.916666999999999
 50
104.2794189999999
 51
194.9998420000001
  0
LINE
  5
23B
  8
DETAIL
  6
CONTINUOUS
 62
     5
 10
-60.16322000000011
 20
224.561952
 30
0.0
 11
-60.0553800000001
 21
224.159469
 31
0.0
  0
ARC
  5
23C
  8
DETAIL
  6
CONTINUOUS
 62
     5
 10
-59.08366100000001
 20
204.323481
 30
0.0
 40
199.457253
 50
341.8180729999999
 51
359.5887649999999
  0
ARC
  5
23D
  8
DETAIL
  6
CONTINUOUS
 62
     5
 10
-20.27230400000002
 20
19.63456200000001
 30
0.0
 40
125.9115889999999
 50
53.097098
 51
76.73050999999998
  0
LINE
  5
23E
  8
DETAIL
  6
CONTINUOUS
 62
     5
 10
-6.630986000000092
 20
128.364361
 30
0.0
 11
-5.719437999999997
 21
121.535383
 31
0.0
  0
ARC
  5
23F
  8
DETAIL
  6
CONTINUOUS
 62
     5
 10
5.7591239999999
 20
130.018236
 30
0.0
 40
12.499999
 50
76.73061900000005
 51
187.6030579999999
  0
ARC
  5
240
  8
DETAIL
  6
CONTINUOUS
 62
     5
 10
-110.032581
 20
195.7721289999999
 30
0.0
 40
246.7836189999999
 50
332.067122
 51
345.414184
  0
ARC
  5
241
  8
DETAIL
  6
CONTINUOUS
 62
     5
 10
113.499719
 20
202.436317
 30
0.0
 40
2.916666999999999
 50
240.7225489999999
 51
330.0000610000002
  0
ARC
  5
242
  8
DETAIL
  6
CONTINUOUS
 62
     5
 10
113.7080389999999
 20
202.7971879999999
 30
0.0
 40
2.916666999999999
 50
330.0000610000002
 51
60.72032799999999
  0
LINE
  5
243
  8
DETAIL
  6
CONTINUOUS
 62
     5
 10
116.233925
 20
201.338864
 30
0.0
 11
116.025606
 21
200.977997
 31
0.0
  0
ARC
  5
244
  8
DETAIL
  6
CONTINUOUS
 62
     5
 10
223.400566
 20
-62.88753000000003
 30
0.0
 40
2.916666999999999
 50
74.9998489999997
 51
164.2779620000001
  0
LINE
  5
245
  8
DETAIL
  6
CONTINUOUS
 62
     5
 10
224.557994
 20
-60.17815400000001
 30
0.0
 11
224.1554449999999
 21
-60.070268
 31
0.0
  0
ARC
  5
246
  8
DETAIL
  6
CONTINUOUS
 62
     5
 10
223.8030549999999
 20
-62.99540999999999
 30
0.0
 40
2.916666999999999
 50
344.279419
 51
74.9998489999997
  0
ARC
  5
247
  8
DETAIL
  6
CONTINUOUS
 62
     5
 10
0.0
 20
0.0
 30
0.0
 40
250.0
 50
56.874777
 51
120.2492349999999
  0
ARC
  5
248
  8
DETAIL
  6
CONTINUOUS
 62
     5
 10
-120.953364
 20
207.408519
 30
0.0
 40
9.9
 50
120.2492349999999
 51
259.5218279999999
  0
ARC
  5
249
  8
DETAIL
  6
CONTINUOUS
 62
     5
 10
132.0819669999999
 20
202.418487
 30
0.0
 40
8.3
 50
3.269845999999842
 51
56.87477700000017
  0
ARC
  5
24A
  8
DETAIL
  6
CONTINUOUS
 62
     5
 10
-241.34082
 20
13.17187899999998
 30
0.0
 40
8.3
 50
124.9981749999999
 51
176.876015
  0
ARC
  5
24B
  8
DETAIL
  6
CONTINUOUS
 62
     5
 10
0.0
 20
0.0
 30
0.0
 40
250.0
 50
296.8762479999999
 51
0.24909899999959
  0
ARC
  5
24C
  8
DETAIL
  6
CONTINUOUS
 62
     5
 10
-119.158276
 20
-208.4449939999999
 30
0.0
 40
9.9
 50
240.245412
 51
23.83555099999993
  0
ARC
  5
24D
  8
DETAIL
  6
CONTINUOUS
 62
     5
 10
240.097731
 20
1.043855000000008
 30
0.0
 40
9.9
 50
0.2490990000010531
 51
142.535649
  0
ARC
  5
24E
  8
DETAIL
  6
CONTINUOUS
 62
     5
 10
109.264106
 20
-215.5927759999999
 30
0.0
 40
8.3
 50
245.1630670000001
 51
296.876248
  0
ARC
  5
24F
  8
DETAIL
  6
CONTINUOUS
 62
     5
 10
0.0
 20
0.0
 30
0.0
 40
255.0
 50
226.361561
 51
312.3311109999999
  0
ARC
  5
250
  8
DETAIL
  6
CONTINUOUS
 62
     5
 10
0.0
 20
0.0
 30
0.0
 40
302.4999999999999
 50
225.8303529999999
 51
312.750048
  0
ARC
  5
251
  8
DETAIL
  6
CONTINUOUS
 62
     5
 10
0.0
 20
0.0
 30
0.0
 40
302.4999999999999
 50
315.482444
 51
44.86592999999999
  0
ARC
  5
252
  8
DETAIL
  6
CONTINUOUS
 62
     5
 10
0.0
 20
0.0
 30
0.0
 40
255.0
 50
315.572687
 51
45.21708900000002
  0
ARC
  5
253
  8
DETAIL
  6
CONTINUOUS
 62
     5
 10
0.0
 20
1176.749999999999
 30
0.0
 40
1298.25
 50
273.2707369999999
 51
274.588566
  0
ARC
  5
254
  8
DETAIL
  6
CONTINUOUS
 62
     5
 10
0.0
 20
0.0
 30
0.0
 40
302.4999999999999
 50
45.83035300000001
 51
134.169647
  0
ARC
  5
255
  8
DETAIL
  6
CONTINUOUS
 62
     5
 10
0.0
 20
0.0
 30
0.0
 40
255.0
 50
46.36156099999999
 51
133.6384389999999
  0
LINE
  5
256
  8
SIZE
  6
CONTINUOUS
 62
    30
 10
-608.821198
 20
18.292122
 30
0.0
 11
-261.8818249999999
 21
7.868277999999975
 31
0.0
  0
LINE
  5
257
  8
SIZE
  6
CONTINUOUS
 62
    30
 10
261.8818249999999
 20
-7.868277999999973
 30
0.0
 11
273.876412
 21
-8.228656999999997
 31
0.0
  0
TEXT
  5
258
  8
SIZE
  6
CONTINUOUS
 62
    30
 10
-589.9357457774428
 20
42.73603066633036
 30
0.0
 40
64.0
  1
φ500
 50
358.2790339999998
 41
0.9
 72
     1
 11
-483.012568
 21
39.52346399999998
 31
0.0
  0
LINE
  5
259
  8
SIZE
  6
CONTINUOUS
 62
    30
 10
249.887237
 20
-7.507898000000012
 30
0.0
 11
-249.887237
 21
7.507898000000012
 31
0.0
  0
CIRCLE
  5
25A
  8
SIZE
  6
CONTINUOUS
 62
    30
 10
249.887237
 20
-7.507898000000012
 30
0.0
 40
6.0
  0
LINE
  5
25B
  8
SIZE
  6
CONTINUOUS
 62
    30
 10
249.887237
 20
-7.507898000000012
 30
0.0
 11
261.881824
 21
-7.868276999999978
 31
0.0
  0
CIRCLE
  5
25C
  8
SIZE
  6
CONTINUOUS
 62
    30
 10
-249.887237
 20
7.507898000000012
 30
0.0
 40
6.0
  0
LINE
  5
25D
  8
SIZE
  6
CONTINUOUS
 62
    30
 10
-249.887237
 20
7.507898000000012
 30
0.0
 11
-261.8818240000001
 21
7.868276999999978
 31
0.0
  0
POINT
  5
25E
  8
DEFPOINTS
  6
CONTINUOUS
 62
    30
 10
-249.887237
 20
7.507898000000012
 30
0.0
  0
POINT
  5
25F
  8
DEFPOINTS
  6
CONTINUOUS
 62
    30
 10
249.887237
 20
-7.507898000000012
 30
0.0
  0
TEXT
  5
26A
  8
ETC
  6
CONTINUOUS
 62
    61
 10
666.9230162222442
 20
503.9984981160241
 30
0.0
 40
50.0
  1
EF-50FTB-PR
 41
0.9
  0
TEXT
  5
26B
  8
ETC
  6
CONTINUOUS
 62
    61
 10
660.8582598667801
 20
598.331749840243
 30
0.0
 40
50.0
  1
EF-50FTB
 41
0.9
  0
TEXT
  5
26C
  8
ETC
  6
CONTINUOUS
 62
    61
 10
539.594801671001
 20
799.6926452564148
 30
0.0
 40
64.0
  1
EF-50FTB_2
 41
0.9
  0
TEXT
  5
26D
  8
ETC
  6
CONTINUOUS
 62
    61
 10
536.3868746710011
 20
699.6923652564149
 30
0.0
 40
64.0
  1
産業扇
 41
0.9
  0
ENDSEC
  0
EOF
