  0
SECTION
  2
HEADER
  9
$ACADVER
  1
AC1009
  9
$INSBASE
 10
0.0
 20
0.0
 30
0.0
  9
$EXTMIN
 10
-330.25453099999982
 20
-445.20049400000011
 30
0.0
  9
$EXTMAX
 10
1187.235415361157
 20
582.66098859339149
 30
50.0
  9
$LIMMIN
 10
-2970.0
 20
-2100.0
  9
$LIMMAX
 10
2970.0
 20
2100.0
  9
$ORTHOMODE
 70
     1
  9
$REGENMODE
 70
     0
  9
$FILLMODE
 70
     1
  9
$QTEXTMODE
 70
     0
  9
$MIRRTEXT
 70
     0
  9
$DRAGMODE
 70
     2
  9
$LTSCALE
 40
20.0
  9
$OSMODE
 70
   169
  9
$ATTMODE
 70
     1
  9
$TEXTSIZE
 40
64.0
  9
$TRACEWID
 40
0.05
  9
$TEXTSTYLE
  7
STANDARD
  9
$CLAYER
  8
SIZE
  9
$CELTYPE
  6
CONTINUOUS
  9
$CECOLOR
 62
     8
  9
$DIMSCALE
 40
1.0
  9
$DIMASZ
 40
12.0
  9
$DIMEXO
 40
20.0
  9
$DIMDLI
 40
200.0
  9
$DIMRND
 40
0.0
  9
$DIMDLE
 40
0.0
  9
$DIMEXE
 40
20.0
  9
$DIMTP
 40
0.0
  9
$DIMTM
 40
0.0
  9
$DIMTXT
 40
64.0
  9
$DIMCEN
 40
0.09
  9
$DIMTSZ
 40
0.0
  9
$DIMTOL
 70
     0
  9
$DIMLIM
 70
     0
  9
$DIMTIH
 70
     0
  9
$DIMTOH
 70
     0
  9
$DIMSE1
 70
     0
  9
$DIMSE2
 70
     0
  9
$DIMTAD
 70
     1
  9
$DIMZIN
 70
     8
  9
$DIMBLK
  1
DOT1
  9
$DIMASO
 70
     1
  9
$DIMSHO
 70
     0
  9
$DIMPOST
  1

  9
$DIMAPOST
  1

  9
$DIMALT
 70
     0
  9
$DIMALTD
 70
     2
  9
$DIMALTF
 40
25.399999999999999
  9
$DIMLFAC
 40
1.0
  9
$DIMTOFL
 70
     1
  9
$DIMTVP
 40
0.0
  9
$DIMTIX
 70
     1
  9
$DIMSOXD
 70
     0
  9
$DIMSAH
 70
     1
  9
$DIMBLK1
  1
ORIGIN
  9
$DIMBLK2
  1
ORIGIN
  9
$DIMSTYLE
  2
STANDARD
  9
$DIMCLRD
 70
     0
  9
$DIMCLRE
 70
     0
  9
$DIMCLRT
 70
     0
  9
$DIMTFAC
 40
1.0
  9
$DIMGAP
 40
0.09
  9
$LUNITS
 70
     2
  9
$LUPREC
 70
     4
  9
$SKETCHINC
 40
0.1
  9
$FILLETRAD
 40
4.0
  9
$AUNITS
 70
     1
  9
$AUPREC
 70
     3
  9
$MENU
  1
ACAD
  9
$ELEVATION
 40
0.0
  9
$PELEVATION
 40
0.0
  9
$THICKNESS
 40
50.0
  9
$LIMCHECK
 70
     0
  9
$BLIPMODE
 70
     0
  9
$CHAMFERA
 40
0.0
  9
$CHAMFERB
 40
0.0
  9
$SKPOLY
 70
     0
  9
$TDCREATE
 40
2451453.4938508091
  9
$TDUPDATE
 40
2453474.891324861
  9
$TDINDWG
 40
0.6839191319
  9
$TDUSRTIMER
 40
0.6839189468
  9
$USRTIMER
 70
     1
  9
$ANGBASE
 50
0.0
  9
$ANGDIR
 70
     0
  9
$PDMODE
 70
     3
  9
$PDSIZE
 40
-2.0
  9
$PLINEWID
 40
0.0
  9
$COORDS
 70
     2
  9
$SPLFRAME
 70
     0
  9
$SPLINETYPE
 70
     6
  9
$SPLINESEGS
 70
     8
  9
$ATTDIA
 70
     0
  9
$ATTREQ
 70
     1
  9
$HANDLING
 70
 22529
  9
$HANDSEED
  5
EBF
  9
$SURFTAB1
 70
     6
  9
$SURFTAB2
 70
     6
  9
$SURFTYPE
 70
     6
  9
$SURFU
 70
     6
  9
$SURFV
 70
     6
  9
$UCSNAME
  2

  9
$UCSORG
 10
0.0
 20
0.0
 30
0.0
  9
$UCSXDIR
 10
1.0
 20
0.0
 30
0.0
  9
$UCSYDIR
 10
0.0
 20
1.0
 30
0.0
  9
$PUCSNAME
  2

  9
$PUCSORG
 10
0.0
 20
0.0
 30
0.0
  9
$PUCSXDIR
 10
1.0
 20
0.0
 30
0.0
  9
$PUCSYDIR
 10
0.0
 20
1.0
 30
0.0
  9
$USERI1
 70
     0
  9
$USERI2
 70
     0
  9
$USERI3
 70
     0
  9
$USERI4
 70
     0
  9
$USERI5
 70
     0
  9
$USERR1
 40
20.0
  9
$USERR2
 40
0.0
  9
$USERR3
 40
0.0
  9
$USERR4
 40
0.0
  9
$USERR5
 40
0.0
  9
$WORLDVIEW
 70
     1
  9
$SHADEDGE
 70
     3
  9
$SHADEDIF
 70
    70
  9
$TILEMODE
 70
     1
  9
$MAXACTVP
 70
    64
  9
$PLIMCHECK
 70
     0
  9
$PEXTMIN
 10
1.0000000000000000E+020
 20
1.0000000000000000E+020
 30
1.0000000000000000E+020
  9
$PEXTMAX
 10
-1.0000000000000000E+020
 20
-1.0000000000000000E+020
 30
-1.0000000000000000E+020
  9
$PLIMMIN
 10
0.0
 20
0.0
  9
$PLIMMAX
 10
12.0
 20
9.0
  9
$UNITMODE
 70
     0
  9
$VISRETAIN
 70
     1
  9
$PLINEGEN
 70
     0
  9
$PSLTSCALE
 70
     1
  0
ENDSEC
  0
SECTION
  2
TABLES
  0
TABLE
  2
VPORT
 70
     3
  0
VPORT
  2
*ACTIVE
 70
     0
 10
0.0
 20
0.0
 11
1.0
 21
1.0
 12
135.98186541332871
 22
63.495808864978237
 13
0.0
 23
0.0
 14
1.0
 24
1.0
 15
0.0
 25
0.0
 16
0.0
 26
0.0
 36
1.0
 17
0.0
 27
0.0
 37
0.0
 40
1559.1147271642601
 41
1.4423558897243101
 42
50.0
 43
0.0
 44
0.0
 50
0.0
 51
0.0
 71
     0
 72
   100
 73
     1
 74
     0
 75
     0
 76
     0
 77
     0
 78
     0
  0
ENDTAB
  0
TABLE
  2
LTYPE
 70
     2
  0
LTYPE
  2
CONTINUOUS
 70
     0
  3
実線
 72
    65
 73
     0
 40
0.0
  0
LTYPE
  2
DASHDOT
 70
     0
  3
____ _ ____ _ ____ _ ____ _ ____ _ ____ _ ____
 72
    65
 73
     4
 40
5.5
 49
4.0
 49
-0.6
 49
0.3
 49
-0.6
  0
ENDTAB
  0
TABLE
  2
LAYER
 70
    12
  0
LAYER
  2
0
 70
     0
 62
     7
  6
CONTINUOUS
  0
LAYER
  2
SIZE
 70
     0
 62
    30
  6
CONTINUOUS
  0
LAYER
  2
BASIS
 70
     0
 62
     6
  6
DASHDOT
  0
LAYER
  2
OUTLINE
 70
     0
 62
     3
  6
CONTINUOUS
  0
LAYER
  2
DETAIL
 70
     0
 62
     5
  6
CONTINUOUS
  0
LAYER
  2
ARRANGE
 70
     0
 62
     1
  6
CONTINUOUS
  0
LAYER
  2
DEFPOINTS
 70
     0
 62
     7
  6
CONTINUOUS
  0
LAYER
  2
ETC
 70
     0
 62
    61
  6
CONTINUOUS
  0
LAYER
  2
FIX
 70
     0
 62
    11
  6
CONTINUOUS
  0
LAYER
  2
NOTE
 70
     0
 62
     4
  6
CONTINUOUS
  0
LAYER
  2
SERVICESPACE
 70
     0
 62
     2
  6
DASHDOT
  0
LAYER
  2
SYMBOLLINE
 70
     0
 62
    15
  6
CONTINUOUS
  0
ENDTAB
  0
TABLE
  2
STYLE
 70
     1
  0
STYLE
  2
STANDARD
 70
     0
 40
64.0
 41
0.9
 50
0.0
 71
     0
 42
64.0
  3
SIMPLEX.shx
  4
BIGFONT.shx
  0
ENDTAB
  0
TABLE
  2
VIEW
 70
     1
  0
VIEW
  2
ALL
 70
     0
 40
4282.6198079999976
 10
0.0
 20
41.309903999999989
 41
5940.0
 11
0.0
 21
0.0
 31
1.0
 12
0.0
 22
0.0
 32
0.0
 42
50.0
 43
0.0
 44
0.0
 50
0.0
 71
     0
  0
ENDTAB
  0
TABLE
  2
UCS
 70
     0
  0
ENDTAB
  0
TABLE
  2
APPID
 70
     1
  0
APPID
  2
ACAD
 70
     0
  0
ENDTAB
  0
TABLE
  2
DIMSTYLE
 70
     1
  0
DIMSTYLE
  2
STANDARD
 70
     0
  3

  4

  5

  6

  7

 40
1.0
 41
0.18
 42
0.0625
 43
0.38
 44
0.18
 45
0.0
 46
0.0
 47
0.0
 48
0.0
140
0.18
141
0.09
142
0.0
143
25.399999999999999
144
1.0
145
0.0
146
1.0
147
0.09
 71
     0
 72
     0
 73
     1
 74
     1
 75
     0
 76
     0
 77
     0
 78
     0
170
     0
171
     2
172
     0
173
     0
174
     0
175
     0
176
     0
177
     0
178
     0
  0
ENDTAB
  0
ENDSEC
  0
SECTION
  2
BLOCKS
  0
BLOCK
  8
0
  2
$MODEL_SPACE
 70
     0
 10
0.0
 20
0.0
 30
0.0
  3
$MODEL_SPACE
  1

  0
ENDBLK
  5
7A6
  8
0
  0
BLOCK
 67
     1
  8
0
  2
$PAPER_SPACE
 70
     0
 10
0.0
 20
0.0
 30
0.0
  3
$PAPER_SPACE
  1

  0
ENDBLK
  5
7A2
 67
     1
  8
0
  0
BLOCK
  8
0
  2
DOT1
 70
     0
 10
0.0
 20
0.0
 30
0.0
  3
DOT1
  1

  0
CIRCLE
  5
7C1
  8
SIZE
  6
CONTINUOUS
 62
     7
 10
0.0
 20
0.0
 30
0.0
 40
3.0
  0
ENDBLK
  5
7C2
  8
0
  0
BLOCK
  8
0
  2
_ORIGIN
 70
     0
 10
0.0
 20
0.0
 30
0.0
  3
_ORIGIN
  1

  0
CIRCLE
  5
7C5
  8
0
  6
CONTINUOUS
 62
     7
 10
0.0
 20
0.0
 30
0.0
 40
0.5
  0
LINE
  5
7C6
  8
0
  6
CONTINUOUS
 62
     7
 10
0.0
 20
0.0
 30
0.0
 11
-1.0
 21
0.0
 31
0.0
  0
ENDBLK
  5
7C7
  8
0
  0
ENDSEC
  0
SECTION
  2
ENTITIES
  0
LINE
  5
7C8
  8
BASIS
  6
DASHDOT
 62
     6
 10
185.647299
 20
0.0
 30
0.0
 11
-153.5706779999999
 21
0.0
 31
0.0
  0
POINT
  5
7C9
  8
ARRANGE
  6
CONTINUOUS
 62
     1
 10
0.0
 20
0.0
 30
0.0
  0
LINE
  5
7CA
  8
NOTE
  6
CONTINUOUS
 62
     4
 10
0.0
 20
-217.5
 30
0.0
 11
110.740754
 21
-437.46953999999999
 31
0.0
  0
LINE
  5
7CB
  8
NOTE
  6
CONTINUOUS
 62
     4
 10
405.28665699999988
 20
-437.46953999999999
 30
0.0
 11
110.740754
 21
-437.46953999999999
 31
0.0
  0
LINE
  5
7CC
  8
DETAIL
  6
CONTINUOUS
 62
     5
 10
0.0
 20
239.5
 30
0.0
 11
0.0
 21
-239.50500099999991
 31
0.0
  0
CIRCLE
  5
7CD
  8
ARRANGE
  6
CONTINUOUS
 62
     1
 10
0.0
 20
0.0
 30
0.0
 40
54.482759999999992
  0
LINE
  5
7CE
  8
DETAIL
  6
CONTINUOUS
 62
     5
 10
155.0
 20
197.5
 30
0.0
 11
155.0
 21
-197.5
 31
0.0
  0
LINE
  5
7CF
  8
NOTE
  6
CONTINUOUS
 62
     4
 10
-20.0
 20
217.5
 30
0.0
 11
20.0
 21
217.5
 31
0.0
  0
LINE
  5
7D0
  8
NOTE
  6
CONTINUOUS
 62
     4
 10
0.0
 20
237.5
 30
0.0
 11
0.0
 21
197.5
 31
0.0
  0
TEXT
  5
7D1
  8
NOTE
  6
CONTINUOUS
 62
     4
 10
123.59885199999999
 20
-411.20355299999989
 30
0.0
 40
64.0
  1
4-φ10
 41
0.9
  0
LINE
  5
7D2
  8
NOTE
  6
CONTINUOUS
 62
     4
 10
7.1030839999999991
 20
-256.8642759999999
 30
0.0
 11
0.0
 21
-217.5
 31
0.0
  0
LINE
  5
7D3
  8
NOTE
  6
CONTINUOUS
 62
     4
 10
0.0
 20
-217.5
 30
0.0
 11
25.833589
 21
-248.03891999999991
 31
0.0
  0
LINE
  5
7D4
  8
SIZE
  6
CONTINUOUS
 62
    30
 10
155.0
 20
217.5
 30
0.0
 11
155.0
 21
470.24560499999978
 31
0.0
  0
LINE
  5
7D5
  8
SIZE
  6
CONTINUOUS
 62
    30
 10
0.0
 20
259.5
 30
0.0
 11
0.0
 21
470.24560499999978
 31
0.0
  0
LINE
  5
7D6
  8
SIZE
  6
CONTINUOUS
 62
    30
 10
143.0
 20
450.24560499999978
 30
0.0
 11
12.0
 21
450.24560499999978
 31
0.0
  0
TEXT
  5
7D7
  8
SIZE
  6
CONTINUOUS
 62
    30
 10
8.9285714285714306
 20
474.52010199999989
 30
0.0
 40
64.0
  1
155
 41
0.9
 72
     1
 11
77.5
 21
474.52010199999989
 31
0.0
  0
CIRCLE
  5
7D8
  8
SIZE
  6
CONTINUOUS
 62
    30
 10
155.0
 20
450.24560499999978
 30
0.0
 40
6.0
  0
LINE
  5
7D9
  8
SIZE
  6
CONTINUOUS
 62
    30
 10
155.0
 20
450.24560499999978
 30
0.0
 11
143.0
 21
450.24560499999978
 31
0.0
  0
CIRCLE
  5
7DA
  8
SIZE
  6
CONTINUOUS
 62
    30
 10
0.0
 20
450.24560499999978
 30
0.0
 40
6.0
  0
LINE
  5
7DB
  8
SIZE
  6
CONTINUOUS
 62
    30
 10
0.0
 20
450.24560499999978
 30
0.0
 11
12.0
 21
450.24560499999978
 31
0.0
  0
POINT
  5
7DC
  8
DEFPOINTS
  6
CONTINUOUS
 62
    30
 10
0.0
 20
450.24560499999978
 30
0.0
  0
LINE
  5
7DD
  8
DETAIL
  6
CONTINUOUS
 62
     5
 10
-122.0
 20
212.5
 30
0.0
 11
-122.0
 21
-209.50500099999999
 31
0.0
  0
ARC
  5
7DE
  8
DETAIL
  6
CONTINUOUS
 62
     5
 10
-92.0
 20
209.5
 30
0.0
 40
30.0
 50
90.0
 51
180.0
  0
CIRCLE
  5
7DF
  8
FIX
  6
CONTINUOUS
 62
    11
 39
50.0
 10
0.0
 20
217.5
 30
0.0
 40
5.0
  0
ARC
  5
7E0
  8
DETAIL
  6
CONTINUOUS
 62
     5
 10
-92.0
 20
-209.50500099999999
 30
0.0
 40
30.0
 50
180.0
 51
270.0
  0
LINE
  5
7E1
  8
NOTE
  6
CONTINUOUS
 62
     4
 10
-20.0
 20
-217.5
 30
0.0
 11
20.0
 21
-217.5
 31
0.0
  0
LINE
  5
7E2
  8
NOTE
  6
CONTINUOUS
 62
     4
 10
0.0
 20
-237.5
 30
0.0
 11
0.0
 21
-197.5
 31
0.0
  0
CIRCLE
  5
7E3
  8
FIX
  6
CONTINUOUS
 62
    11
 39
50.0
 10
0.0
 20
-217.5
 30
0.0
 40
5.0
  0
LINE
  5
7E4
  8
DETAIL
  6
CONTINUOUS
 62
     5
 10
-122.0
 20
212.5
 30
0.0
 11
0.0
 21
212.5
 31
0.0
  0
LINE
  5
7E5
  8
DETAIL
  6
CONTINUOUS
 62
     5
 10
-122.0
 20
-212.50500099999991
 30
0.0
 11
0.0
 21
-212.50500099999991
 31
0.0
  0
LINE
  5
7E6
  8
DETAIL
  6
CONTINUOUS
 62
     5
 10
-30.0
 20
212.5
 30
0.0
 11
-30.0
 21
-212.50500099999991
 31
0.0
  0
LINE
  5
7E7
  8
DETAIL
  6
CONTINUOUS
 62
     5
 10
145.0
 20
157.5
 30
0.0
 11
145.0
 21
-157.50500099999999
 31
0.0
  0
LINE
  5
7E8
  8
DETAIL
  6
CONTINUOUS
 62
     5
 10
120.0
 20
157.5
 30
0.0
 11
120.0
 21
-157.50500099999999
 31
0.0
  0
LINE
  5
7E9
  8
DETAIL
  6
CONTINUOUS
 62
     5
 10
145.0
 20
157.5
 30
0.0
 11
120.0
 21
157.5
 31
0.0
  0
LINE
  5
7EA
  8
DETAIL
  6
CONTINUOUS
 62
     5
 10
145.0
 20
-157.50500099999999
 30
0.0
 11
120.0
 21
-157.50500099999999
 31
0.0
  0
LINE
  5
7EB
  8
DETAIL
  6
CONTINUOUS
 62
     5
 10
0.0
 20
-244.50500099999991
 30
0.0
 11
-92.0
 21
-244.50500099999991
 31
0.0
  0
LINE
  5
7EC
  8
DETAIL
  6
CONTINUOUS
 62
     5
 10
-92.0
 20
-244.50500099999991
 30
0.0
 11
-81.780647999999985
 21
-271.29660499999989
 31
0.0
  0
ARC
  5
7ED
  8
DETAIL
  6
CONTINUOUS
 62
     5
 10
-68.966087999999999
 20
-263.5
 30
0.0
 40
15.0
 50
211.317072
 51
270.0
  0
LINE
  5
7EE
  8
DETAIL
  6
CONTINUOUS
 62
     5
 10
0.0
 20
-244.50500099999991
 30
0.0
 11
0.0
 21
-270.5
 31
0.0
  0
ARC
  5
7EF
  8
DETAIL
  6
CONTINUOUS
 62
     5
 10
-8.0
 20
-270.5
 30
0.0
 40
8.0
 50
270.0
 51
0.0
  0
LINE
  5
7F0
  8
DETAIL
  6
CONTINUOUS
 62
     5
 10
-92.0
 20
-244.50500099999991
 30
0.0
 11
-92.0
 21
-239.50500099999991
 31
0.0
  0
LINE
  5
7F1
  8
DETAIL
  6
CONTINUOUS
 62
     5
 10
0.0
 20
-239.50500099999991
 30
0.0
 11
0.0
 21
-244.50500099999991
 31
0.0
  0
CIRCLE
  5
7F2
  8
DETAIL
  6
CONTINUOUS
 62
     5
 10
-62.820507999999997
 20
-0.9
 30
0.0
 40
1.5
  0
CIRCLE
  5
7F3
  8
DETAIL
  6
CONTINUOUS
 62
     5
 10
-69.748711
 20
-0.9
 30
0.0
 40
1.5
  0
CIRCLE
  5
7F4
  8
DETAIL
  6
CONTINUOUS
 62
     5
 10
-76.67691499999998
 20
-0.9
 30
0.0
 40
1.5
  0
CIRCLE
  5
7F5
  8
DETAIL
  6
CONTINUOUS
 62
     5
 10
-34.96410199999999
 20
-0.9
 30
0.0
 40
1.5
  0
CIRCLE
  5
7F6
  8
DETAIL
  6
CONTINUOUS
 62
     5
 10
-41.892304999999993
 20
-0.9
 30
0.0
 40
1.5
  0
CIRCLE
  5
7F7
  8
DETAIL
  6
CONTINUOUS
 62
     5
 10
-55.820507999999997
 20
-0.9
 30
0.0
 40
1.5
  0
CIRCLE
  5
7F8
  8
DETAIL
  6
CONTINUOUS
 62
     5
 10
-48.892305
 20
-0.9
 30
0.0
 40
1.5
  0
CIRCLE
  5
7F9
  8
DETAIL
  6
CONTINUOUS
 62
     5
 10
-69.748711
 20
-203.00500099999999
 30
0.0
 40
1.5
  0
CIRCLE
  5
7FA
  8
DETAIL
  6
CONTINUOUS
 62
     5
 10
-62.820507999999997
 20
-203.00500099999999
 30
0.0
 40
1.5
  0
CIRCLE
  5
7FB
  8
DETAIL
  6
CONTINUOUS
 62
     5
 10
-34.96410199999999
 20
-203.00500099999999
 30
0.0
 40
1.5
  0
CIRCLE
  5
7FC
  8
DETAIL
  6
CONTINUOUS
 62
     5
 10
-41.892304999999993
 20
-203.00500099999999
 30
0.0
 40
1.5
  0
CIRCLE
  5
7FD
  8
DETAIL
  6
CONTINUOUS
 62
     5
 10
-55.820507999999997
 20
-203.00500099999999
 30
0.0
 40
1.5
  0
CIRCLE
  5
7FE
  8
DETAIL
  6
CONTINUOUS
 62
     5
 10
-48.892305
 20
-203.00500099999999
 30
0.0
 40
1.5
  0
CIRCLE
  5
7FF
  8
DETAIL
  6
CONTINUOUS
 62
     5
 10
-76.67691499999998
 20
-203.00500099999999
 30
0.0
 40
1.5
  0
CIRCLE
  5
800
  8
DETAIL
  6
CONTINUOUS
 62
     5
 10
-80.141015999999993
 20
-209.00500099999999
 30
0.0
 40
1.5
  0
CIRCLE
  5
801
  8
DETAIL
  6
CONTINUOUS
 62
     5
 10
-80.141015999999993
 20
-205.00500099999999
 30
0.0
 40
1.5
  0
CIRCLE
  5
802
  8
DETAIL
  6
CONTINUOUS
 62
     5
 10
-69.748711
 20
-211.00500099999991
 30
0.0
 40
1.5
  0
CIRCLE
  5
803
  8
DETAIL
  6
CONTINUOUS
 62
     5
 10
-69.748711
 20
-207.00500099999999
 30
0.0
 40
1.5
  0
CIRCLE
  5
804
  8
DETAIL
  6
CONTINUOUS
 62
     5
 10
-59.356406000000007
 20
-205.00500099999999
 30
0.0
 40
1.5
  0
CIRCLE
  5
805
  8
DETAIL
  6
CONTINUOUS
 62
     5
 10
-59.356406000000007
 20
-209.00500099999999
 30
0.0
 40
1.5
  0
CIRCLE
  5
806
  8
DETAIL
  6
CONTINUOUS
 62
     5
 10
-62.820507999999997
 20
-207.00500099999999
 30
0.0
 40
1.5
  0
CIRCLE
  5
807
  8
DETAIL
  6
CONTINUOUS
 62
     5
 10
-62.820507999999997
 20
-211.00500099999991
 30
0.0
 40
1.5
  0
CIRCLE
  5
808
  8
DETAIL
  6
CONTINUOUS
 62
     5
 10
-66.284610000000001
 20
-209.00500099999999
 30
0.0
 40
1.5
  0
CIRCLE
  5
809
  8
DETAIL
  6
CONTINUOUS
 62
     5
 10
-66.284610000000001
 20
-205.00500099999999
 30
0.0
 40
1.5
  0
CIRCLE
  5
80A
  8
DETAIL
  6
CONTINUOUS
 62
     5
 10
-34.96410199999999
 20
-207.00500099999999
 30
0.0
 40
1.5
  0
CIRCLE
  5
80B
  8
DETAIL
  6
CONTINUOUS
 62
     5
 10
-34.96410199999999
 20
-211.00500099999991
 30
0.0
 40
1.5
  0
CIRCLE
  5
80C
  8
DETAIL
  6
CONTINUOUS
 62
     5
 10
-38.428203000000003
 20
-209.00500099999999
 30
0.0
 40
1.5
  0
CIRCLE
  5
80D
  8
DETAIL
  6
CONTINUOUS
 62
     5
 10
-38.428203000000003
 20
-205.00500099999999
 30
0.0
 40
1.5
  0
CIRCLE
  5
80E
  8
DETAIL
  6
CONTINUOUS
 62
     5
 10
-41.892304999999993
 20
-211.00500099999991
 30
0.0
 40
1.5
  0
CIRCLE
  5
80F
  8
DETAIL
  6
CONTINUOUS
 62
     5
 10
-41.892304999999993
 20
-207.00500099999999
 30
0.0
 40
1.5
  0
CIRCLE
  5
810
  8
DETAIL
  6
CONTINUOUS
 62
     5
 10
-31.5
 20
-205.00500099999999
 30
0.0
 40
1.5
  0
CIRCLE
  5
811
  8
DETAIL
  6
CONTINUOUS
 62
     5
 10
-31.5
 20
-209.00500099999999
 30
0.0
 40
1.5
  0
CIRCLE
  5
812
  8
DETAIL
  6
CONTINUOUS
 62
     5
 10
-55.820507999999997
 20
-207.00500099999999
 30
0.0
 40
1.5
  0
CIRCLE
  5
813
  8
DETAIL
  6
CONTINUOUS
 62
     5
 10
-55.820507999999997
 20
-211.00500099999991
 30
0.0
 40
1.5
  0
CIRCLE
  5
814
  8
DETAIL
  6
CONTINUOUS
 62
     5
 10
-52.356405999999993
 20
-205.00500099999999
 30
0.0
 40
1.5
  0
CIRCLE
  5
815
  8
DETAIL
  6
CONTINUOUS
 62
     5
 10
-52.356405999999993
 20
-209.00500099999999
 30
0.0
 40
1.5
  0
CIRCLE
  5
816
  8
DETAIL
  6
CONTINUOUS
 62
     5
 10
-48.892305
 20
-211.00500099999991
 30
0.0
 40
1.5
  0
CIRCLE
  5
817
  8
DETAIL
  6
CONTINUOUS
 62
     5
 10
-48.892305
 20
-207.00500099999999
 30
0.0
 40
1.5
  0
CIRCLE
  5
818
  8
DETAIL
  6
CONTINUOUS
 62
     5
 10
-45.428203000000003
 20
-209.00500099999999
 30
0.0
 40
1.5
  0
CIRCLE
  5
819
  8
DETAIL
  6
CONTINUOUS
 62
     5
 10
-45.428203000000003
 20
-205.00500099999999
 30
0.0
 40
1.5
  0
CIRCLE
  5
81A
  8
DETAIL
  6
CONTINUOUS
 62
     5
 10
-76.67691499999998
 20
-207.00500099999999
 30
0.0
 40
1.5
  0
CIRCLE
  5
81B
  8
DETAIL
  6
CONTINUOUS
 62
     5
 10
-76.67691499999998
 20
-211.00500099999991
 30
0.0
 40
1.5
  0
CIRCLE
  5
81C
  8
DETAIL
  6
CONTINUOUS
 62
     5
 10
-73.212812999999983
 20
-205.00500099999999
 30
0.0
 40
1.5
  0
CIRCLE
  5
81D
  8
DETAIL
  6
CONTINUOUS
 62
     5
 10
-73.212812999999983
 20
-209.00500099999999
 30
0.0
 40
1.5
  0
CIRCLE
  5
81E
  8
DETAIL
  6
CONTINUOUS
 62
     5
 10
-80.141015999999993
 20
-121.00500099999999
 30
0.0
 40
1.5
  0
CIRCLE
  5
81F
  8
DETAIL
  6
CONTINUOUS
 62
     5
 10
-73.212812999999983
 20
-121.00500099999999
 30
0.0
 40
1.5
  0
CIRCLE
  5
820
  8
DETAIL
  6
CONTINUOUS
 62
     5
 10
-59.356406000000007
 20
-121.00500099999999
 30
0.0
 40
1.5
  0
CIRCLE
  5
821
  8
DETAIL
  6
CONTINUOUS
 62
     5
 10
-66.284610000000001
 20
-121.00500099999999
 30
0.0
 40
1.5
  0
CIRCLE
  5
822
  8
DETAIL
  6
CONTINUOUS
 62
     5
 10
-38.428203000000003
 20
-121.00500099999999
 30
0.0
 40
1.5
  0
CIRCLE
  5
823
  8
DETAIL
  6
CONTINUOUS
 62
     5
 10
-31.5
 20
-121.00500099999999
 30
0.0
 40
1.5
  0
CIRCLE
  5
824
  8
DETAIL
  6
CONTINUOUS
 62
     5
 10
-52.356405999999993
 20
-121.00500099999999
 30
0.0
 40
1.5
  0
CIRCLE
  5
825
  8
DETAIL
  6
CONTINUOUS
 62
     5
 10
-45.428203000000003
 20
-121.00500099999999
 30
0.0
 40
1.5
  0
CIRCLE
  5
826
  8
DETAIL
  6
CONTINUOUS
 62
     5
 10
-80.141015999999993
 20
-201.00500099999999
 30
0.0
 40
1.5
  0
CIRCLE
  5
827
  8
DETAIL
  6
CONTINUOUS
 62
     5
 10
-80.141015999999993
 20
-197.00500099999991
 30
0.0
 40
1.5
  0
CIRCLE
  5
828
  8
DETAIL
  6
CONTINUOUS
 62
     5
 10
-80.141015999999993
 20
-193.00500099999999
 30
0.0
 40
1.5
  0
CIRCLE
  5
829
  8
DETAIL
  6
CONTINUOUS
 62
     5
 10
-80.141015999999993
 20
-189.00500099999991
 30
0.0
 40
1.5
  0
CIRCLE
  5
82A
  8
DETAIL
  6
CONTINUOUS
 62
     5
 10
-80.141015999999993
 20
-185.00500099999999
 30
0.0
 40
1.5
  0
CIRCLE
  5
82B
  8
DETAIL
  6
CONTINUOUS
 62
     5
 10
-80.141015999999993
 20
-181.00500099999991
 30
0.0
 40
1.5
  0
CIRCLE
  5
82C
  8
DETAIL
  6
CONTINUOUS
 62
     5
 10
-80.141015999999993
 20
-177.00500099999999
 30
0.0
 40
1.5
  0
CIRCLE
  5
82D
  8
DETAIL
  6
CONTINUOUS
 62
     5
 10
-80.141015999999993
 20
-173.00500099999999
 30
0.0
 40
1.5
  0
CIRCLE
  5
82E
  8
DETAIL
  6
CONTINUOUS
 62
     5
 10
-80.141015999999993
 20
-169.00500099999999
 30
0.0
 40
1.5
  0
CIRCLE
  5
82F
  8
DETAIL
  6
CONTINUOUS
 62
     5
 10
-80.141015999999993
 20
-165.00500099999999
 30
0.0
 40
1.5
  0
CIRCLE
  5
830
  8
DETAIL
  6
CONTINUOUS
 62
     5
 10
-80.141015999999993
 20
-161.00500099999991
 30
0.0
 40
1.5
  0
CIRCLE
  5
831
  8
DETAIL
  6
CONTINUOUS
 62
     5
 10
-80.141015999999993
 20
-157.00500099999991
 30
0.0
 40
1.5
  0
CIRCLE
  5
832
  8
DETAIL
  6
CONTINUOUS
 62
     5
 10
-80.141015999999993
 20
-153.00500099999999
 30
0.0
 40
1.5
  0
CIRCLE
  5
833
  8
DETAIL
  6
CONTINUOUS
 62
     5
 10
-80.141015999999993
 20
-149.00500099999999
 30
0.0
 40
1.5
  0
CIRCLE
  5
834
  8
DETAIL
  6
CONTINUOUS
 62
     5
 10
-80.141015999999993
 20
-145.00500099999999
 30
0.0
 40
1.5
  0
CIRCLE
  5
835
  8
DETAIL
  6
CONTINUOUS
 62
     5
 10
-80.141015999999993
 20
-141.00500099999991
 30
0.0
 40
1.5
  0
CIRCLE
  5
836
  8
DETAIL
  6
CONTINUOUS
 62
     5
 10
-80.141015999999993
 20
-137.00500099999991
 30
0.0
 40
1.5
  0
CIRCLE
  5
837
  8
DETAIL
  6
CONTINUOUS
 62
     5
 10
-80.141015999999993
 20
-133.00500099999991
 30
0.0
 40
1.5
  0
CIRCLE
  5
838
  8
DETAIL
  6
CONTINUOUS
 62
     5
 10
-80.141015999999993
 20
-129.00500099999991
 30
0.0
 40
1.5
  0
CIRCLE
  5
839
  8
DETAIL
  6
CONTINUOUS
 62
     5
 10
-80.141015999999993
 20
-125.00500099999999
 30
0.0
 40
1.5
  0
CIRCLE
  5
83A
  8
DETAIL
  6
CONTINUOUS
 62
     5
 10
-69.748711
 20
-199.00500099999999
 30
0.0
 40
1.5
  0
CIRCLE
  5
83B
  8
DETAIL
  6
CONTINUOUS
 62
     5
 10
-69.748711
 20
-195.00500099999999
 30
0.0
 40
1.5
  0
CIRCLE
  5
83C
  8
DETAIL
  6
CONTINUOUS
 62
     5
 10
-59.356406000000007
 20
-193.00500099999999
 30
0.0
 40
1.5
  0
CIRCLE
  5
83D
  8
DETAIL
  6
CONTINUOUS
 62
     5
 10
-59.356406000000007
 20
-197.00500099999991
 30
0.0
 40
1.5
  0
CIRCLE
  5
83E
  8
DETAIL
  6
CONTINUOUS
 62
     5
 10
-59.356406000000007
 20
-201.00500099999999
 30
0.0
 40
1.5
  0
CIRCLE
  5
83F
  8
DETAIL
  6
CONTINUOUS
 62
     5
 10
-62.820507999999997
 20
-195.00500099999999
 30
0.0
 40
1.5
  0
CIRCLE
  5
840
  8
DETAIL
  6
CONTINUOUS
 62
     5
 10
-62.820507999999997
 20
-199.00500099999999
 30
0.0
 40
1.5
  0
CIRCLE
  5
841
  8
DETAIL
  6
CONTINUOUS
 62
     5
 10
-66.284610000000001
 20
-201.00500099999999
 30
0.0
 40
1.5
  0
CIRCLE
  5
842
  8
DETAIL
  6
CONTINUOUS
 62
     5
 10
-66.284610000000001
 20
-197.00500099999991
 30
0.0
 40
1.5
  0
CIRCLE
  5
843
  8
DETAIL
  6
CONTINUOUS
 62
     5
 10
-66.284610000000001
 20
-193.00500099999999
 30
0.0
 40
1.5
  0
CIRCLE
  5
844
  8
DETAIL
  6
CONTINUOUS
 62
     5
 10
-34.96410199999999
 20
-195.00500099999999
 30
0.0
 40
1.5
  0
CIRCLE
  5
845
  8
DETAIL
  6
CONTINUOUS
 62
     5
 10
-34.96410199999999
 20
-199.00500099999999
 30
0.0
 40
1.5
  0
CIRCLE
  5
846
  8
DETAIL
  6
CONTINUOUS
 62
     5
 10
-38.428203000000003
 20
-201.00500099999999
 30
0.0
 40
1.5
  0
CIRCLE
  5
847
  8
DETAIL
  6
CONTINUOUS
 62
     5
 10
-38.428203000000003
 20
-197.00500099999991
 30
0.0
 40
1.5
  0
CIRCLE
  5
848
  8
DETAIL
  6
CONTINUOUS
 62
     5
 10
-38.428203000000003
 20
-193.00500099999999
 30
0.0
 40
1.5
  0
CIRCLE
  5
849
  8
DETAIL
  6
CONTINUOUS
 62
     5
 10
-41.892304999999993
 20
-199.00500099999999
 30
0.0
 40
1.5
  0
CIRCLE
  5
84A
  8
DETAIL
  6
CONTINUOUS
 62
     5
 10
-41.892304999999993
 20
-195.00500099999999
 30
0.0
 40
1.5
  0
CIRCLE
  5
84B
  8
DETAIL
  6
CONTINUOUS
 62
     5
 10
-31.5
 20
-193.00500099999999
 30
0.0
 40
1.5
  0
CIRCLE
  5
84C
  8
DETAIL
  6
CONTINUOUS
 62
     5
 10
-31.5
 20
-197.00500099999991
 30
0.0
 40
1.5
  0
CIRCLE
  5
84D
  8
DETAIL
  6
CONTINUOUS
 62
     5
 10
-31.5
 20
-201.00500099999999
 30
0.0
 40
1.5
  0
CIRCLE
  5
84E
  8
DETAIL
  6
CONTINUOUS
 62
     5
 10
-55.820507999999997
 20
-195.00500099999999
 30
0.0
 40
1.5
  0
CIRCLE
  5
84F
  8
DETAIL
  6
CONTINUOUS
 62
     5
 10
-55.820507999999997
 20
-199.00500099999999
 30
0.0
 40
1.5
  0
CIRCLE
  5
850
  8
DETAIL
  6
CONTINUOUS
 62
     5
 10
-52.356405999999993
 20
-193.00500099999999
 30
0.0
 40
1.5
  0
CIRCLE
  5
851
  8
DETAIL
  6
CONTINUOUS
 62
     5
 10
-52.356405999999993
 20
-197.00500099999991
 30
0.0
 40
1.5
  0
CIRCLE
  5
852
  8
DETAIL
  6
CONTINUOUS
 62
     5
 10
-52.356405999999993
 20
-201.00500099999999
 30
0.0
 40
1.5
  0
CIRCLE
  5
853
  8
DETAIL
  6
CONTINUOUS
 62
     5
 10
-48.892305
 20
-199.00500099999999
 30
0.0
 40
1.5
  0
CIRCLE
  5
854
  8
DETAIL
  6
CONTINUOUS
 62
     5
 10
-48.892305
 20
-195.00500099999999
 30
0.0
 40
1.5
  0
CIRCLE
  5
855
  8
DETAIL
  6
CONTINUOUS
 62
     5
 10
-45.428203000000003
 20
-201.00500099999999
 30
0.0
 40
1.5
  0
CIRCLE
  5
856
  8
DETAIL
  6
CONTINUOUS
 62
     5
 10
-45.428203000000003
 20
-197.00500099999991
 30
0.0
 40
1.5
  0
CIRCLE
  5
857
  8
DETAIL
  6
CONTINUOUS
 62
     5
 10
-45.428203000000003
 20
-193.00500099999999
 30
0.0
 40
1.5
  0
CIRCLE
  5
858
  8
DETAIL
  6
CONTINUOUS
 62
     5
 10
-76.67691499999998
 20
-195.00500099999999
 30
0.0
 40
1.5
  0
CIRCLE
  5
859
  8
DETAIL
  6
CONTINUOUS
 62
     5
 10
-76.67691499999998
 20
-199.00500099999999
 30
0.0
 40
1.5
  0
CIRCLE
  5
85A
  8
DETAIL
  6
CONTINUOUS
 62
     5
 10
-73.212812999999983
 20
-193.00500099999999
 30
0.0
 40
1.5
  0
CIRCLE
  5
85B
  8
DETAIL
  6
CONTINUOUS
 62
     5
 10
-73.212812999999983
 20
-197.00500099999991
 30
0.0
 40
1.5
  0
CIRCLE
  5
85C
  8
DETAIL
  6
CONTINUOUS
 62
     5
 10
-73.212812999999983
 20
-201.00500099999999
 30
0.0
 40
1.5
  0
CIRCLE
  5
85D
  8
DETAIL
  6
CONTINUOUS
 62
     5
 10
-59.356406000000007
 20
-125.00500099999999
 30
0.0
 40
1.5
  0
CIRCLE
  5
85E
  8
DETAIL
  6
CONTINUOUS
 62
     5
 10
-59.356406000000007
 20
-129.00500099999991
 30
0.0
 40
1.5
  0
CIRCLE
  5
85F
  8
DETAIL
  6
CONTINUOUS
 62
     5
 10
-59.356406000000007
 20
-133.00500099999991
 30
0.0
 40
1.5
  0
CIRCLE
  5
860
  8
DETAIL
  6
CONTINUOUS
 62
     5
 10
-59.356406000000007
 20
-137.00500099999991
 30
0.0
 40
1.5
  0
CIRCLE
  5
861
  8
DETAIL
  6
CONTINUOUS
 62
     5
 10
-59.356406000000007
 20
-141.00500099999991
 30
0.0
 40
1.5
  0
CIRCLE
  5
862
  8
DETAIL
  6
CONTINUOUS
 62
     5
 10
-59.356406000000007
 20
-145.00500099999999
 30
0.0
 40
1.5
  0
CIRCLE
  5
863
  8
DETAIL
  6
CONTINUOUS
 62
     5
 10
-59.356406000000007
 20
-149.00500099999999
 30
0.0
 40
1.5
  0
CIRCLE
  5
864
  8
DETAIL
  6
CONTINUOUS
 62
     5
 10
-59.356406000000007
 20
-153.00500099999999
 30
0.0
 40
1.5
  0
CIRCLE
  5
865
  8
DETAIL
  6
CONTINUOUS
 62
     5
 10
-59.356406000000007
 20
-157.00500099999991
 30
0.0
 40
1.5
  0
CIRCLE
  5
866
  8
DETAIL
  6
CONTINUOUS
 62
     5
 10
-59.356406000000007
 20
-161.00500099999991
 30
0.0
 40
1.5
  0
CIRCLE
  5
867
  8
DETAIL
  6
CONTINUOUS
 62
     5
 10
-59.356406000000007
 20
-165.00500099999999
 30
0.0
 40
1.5
  0
CIRCLE
  5
868
  8
DETAIL
  6
CONTINUOUS
 62
     5
 10
-59.356406000000007
 20
-169.00500099999999
 30
0.0
 40
1.5
  0
CIRCLE
  5
869
  8
DETAIL
  6
CONTINUOUS
 62
     5
 10
-59.356406000000007
 20
-173.00500099999999
 30
0.0
 40
1.5
  0
CIRCLE
  5
86A
  8
DETAIL
  6
CONTINUOUS
 62
     5
 10
-59.356406000000007
 20
-177.00500099999999
 30
0.0
 40
1.5
  0
CIRCLE
  5
86B
  8
DETAIL
  6
CONTINUOUS
 62
     5
 10
-59.356406000000007
 20
-181.00500099999991
 30
0.0
 40
1.5
  0
CIRCLE
  5
86C
  8
DETAIL
  6
CONTINUOUS
 62
     5
 10
-59.356406000000007
 20
-185.00500099999999
 30
0.0
 40
1.5
  0
CIRCLE
  5
86D
  8
DETAIL
  6
CONTINUOUS
 62
     5
 10
-59.356406000000007
 20
-189.00500099999991
 30
0.0
 40
1.5
  0
CIRCLE
  5
86E
  8
DETAIL
  6
CONTINUOUS
 62
     5
 10
-62.820507999999997
 20
-127.00500099999999
 30
0.0
 40
1.5
  0
CIRCLE
  5
86F
  8
DETAIL
  6
CONTINUOUS
 62
     5
 10
-62.820507999999997
 20
-131.00500099999991
 30
0.0
 40
1.5
  0
CIRCLE
  5
870
  8
DETAIL
  6
CONTINUOUS
 62
     5
 10
-62.820507999999997
 20
-135.00500099999991
 30
0.0
 40
1.5
  0
CIRCLE
  5
871
  8
DETAIL
  6
CONTINUOUS
 62
     5
 10
-62.820507999999997
 20
-139.00500099999991
 30
0.0
 40
1.5
  0
CIRCLE
  5
872
  8
DETAIL
  6
CONTINUOUS
 62
     5
 10
-62.820507999999997
 20
-143.00500099999991
 30
0.0
 40
1.5
  0
CIRCLE
  5
873
  8
DETAIL
  6
CONTINUOUS
 62
     5
 10
-62.820507999999997
 20
-147.00500099999999
 30
0.0
 40
1.5
  0
CIRCLE
  5
874
  8
DETAIL
  6
CONTINUOUS
 62
     5
 10
-62.820507999999997
 20
-151.00500099999999
 30
0.0
 40
1.5
  0
CIRCLE
  5
875
  8
DETAIL
  6
CONTINUOUS
 62
     5
 10
-62.820507999999997
 20
-155.00500099999991
 30
0.0
 40
1.5
  0
CIRCLE
  5
876
  8
DETAIL
  6
CONTINUOUS
 62
     5
 10
-62.820507999999997
 20
-159.00500099999979
 30
0.0
 40
1.5
  0
CIRCLE
  5
877
  8
DETAIL
  6
CONTINUOUS
 62
     5
 10
-62.820507999999997
 20
-163.00500099999991
 30
0.0
 40
1.5
  0
CIRCLE
  5
878
  8
DETAIL
  6
CONTINUOUS
 62
     5
 10
-62.820507999999997
 20
-167.00500099999991
 30
0.0
 40
1.5
  0
CIRCLE
  5
879
  8
DETAIL
  6
CONTINUOUS
 62
     5
 10
-62.820507999999997
 20
-171.00500099999991
 30
0.0
 40
1.5
  0
CIRCLE
  5
87A
  8
DETAIL
  6
CONTINUOUS
 62
     5
 10
-62.820507999999997
 20
-175.00500099999999
 30
0.0
 40
1.5
  0
CIRCLE
  5
87B
  8
DETAIL
  6
CONTINUOUS
 62
     5
 10
-62.820507999999997
 20
-179.00500099999991
 30
0.0
 40
1.5
  0
CIRCLE
  5
87C
  8
DETAIL
  6
CONTINUOUS
 62
     5
 10
-62.820507999999997
 20
-183.00500099999991
 30
0.0
 40
1.5
  0
CIRCLE
  5
87D
  8
DETAIL
  6
CONTINUOUS
 62
     5
 10
-62.820507999999997
 20
-187.00500099999991
 30
0.0
 40
1.5
  0
CIRCLE
  5
87E
  8
DETAIL
  6
CONTINUOUS
 62
     5
 10
-62.820507999999997
 20
-191.00500099999991
 30
0.0
 40
1.5
  0
CIRCLE
  5
87F
  8
DETAIL
  6
CONTINUOUS
 62
     5
 10
-62.820507999999997
 20
-123.00500099999999
 30
0.0
 40
1.5
  0
CIRCLE
  5
880
  8
DETAIL
  6
CONTINUOUS
 62
     5
 10
-69.748711
 20
-123.00500099999999
 30
0.0
 40
1.5
  0
CIRCLE
  5
881
  8
DETAIL
  6
CONTINUOUS
 62
     5
 10
-66.284610000000001
 20
-189.00500099999991
 30
0.0
 40
1.5
  0
CIRCLE
  5
882
  8
DETAIL
  6
CONTINUOUS
 62
     5
 10
-66.284610000000001
 20
-185.00500099999999
 30
0.0
 40
1.5
  0
CIRCLE
  5
883
  8
DETAIL
  6
CONTINUOUS
 62
     5
 10
-66.284610000000001
 20
-181.00500099999991
 30
0.0
 40
1.5
  0
CIRCLE
  5
884
  8
DETAIL
  6
CONTINUOUS
 62
     5
 10
-66.284610000000001
 20
-177.00500099999999
 30
0.0
 40
1.5
  0
CIRCLE
  5
885
  8
DETAIL
  6
CONTINUOUS
 62
     5
 10
-66.284610000000001
 20
-173.00500099999999
 30
0.0
 40
1.5
  0
CIRCLE
  5
886
  8
DETAIL
  6
CONTINUOUS
 62
     5
 10
-66.284610000000001
 20
-169.00500099999999
 30
0.0
 40
1.5
  0
CIRCLE
  5
887
  8
DETAIL
  6
CONTINUOUS
 62
     5
 10
-66.284610000000001
 20
-165.00500099999999
 30
0.0
 40
1.5
  0
CIRCLE
  5
888
  8
DETAIL
  6
CONTINUOUS
 62
     5
 10
-66.284610000000001
 20
-161.00500099999991
 30
0.0
 40
1.5
  0
CIRCLE
  5
889
  8
DETAIL
  6
CONTINUOUS
 62
     5
 10
-66.284610000000001
 20
-157.00500099999991
 30
0.0
 40
1.5
  0
CIRCLE
  5
88A
  8
DETAIL
  6
CONTINUOUS
 62
     5
 10
-66.284610000000001
 20
-153.00500099999999
 30
0.0
 40
1.5
  0
CIRCLE
  5
88B
  8
DETAIL
  6
CONTINUOUS
 62
     5
 10
-66.284610000000001
 20
-149.00500099999999
 30
0.0
 40
1.5
  0
CIRCLE
  5
88C
  8
DETAIL
  6
CONTINUOUS
 62
     5
 10
-66.284610000000001
 20
-145.00500099999999
 30
0.0
 40
1.5
  0
CIRCLE
  5
88D
  8
DETAIL
  6
CONTINUOUS
 62
     5
 10
-66.284610000000001
 20
-141.00500099999991
 30
0.0
 40
1.5
  0
CIRCLE
  5
88E
  8
DETAIL
  6
CONTINUOUS
 62
     5
 10
-66.284610000000001
 20
-137.00500099999991
 30
0.0
 40
1.5
  0
CIRCLE
  5
88F
  8
DETAIL
  6
CONTINUOUS
 62
     5
 10
-66.284610000000001
 20
-133.00500099999991
 30
0.0
 40
1.5
  0
CIRCLE
  5
890
  8
DETAIL
  6
CONTINUOUS
 62
     5
 10
-66.284610000000001
 20
-129.00500099999991
 30
0.0
 40
1.5
  0
CIRCLE
  5
891
  8
DETAIL
  6
CONTINUOUS
 62
     5
 10
-66.284610000000001
 20
-125.00500099999999
 30
0.0
 40
1.5
  0
CIRCLE
  5
892
  8
DETAIL
  6
CONTINUOUS
 62
     5
 10
-69.748711
 20
-191.00500099999991
 30
0.0
 40
1.5
  0
CIRCLE
  5
893
  8
DETAIL
  6
CONTINUOUS
 62
     5
 10
-69.748711
 20
-187.00500099999991
 30
0.0
 40
1.5
  0
CIRCLE
  5
894
  8
DETAIL
  6
CONTINUOUS
 62
     5
 10
-69.748711
 20
-183.00500099999991
 30
0.0
 40
1.5
  0
CIRCLE
  5
895
  8
DETAIL
  6
CONTINUOUS
 62
     5
 10
-69.748711
 20
-179.00500099999991
 30
0.0
 40
1.5
  0
CIRCLE
  5
896
  8
DETAIL
  6
CONTINUOUS
 62
     5
 10
-69.748711
 20
-175.00500099999999
 30
0.0
 40
1.5
  0
CIRCLE
  5
897
  8
DETAIL
  6
CONTINUOUS
 62
     5
 10
-69.748711
 20
-171.00500099999991
 30
0.0
 40
1.5
  0
CIRCLE
  5
898
  8
DETAIL
  6
CONTINUOUS
 62
     5
 10
-69.748711
 20
-167.00500099999991
 30
0.0
 40
1.5
  0
CIRCLE
  5
899
  8
DETAIL
  6
CONTINUOUS
 62
     5
 10
-69.748711
 20
-163.00500099999991
 30
0.0
 40
1.5
  0
CIRCLE
  5
89A
  8
DETAIL
  6
CONTINUOUS
 62
     5
 10
-69.748711
 20
-159.00500099999979
 30
0.0
 40
1.5
  0
CIRCLE
  5
89B
  8
DETAIL
  6
CONTINUOUS
 62
     5
 10
-69.748711
 20
-155.00500099999991
 30
0.0
 40
1.5
  0
CIRCLE
  5
89C
  8
DETAIL
  6
CONTINUOUS
 62
     5
 10
-69.748711
 20
-151.00500099999999
 30
0.0
 40
1.5
  0
CIRCLE
  5
89D
  8
DETAIL
  6
CONTINUOUS
 62
     5
 10
-69.748711
 20
-147.00500099999999
 30
0.0
 40
1.5
  0
CIRCLE
  5
89E
  8
DETAIL
  6
CONTINUOUS
 62
     5
 10
-69.748711
 20
-143.00500099999991
 30
0.0
 40
1.5
  0
CIRCLE
  5
89F
  8
DETAIL
  6
CONTINUOUS
 62
     5
 10
-69.748711
 20
-139.00500099999991
 30
0.0
 40
1.5
  0
CIRCLE
  5
8A0
  8
DETAIL
  6
CONTINUOUS
 62
     5
 10
-69.748711
 20
-135.00500099999991
 30
0.0
 40
1.5
  0
CIRCLE
  5
8A1
  8
DETAIL
  6
CONTINUOUS
 62
     5
 10
-69.748711
 20
-131.00500099999991
 30
0.0
 40
1.5
  0
CIRCLE
  5
8A2
  8
DETAIL
  6
CONTINUOUS
 62
     5
 10
-69.748711
 20
-127.00500099999999
 30
0.0
 40
1.5
  0
CIRCLE
  5
8A3
  8
DETAIL
  6
CONTINUOUS
 62
     5
 10
-76.67691499999998
 20
-127.00500099999999
 30
0.0
 40
1.5
  0
CIRCLE
  5
8A4
  8
DETAIL
  6
CONTINUOUS
 62
     5
 10
-76.67691499999998
 20
-131.00500099999991
 30
0.0
 40
1.5
  0
CIRCLE
  5
8A5
  8
DETAIL
  6
CONTINUOUS
 62
     5
 10
-76.67691499999998
 20
-135.00500099999991
 30
0.0
 40
1.5
  0
CIRCLE
  5
8A6
  8
DETAIL
  6
CONTINUOUS
 62
     5
 10
-76.67691499999998
 20
-139.00500099999991
 30
0.0
 40
1.5
  0
CIRCLE
  5
8A7
  8
DETAIL
  6
CONTINUOUS
 62
     5
 10
-76.67691499999998
 20
-143.00500099999991
 30
0.0
 40
1.5
  0
CIRCLE
  5
8A8
  8
DETAIL
  6
CONTINUOUS
 62
     5
 10
-76.67691499999998
 20
-147.00500099999999
 30
0.0
 40
1.5
  0
CIRCLE
  5
8A9
  8
DETAIL
  6
CONTINUOUS
 62
     5
 10
-76.67691499999998
 20
-151.00500099999999
 30
0.0
 40
1.5
  0
CIRCLE
  5
8AA
  8
DETAIL
  6
CONTINUOUS
 62
     5
 10
-76.67691499999998
 20
-155.00500099999991
 30
0.0
 40
1.5
  0
CIRCLE
  5
8AB
  8
DETAIL
  6
CONTINUOUS
 62
     5
 10
-76.67691499999998
 20
-159.00500099999979
 30
0.0
 40
1.5
  0
CIRCLE
  5
8AC
  8
DETAIL
  6
CONTINUOUS
 62
     5
 10
-76.67691499999998
 20
-163.00500099999991
 30
0.0
 40
1.5
  0
CIRCLE
  5
8AD
  8
DETAIL
  6
CONTINUOUS
 62
     5
 10
-76.67691499999998
 20
-167.00500099999991
 30
0.0
 40
1.5
  0
CIRCLE
  5
8AE
  8
DETAIL
  6
CONTINUOUS
 62
     5
 10
-76.67691499999998
 20
-171.00500099999991
 30
0.0
 40
1.5
  0
CIRCLE
  5
8AF
  8
DETAIL
  6
CONTINUOUS
 62
     5
 10
-76.67691499999998
 20
-175.00500099999999
 30
0.0
 40
1.5
  0
CIRCLE
  5
8B0
  8
DETAIL
  6
CONTINUOUS
 62
     5
 10
-76.67691499999998
 20
-179.00500099999991
 30
0.0
 40
1.5
  0
CIRCLE
  5
8B1
  8
DETAIL
  6
CONTINUOUS
 62
     5
 10
-76.67691499999998
 20
-183.00500099999991
 30
0.0
 40
1.5
  0
CIRCLE
  5
8B2
  8
DETAIL
  6
CONTINUOUS
 62
     5
 10
-76.67691499999998
 20
-187.00500099999991
 30
0.0
 40
1.5
  0
CIRCLE
  5
8B3
  8
DETAIL
  6
CONTINUOUS
 62
     5
 10
-76.67691499999998
 20
-191.00500099999991
 30
0.0
 40
1.5
  0
CIRCLE
  5
8B4
  8
DETAIL
  6
CONTINUOUS
 62
     5
 10
-76.67691499999998
 20
-123.00500099999999
 30
0.0
 40
1.5
  0
CIRCLE
  5
8B5
  8
DETAIL
  6
CONTINUOUS
 62
     5
 10
-73.212812999999983
 20
-125.00500099999999
 30
0.0
 40
1.5
  0
CIRCLE
  5
8B6
  8
DETAIL
  6
CONTINUOUS
 62
     5
 10
-73.212812999999983
 20
-129.00500099999991
 30
0.0
 40
1.5
  0
CIRCLE
  5
8B7
  8
DETAIL
  6
CONTINUOUS
 62
     5
 10
-73.212812999999983
 20
-133.00500099999991
 30
0.0
 40
1.5
  0
CIRCLE
  5
8B8
  8
DETAIL
  6
CONTINUOUS
 62
     5
 10
-73.212812999999983
 20
-137.00500099999991
 30
0.0
 40
1.5
  0
CIRCLE
  5
8B9
  8
DETAIL
  6
CONTINUOUS
 62
     5
 10
-73.212812999999983
 20
-141.00500099999991
 30
0.0
 40
1.5
  0
CIRCLE
  5
8BA
  8
DETAIL
  6
CONTINUOUS
 62
     5
 10
-73.212812999999983
 20
-145.00500099999999
 30
0.0
 40
1.5
  0
CIRCLE
  5
8BB
  8
DETAIL
  6
CONTINUOUS
 62
     5
 10
-73.212812999999983
 20
-149.00500099999999
 30
0.0
 40
1.5
  0
CIRCLE
  5
8BC
  8
DETAIL
  6
CONTINUOUS
 62
     5
 10
-73.212812999999983
 20
-153.00500099999999
 30
0.0
 40
1.5
  0
CIRCLE
  5
8BD
  8
DETAIL
  6
CONTINUOUS
 62
     5
 10
-73.212812999999983
 20
-157.00500099999991
 30
0.0
 40
1.5
  0
CIRCLE
  5
8BE
  8
DETAIL
  6
CONTINUOUS
 62
     5
 10
-73.212812999999983
 20
-161.00500099999991
 30
0.0
 40
1.5
  0
CIRCLE
  5
8BF
  8
DETAIL
  6
CONTINUOUS
 62
     5
 10
-73.212812999999983
 20
-165.00500099999999
 30
0.0
 40
1.5
  0
CIRCLE
  5
8C0
  8
DETAIL
  6
CONTINUOUS
 62
     5
 10
-73.212812999999983
 20
-169.00500099999999
 30
0.0
 40
1.5
  0
CIRCLE
  5
8C1
  8
DETAIL
  6
CONTINUOUS
 62
     5
 10
-73.212812999999983
 20
-173.00500099999999
 30
0.0
 40
1.5
  0
CIRCLE
  5
8C2
  8
DETAIL
  6
CONTINUOUS
 62
     5
 10
-73.212812999999983
 20
-177.00500099999999
 30
0.0
 40
1.5
  0
CIRCLE
  5
8C3
  8
DETAIL
  6
CONTINUOUS
 62
     5
 10
-73.212812999999983
 20
-181.00500099999991
 30
0.0
 40
1.5
  0
CIRCLE
  5
8C4
  8
DETAIL
  6
CONTINUOUS
 62
     5
 10
-73.212812999999983
 20
-185.00500099999999
 30
0.0
 40
1.5
  0
CIRCLE
  5
8C5
  8
DETAIL
  6
CONTINUOUS
 62
     5
 10
-73.212812999999983
 20
-189.00500099999991
 30
0.0
 40
1.5
  0
CIRCLE
  5
8C6
  8
DETAIL
  6
CONTINUOUS
 62
     5
 10
-34.96410199999999
 20
-127.00500099999999
 30
0.0
 40
1.5
  0
CIRCLE
  5
8C7
  8
DETAIL
  6
CONTINUOUS
 62
     5
 10
-34.96410199999999
 20
-131.00500099999991
 30
0.0
 40
1.5
  0
CIRCLE
  5
8C8
  8
DETAIL
  6
CONTINUOUS
 62
     5
 10
-34.96410199999999
 20
-135.00500099999991
 30
0.0
 40
1.5
  0
CIRCLE
  5
8C9
  8
DETAIL
  6
CONTINUOUS
 62
     5
 10
-34.96410199999999
 20
-139.00500099999991
 30
0.0
 40
1.5
  0
CIRCLE
  5
8CA
  8
DETAIL
  6
CONTINUOUS
 62
     5
 10
-34.96410199999999
 20
-143.00500099999991
 30
0.0
 40
1.5
  0
CIRCLE
  5
8CB
  8
DETAIL
  6
CONTINUOUS
 62
     5
 10
-34.96410199999999
 20
-147.00500099999999
 30
0.0
 40
1.5
  0
CIRCLE
  5
8CC
  8
DETAIL
  6
CONTINUOUS
 62
     5
 10
-34.96410199999999
 20
-151.00500099999999
 30
0.0
 40
1.5
  0
CIRCLE
  5
8CD
  8
DETAIL
  6
CONTINUOUS
 62
     5
 10
-34.96410199999999
 20
-155.00500099999991
 30
0.0
 40
1.5
  0
CIRCLE
  5
8CE
  8
DETAIL
  6
CONTINUOUS
 62
     5
 10
-34.96410199999999
 20
-159.00500099999979
 30
0.0
 40
1.5
  0
CIRCLE
  5
8CF
  8
DETAIL
  6
CONTINUOUS
 62
     5
 10
-34.96410199999999
 20
-163.00500099999991
 30
0.0
 40
1.5
  0
CIRCLE
  5
8D0
  8
DETAIL
  6
CONTINUOUS
 62
     5
 10
-34.96410199999999
 20
-167.00500099999991
 30
0.0
 40
1.5
  0
CIRCLE
  5
8D1
  8
DETAIL
  6
CONTINUOUS
 62
     5
 10
-34.96410199999999
 20
-171.00500099999991
 30
0.0
 40
1.5
  0
CIRCLE
  5
8D2
  8
DETAIL
  6
CONTINUOUS
 62
     5
 10
-34.96410199999999
 20
-175.00500099999999
 30
0.0
 40
1.5
  0
CIRCLE
  5
8D3
  8
DETAIL
  6
CONTINUOUS
 62
     5
 10
-34.96410199999999
 20
-179.00500099999991
 30
0.0
 40
1.5
  0
CIRCLE
  5
8D4
  8
DETAIL
  6
CONTINUOUS
 62
     5
 10
-34.96410199999999
 20
-183.00500099999991
 30
0.0
 40
1.5
  0
CIRCLE
  5
8D5
  8
DETAIL
  6
CONTINUOUS
 62
     5
 10
-34.96410199999999
 20
-187.00500099999991
 30
0.0
 40
1.5
  0
CIRCLE
  5
8D6
  8
DETAIL
  6
CONTINUOUS
 62
     5
 10
-34.96410199999999
 20
-191.00500099999991
 30
0.0
 40
1.5
  0
CIRCLE
  5
8D7
  8
DETAIL
  6
CONTINUOUS
 62
     5
 10
-34.96410199999999
 20
-123.00500099999999
 30
0.0
 40
1.5
  0
CIRCLE
  5
8D8
  8
DETAIL
  6
CONTINUOUS
 62
     5
 10
-38.428203000000003
 20
-189.00500099999991
 30
0.0
 40
1.5
  0
CIRCLE
  5
8D9
  8
DETAIL
  6
CONTINUOUS
 62
     5
 10
-38.428203000000003
 20
-185.00500099999999
 30
0.0
 40
1.5
  0
CIRCLE
  5
8DA
  8
DETAIL
  6
CONTINUOUS
 62
     5
 10
-38.428203000000003
 20
-181.00500099999991
 30
0.0
 40
1.5
  0
CIRCLE
  5
8DB
  8
DETAIL
  6
CONTINUOUS
 62
     5
 10
-38.428203000000003
 20
-177.00500099999999
 30
0.0
 40
1.5
  0
CIRCLE
  5
8DC
  8
DETAIL
  6
CONTINUOUS
 62
     5
 10
-38.428203000000003
 20
-173.00500099999999
 30
0.0
 40
1.5
  0
CIRCLE
  5
8DD
  8
DETAIL
  6
CONTINUOUS
 62
     5
 10
-38.428203000000003
 20
-169.00500099999999
 30
0.0
 40
1.5
  0
CIRCLE
  5
8DE
  8
DETAIL
  6
CONTINUOUS
 62
     5
 10
-38.428203000000003
 20
-165.00500099999999
 30
0.0
 40
1.5
  0
CIRCLE
  5
8DF
  8
DETAIL
  6
CONTINUOUS
 62
     5
 10
-38.428203000000003
 20
-161.00500099999991
 30
0.0
 40
1.5
  0
CIRCLE
  5
8E0
  8
DETAIL
  6
CONTINUOUS
 62
     5
 10
-38.428203000000003
 20
-157.00500099999991
 30
0.0
 40
1.5
  0
CIRCLE
  5
8E1
  8
DETAIL
  6
CONTINUOUS
 62
     5
 10
-38.428203000000003
 20
-153.00500099999999
 30
0.0
 40
1.5
  0
CIRCLE
  5
8E2
  8
DETAIL
  6
CONTINUOUS
 62
     5
 10
-38.428203000000003
 20
-149.00500099999999
 30
0.0
 40
1.5
  0
CIRCLE
  5
8E3
  8
DETAIL
  6
CONTINUOUS
 62
     5
 10
-38.428203000000003
 20
-145.00500099999999
 30
0.0
 40
1.5
  0
CIRCLE
  5
8E4
  8
DETAIL
  6
CONTINUOUS
 62
     5
 10
-38.428203000000003
 20
-141.00500099999991
 30
0.0
 40
1.5
  0
CIRCLE
  5
8E5
  8
DETAIL
  6
CONTINUOUS
 62
     5
 10
-38.428203000000003
 20
-137.00500099999991
 30
0.0
 40
1.5
  0
CIRCLE
  5
8E6
  8
DETAIL
  6
CONTINUOUS
 62
     5
 10
-38.428203000000003
 20
-133.00500099999991
 30
0.0
 40
1.5
  0
CIRCLE
  5
8E7
  8
DETAIL
  6
CONTINUOUS
 62
     5
 10
-38.428203000000003
 20
-129.00500099999991
 30
0.0
 40
1.5
  0
CIRCLE
  5
8E8
  8
DETAIL
  6
CONTINUOUS
 62
     5
 10
-38.428203000000003
 20
-125.00500099999999
 30
0.0
 40
1.5
  0
CIRCLE
  5
8E9
  8
DETAIL
  6
CONTINUOUS
 62
     5
 10
-41.892304999999993
 20
-123.00500099999999
 30
0.0
 40
1.5
  0
CIRCLE
  5
8EA
  8
DETAIL
  6
CONTINUOUS
 62
     5
 10
-41.892304999999993
 20
-191.00500099999991
 30
0.0
 40
1.5
  0
CIRCLE
  5
8EB
  8
DETAIL
  6
CONTINUOUS
 62
     5
 10
-41.892304999999993
 20
-187.00500099999991
 30
0.0
 40
1.5
  0
CIRCLE
  5
8EC
  8
DETAIL
  6
CONTINUOUS
 62
     5
 10
-41.892304999999993
 20
-183.00500099999991
 30
0.0
 40
1.5
  0
CIRCLE
  5
8ED
  8
DETAIL
  6
CONTINUOUS
 62
     5
 10
-41.892304999999993
 20
-179.00500099999991
 30
0.0
 40
1.5
  0
CIRCLE
  5
8EE
  8
DETAIL
  6
CONTINUOUS
 62
     5
 10
-41.892304999999993
 20
-175.00500099999999
 30
0.0
 40
1.5
  0
CIRCLE
  5
8EF
  8
DETAIL
  6
CONTINUOUS
 62
     5
 10
-41.892304999999993
 20
-171.00500099999991
 30
0.0
 40
1.5
  0
CIRCLE
  5
8F0
  8
DETAIL
  6
CONTINUOUS
 62
     5
 10
-41.892304999999993
 20
-167.00500099999991
 30
0.0
 40
1.5
  0
CIRCLE
  5
8F1
  8
DETAIL
  6
CONTINUOUS
 62
     5
 10
-41.892304999999993
 20
-163.00500099999991
 30
0.0
 40
1.5
  0
CIRCLE
  5
8F2
  8
DETAIL
  6
CONTINUOUS
 62
     5
 10
-41.892304999999993
 20
-159.00500099999979
 30
0.0
 40
1.5
  0
CIRCLE
  5
8F3
  8
DETAIL
  6
CONTINUOUS
 62
     5
 10
-41.892304999999993
 20
-155.00500099999991
 30
0.0
 40
1.5
  0
CIRCLE
  5
8F4
  8
DETAIL
  6
CONTINUOUS
 62
     5
 10
-41.892304999999993
 20
-151.00500099999999
 30
0.0
 40
1.5
  0
CIRCLE
  5
8F5
  8
DETAIL
  6
CONTINUOUS
 62
     5
 10
-41.892304999999993
 20
-147.00500099999999
 30
0.0
 40
1.5
  0
CIRCLE
  5
8F6
  8
DETAIL
  6
CONTINUOUS
 62
     5
 10
-41.892304999999993
 20
-143.00500099999991
 30
0.0
 40
1.5
  0
CIRCLE
  5
8F7
  8
DETAIL
  6
CONTINUOUS
 62
     5
 10
-41.892304999999993
 20
-139.00500099999991
 30
0.0
 40
1.5
  0
CIRCLE
  5
8F8
  8
DETAIL
  6
CONTINUOUS
 62
     5
 10
-41.892304999999993
 20
-135.00500099999991
 30
0.0
 40
1.5
  0
CIRCLE
  5
8F9
  8
DETAIL
  6
CONTINUOUS
 62
     5
 10
-41.892304999999993
 20
-131.00500099999991
 30
0.0
 40
1.5
  0
CIRCLE
  5
8FA
  8
DETAIL
  6
CONTINUOUS
 62
     5
 10
-41.892304999999993
 20
-127.00500099999999
 30
0.0
 40
1.5
  0
CIRCLE
  5
8FB
  8
DETAIL
  6
CONTINUOUS
 62
     5
 10
-31.5
 20
-125.00500099999999
 30
0.0
 40
1.5
  0
CIRCLE
  5
8FC
  8
DETAIL
  6
CONTINUOUS
 62
     5
 10
-31.5
 20
-129.00500099999991
 30
0.0
 40
1.5
  0
CIRCLE
  5
8FD
  8
DETAIL
  6
CONTINUOUS
 62
     5
 10
-31.5
 20
-133.00500099999991
 30
0.0
 40
1.5
  0
CIRCLE
  5
8FE
  8
DETAIL
  6
CONTINUOUS
 62
     5
 10
-31.5
 20
-137.00500099999991
 30
0.0
 40
1.5
  0
CIRCLE
  5
8FF
  8
DETAIL
  6
CONTINUOUS
 62
     5
 10
-31.5
 20
-141.00500099999991
 30
0.0
 40
1.5
  0
CIRCLE
  5
900
  8
DETAIL
  6
CONTINUOUS
 62
     5
 10
-31.5
 20
-145.00500099999999
 30
0.0
 40
1.5
  0
CIRCLE
  5
901
  8
DETAIL
  6
CONTINUOUS
 62
     5
 10
-31.5
 20
-149.00500099999999
 30
0.0
 40
1.5
  0
CIRCLE
  5
902
  8
DETAIL
  6
CONTINUOUS
 62
     5
 10
-31.5
 20
-153.00500099999999
 30
0.0
 40
1.5
  0
CIRCLE
  5
903
  8
DETAIL
  6
CONTINUOUS
 62
     5
 10
-31.5
 20
-157.00500099999991
 30
0.0
 40
1.5
  0
CIRCLE
  5
904
  8
DETAIL
  6
CONTINUOUS
 62
     5
 10
-31.5
 20
-161.00500099999991
 30
0.0
 40
1.5
  0
CIRCLE
  5
905
  8
DETAIL
  6
CONTINUOUS
 62
     5
 10
-31.5
 20
-165.00500099999999
 30
0.0
 40
1.5
  0
CIRCLE
  5
906
  8
DETAIL
  6
CONTINUOUS
 62
     5
 10
-31.5
 20
-169.00500099999999
 30
0.0
 40
1.5
  0
CIRCLE
  5
907
  8
DETAIL
  6
CONTINUOUS
 62
     5
 10
-31.5
 20
-173.00500099999999
 30
0.0
 40
1.5
  0
CIRCLE
  5
908
  8
DETAIL
  6
CONTINUOUS
 62
     5
 10
-31.5
 20
-177.00500099999999
 30
0.0
 40
1.5
  0
CIRCLE
  5
909
  8
DETAIL
  6
CONTINUOUS
 62
     5
 10
-31.5
 20
-181.00500099999991
 30
0.0
 40
1.5
  0
CIRCLE
  5
90A
  8
DETAIL
  6
CONTINUOUS
 62
     5
 10
-31.5
 20
-185.00500099999999
 30
0.0
 40
1.5
  0
CIRCLE
  5
90B
  8
DETAIL
  6
CONTINUOUS
 62
     5
 10
-31.5
 20
-189.00500099999991
 30
0.0
 40
1.5
  0
CIRCLE
  5
90C
  8
DETAIL
  6
CONTINUOUS
 62
     5
 10
-55.820507999999997
 20
-127.00500099999999
 30
0.0
 40
1.5
  0
CIRCLE
  5
90D
  8
DETAIL
  6
CONTINUOUS
 62
     5
 10
-55.820507999999997
 20
-131.00500099999991
 30
0.0
 40
1.5
  0
CIRCLE
  5
90E
  8
DETAIL
  6
CONTINUOUS
 62
     5
 10
-55.820507999999997
 20
-135.00500099999991
 30
0.0
 40
1.5
  0
CIRCLE
  5
90F
  8
DETAIL
  6
CONTINUOUS
 62
     5
 10
-55.820507999999997
 20
-139.00500099999991
 30
0.0
 40
1.5
  0
CIRCLE
  5
910
  8
DETAIL
  6
CONTINUOUS
 62
     5
 10
-55.820507999999997
 20
-143.00500099999991
 30
0.0
 40
1.5
  0
CIRCLE
  5
911
  8
DETAIL
  6
CONTINUOUS
 62
     5
 10
-55.820507999999997
 20
-147.00500099999999
 30
0.0
 40
1.5
  0
CIRCLE
  5
912
  8
DETAIL
  6
CONTINUOUS
 62
     5
 10
-55.820507999999997
 20
-151.00500099999999
 30
0.0
 40
1.5
  0
CIRCLE
  5
913
  8
DETAIL
  6
CONTINUOUS
 62
     5
 10
-55.820507999999997
 20
-155.00500099999991
 30
0.0
 40
1.5
  0
CIRCLE
  5
914
  8
DETAIL
  6
CONTINUOUS
 62
     5
 10
-55.820507999999997
 20
-159.00500099999979
 30
0.0
 40
1.5
  0
CIRCLE
  5
915
  8
DETAIL
  6
CONTINUOUS
 62
     5
 10
-55.820507999999997
 20
-163.00500099999991
 30
0.0
 40
1.5
  0
CIRCLE
  5
916
  8
DETAIL
  6
CONTINUOUS
 62
     5
 10
-55.820507999999997
 20
-167.00500099999991
 30
0.0
 40
1.5
  0
CIRCLE
  5
917
  8
DETAIL
  6
CONTINUOUS
 62
     5
 10
-55.820507999999997
 20
-171.00500099999991
 30
0.0
 40
1.5
  0
CIRCLE
  5
918
  8
DETAIL
  6
CONTINUOUS
 62
     5
 10
-55.820507999999997
 20
-175.00500099999999
 30
0.0
 40
1.5
  0
CIRCLE
  5
919
  8
DETAIL
  6
CONTINUOUS
 62
     5
 10
-55.820507999999997
 20
-179.00500099999991
 30
0.0
 40
1.5
  0
CIRCLE
  5
91A
  8
DETAIL
  6
CONTINUOUS
 62
     5
 10
-55.820507999999997
 20
-183.00500099999991
 30
0.0
 40
1.5
  0
CIRCLE
  5
91B
  8
DETAIL
  6
CONTINUOUS
 62
     5
 10
-55.820507999999997
 20
-187.00500099999991
 30
0.0
 40
1.5
  0
CIRCLE
  5
91C
  8
DETAIL
  6
CONTINUOUS
 62
     5
 10
-55.820507999999997
 20
-191.00500099999991
 30
0.0
 40
1.5
  0
CIRCLE
  5
91D
  8
DETAIL
  6
CONTINUOUS
 62
     5
 10
-52.356405999999993
 20
-125.00500099999999
 30
0.0
 40
1.5
  0
CIRCLE
  5
91E
  8
DETAIL
  6
CONTINUOUS
 62
     5
 10
-52.356405999999993
 20
-129.00500099999991
 30
0.0
 40
1.5
  0
CIRCLE
  5
91F
  8
DETAIL
  6
CONTINUOUS
 62
     5
 10
-52.356405999999993
 20
-133.00500099999991
 30
0.0
 40
1.5
  0
CIRCLE
  5
920
  8
DETAIL
  6
CONTINUOUS
 62
     5
 10
-52.356405999999993
 20
-137.00500099999991
 30
0.0
 40
1.5
  0
CIRCLE
  5
921
  8
DETAIL
  6
CONTINUOUS
 62
     5
 10
-52.356405999999993
 20
-141.00500099999991
 30
0.0
 40
1.5
  0
CIRCLE
  5
922
  8
DETAIL
  6
CONTINUOUS
 62
     5
 10
-52.356405999999993
 20
-145.00500099999999
 30
0.0
 40
1.5
  0
CIRCLE
  5
923
  8
DETAIL
  6
CONTINUOUS
 62
     5
 10
-52.356405999999993
 20
-149.00500099999999
 30
0.0
 40
1.5
  0
CIRCLE
  5
924
  8
DETAIL
  6
CONTINUOUS
 62
     5
 10
-52.356405999999993
 20
-153.00500099999999
 30
0.0
 40
1.5
  0
CIRCLE
  5
925
  8
DETAIL
  6
CONTINUOUS
 62
     5
 10
-52.356405999999993
 20
-157.00500099999991
 30
0.0
 40
1.5
  0
CIRCLE
  5
926
  8
DETAIL
  6
CONTINUOUS
 62
     5
 10
-52.356405999999993
 20
-161.00500099999991
 30
0.0
 40
1.5
  0
CIRCLE
  5
927
  8
DETAIL
  6
CONTINUOUS
 62
     5
 10
-52.356405999999993
 20
-165.00500099999999
 30
0.0
 40
1.5
  0
CIRCLE
  5
928
  8
DETAIL
  6
CONTINUOUS
 62
     5
 10
-52.356405999999993
 20
-169.00500099999999
 30
0.0
 40
1.5
  0
CIRCLE
  5
929
  8
DETAIL
  6
CONTINUOUS
 62
     5
 10
-52.356405999999993
 20
-173.00500099999999
 30
0.0
 40
1.5
  0
CIRCLE
  5
92A
  8
DETAIL
  6
CONTINUOUS
 62
     5
 10
-52.356405999999993
 20
-177.00500099999999
 30
0.0
 40
1.5
  0
CIRCLE
  5
92B
  8
DETAIL
  6
CONTINUOUS
 62
     5
 10
-52.356405999999993
 20
-181.00500099999991
 30
0.0
 40
1.5
  0
CIRCLE
  5
92C
  8
DETAIL
  6
CONTINUOUS
 62
     5
 10
-52.356405999999993
 20
-185.00500099999999
 30
0.0
 40
1.5
  0
CIRCLE
  5
92D
  8
DETAIL
  6
CONTINUOUS
 62
     5
 10
-52.356405999999993
 20
-189.00500099999991
 30
0.0
 40
1.5
  0
CIRCLE
  5
92E
  8
DETAIL
  6
CONTINUOUS
 62
     5
 10
-55.820507999999997
 20
-123.00500099999999
 30
0.0
 40
1.5
  0
CIRCLE
  5
92F
  8
DETAIL
  6
CONTINUOUS
 62
     5
 10
-48.892305
 20
-123.00500099999999
 30
0.0
 40
1.5
  0
CIRCLE
  5
930
  8
DETAIL
  6
CONTINUOUS
 62
     5
 10
-48.892305
 20
-191.00500099999991
 30
0.0
 40
1.5
  0
CIRCLE
  5
931
  8
DETAIL
  6
CONTINUOUS
 62
     5
 10
-48.892305
 20
-187.00500099999991
 30
0.0
 40
1.5
  0
CIRCLE
  5
932
  8
DETAIL
  6
CONTINUOUS
 62
     5
 10
-48.892305
 20
-183.00500099999991
 30
0.0
 40
1.5
  0
CIRCLE
  5
933
  8
DETAIL
  6
CONTINUOUS
 62
     5
 10
-48.892305
 20
-179.00500099999991
 30
0.0
 40
1.5
  0
CIRCLE
  5
934
  8
DETAIL
  6
CONTINUOUS
 62
     5
 10
-48.892305
 20
-175.00500099999999
 30
0.0
 40
1.5
  0
CIRCLE
  5
935
  8
DETAIL
  6
CONTINUOUS
 62
     5
 10
-48.892305
 20
-171.00500099999991
 30
0.0
 40
1.5
  0
CIRCLE
  5
936
  8
DETAIL
  6
CONTINUOUS
 62
     5
 10
-48.892305
 20
-167.00500099999991
 30
0.0
 40
1.5
  0
CIRCLE
  5
937
  8
DETAIL
  6
CONTINUOUS
 62
     5
 10
-48.892305
 20
-163.00500099999991
 30
0.0
 40
1.5
  0
CIRCLE
  5
938
  8
DETAIL
  6
CONTINUOUS
 62
     5
 10
-48.892305
 20
-159.00500099999979
 30
0.0
 40
1.5
  0
CIRCLE
  5
939
  8
DETAIL
  6
CONTINUOUS
 62
     5
 10
-48.892305
 20
-155.00500099999991
 30
0.0
 40
1.5
  0
CIRCLE
  5
93A
  8
DETAIL
  6
CONTINUOUS
 62
     5
 10
-48.892305
 20
-151.00500099999999
 30
0.0
 40
1.5
  0
CIRCLE
  5
93B
  8
DETAIL
  6
CONTINUOUS
 62
     5
 10
-48.892305
 20
-147.00500099999999
 30
0.0
 40
1.5
  0
CIRCLE
  5
93C
  8
DETAIL
  6
CONTINUOUS
 62
     5
 10
-48.892305
 20
-143.00500099999991
 30
0.0
 40
1.5
  0
CIRCLE
  5
93D
  8
DETAIL
  6
CONTINUOUS
 62
     5
 10
-48.892305
 20
-139.00500099999991
 30
0.0
 40
1.5
  0
CIRCLE
  5
93E
  8
DETAIL
  6
CONTINUOUS
 62
     5
 10
-48.892305
 20
-135.00500099999991
 30
0.0
 40
1.5
  0
CIRCLE
  5
93F
  8
DETAIL
  6
CONTINUOUS
 62
     5
 10
-48.892305
 20
-131.00500099999991
 30
0.0
 40
1.5
  0
CIRCLE
  5
940
  8
DETAIL
  6
CONTINUOUS
 62
     5
 10
-48.892305
 20
-127.00500099999999
 30
0.0
 40
1.5
  0
CIRCLE
  5
941
  8
DETAIL
  6
CONTINUOUS
 62
     5
 10
-45.428203000000003
 20
-189.00500099999991
 30
0.0
 40
1.5
  0
CIRCLE
  5
942
  8
DETAIL
  6
CONTINUOUS
 62
     5
 10
-45.428203000000003
 20
-185.00500099999999
 30
0.0
 40
1.5
  0
CIRCLE
  5
943
  8
DETAIL
  6
CONTINUOUS
 62
     5
 10
-45.428203000000003
 20
-181.00500099999991
 30
0.0
 40
1.5
  0
CIRCLE
  5
944
  8
DETAIL
  6
CONTINUOUS
 62
     5
 10
-45.428203000000003
 20
-177.00500099999999
 30
0.0
 40
1.5
  0
CIRCLE
  5
945
  8
DETAIL
  6
CONTINUOUS
 62
     5
 10
-45.428203000000003
 20
-173.00500099999999
 30
0.0
 40
1.5
  0
CIRCLE
  5
946
  8
DETAIL
  6
CONTINUOUS
 62
     5
 10
-45.428203000000003
 20
-169.00500099999999
 30
0.0
 40
1.5
  0
CIRCLE
  5
947
  8
DETAIL
  6
CONTINUOUS
 62
     5
 10
-45.428203000000003
 20
-165.00500099999999
 30
0.0
 40
1.5
  0
CIRCLE
  5
948
  8
DETAIL
  6
CONTINUOUS
 62
     5
 10
-45.428203000000003
 20
-161.00500099999991
 30
0.0
 40
1.5
  0
CIRCLE
  5
949
  8
DETAIL
  6
CONTINUOUS
 62
     5
 10
-45.428203000000003
 20
-157.00500099999991
 30
0.0
 40
1.5
  0
CIRCLE
  5
94A
  8
DETAIL
  6
CONTINUOUS
 62
     5
 10
-45.428203000000003
 20
-153.00500099999999
 30
0.0
 40
1.5
  0
CIRCLE
  5
94B
  8
DETAIL
  6
CONTINUOUS
 62
     5
 10
-45.428203000000003
 20
-149.00500099999999
 30
0.0
 40
1.5
  0
CIRCLE
  5
94C
  8
DETAIL
  6
CONTINUOUS
 62
     5
 10
-45.428203000000003
 20
-145.00500099999999
 30
0.0
 40
1.5
  0
CIRCLE
  5
94D
  8
DETAIL
  6
CONTINUOUS
 62
     5
 10
-45.428203000000003
 20
-141.00500099999991
 30
0.0
 40
1.5
  0
CIRCLE
  5
94E
  8
DETAIL
  6
CONTINUOUS
 62
     5
 10
-45.428203000000003
 20
-137.00500099999991
 30
0.0
 40
1.5
  0
CIRCLE
  5
94F
  8
DETAIL
  6
CONTINUOUS
 62
     5
 10
-45.428203000000003
 20
-133.00500099999991
 30
0.0
 40
1.5
  0
CIRCLE
  5
950
  8
DETAIL
  6
CONTINUOUS
 62
     5
 10
-45.428203000000003
 20
-129.00500099999991
 30
0.0
 40
1.5
  0
CIRCLE
  5
951
  8
DETAIL
  6
CONTINUOUS
 62
     5
 10
-45.428203000000003
 20
-125.00500099999999
 30
0.0
 40
1.5
  0
CIRCLE
  5
952
  8
DETAIL
  6
CONTINUOUS
 62
     5
 10
-80.141015999999993
 20
-58.899999999999999
 30
0.0
 40
1.5
  0
CIRCLE
  5
953
  8
DETAIL
  6
CONTINUOUS
 62
     5
 10
-80.141015999999993
 20
-62.899999999999999
 30
0.0
 40
1.5
  0
CIRCLE
  5
954
  8
DETAIL
  6
CONTINUOUS
 62
     5
 10
-80.141015999999993
 20
-66.900000000000006
 30
0.0
 40
1.5
  0
CIRCLE
  5
955
  8
DETAIL
  6
CONTINUOUS
 62
     5
 10
-80.141015999999993
 20
-117.00500099999989
 30
0.0
 40
1.5
  0
CIRCLE
  5
956
  8
DETAIL
  6
CONTINUOUS
 62
     5
 10
-80.141015999999993
 20
-2.8999999999999999
 30
0.0
 40
1.5
  0
CIRCLE
  5
957
  8
DETAIL
  6
CONTINUOUS
 62
     5
 10
-80.141015999999993
 20
-50.899999999999991
 30
0.0
 40
1.5
  0
CIRCLE
  5
958
  8
DETAIL
  6
CONTINUOUS
 62
     5
 10
-80.141015999999993
 20
-46.899999999999999
 30
0.0
 40
1.5
  0
CIRCLE
  5
959
  8
DETAIL
  6
CONTINUOUS
 62
     5
 10
-80.141015999999993
 20
-42.899999999999999
 30
0.0
 40
1.5
  0
CIRCLE
  5
95A
  8
DETAIL
  6
CONTINUOUS
 62
     5
 10
-80.141015999999993
 20
-38.899999999999999
 30
0.0
 40
1.5
  0
CIRCLE
  5
95B
  8
DETAIL
  6
CONTINUOUS
 62
     5
 10
-80.141015999999993
 20
-34.899999999999999
 30
0.0
 40
1.5
  0
CIRCLE
  5
95C
  8
DETAIL
  6
CONTINUOUS
 62
     5
 10
-80.141015999999993
 20
-30.899999999999991
 30
0.0
 40
1.5
  0
CIRCLE
  5
95D
  8
DETAIL
  6
CONTINUOUS
 62
     5
 10
-80.141015999999993
 20
-26.899999999999991
 30
0.0
 40
1.5
  0
CIRCLE
  5
95E
  8
DETAIL
  6
CONTINUOUS
 62
     5
 10
-80.141015999999993
 20
-22.899999999999999
 30
0.0
 40
1.5
  0
CIRCLE
  5
95F
  8
DETAIL
  6
CONTINUOUS
 62
     5
 10
-80.141015999999993
 20
-18.899999999999991
 30
0.0
 40
1.5
  0
CIRCLE
  5
960
  8
DETAIL
  6
CONTINUOUS
 62
     5
 10
-80.141015999999993
 20
-14.9
 30
0.0
 40
1.5
  0
CIRCLE
  5
961
  8
DETAIL
  6
CONTINUOUS
 62
     5
 10
-80.141015999999993
 20
-10.9
 30
0.0
 40
1.5
  0
CIRCLE
  5
962
  8
DETAIL
  6
CONTINUOUS
 62
     5
 10
-80.141015999999993
 20
-6.9000000000000004
 30
0.0
 40
1.5
  0
CIRCLE
  5
963
  8
DETAIL
  6
CONTINUOUS
 62
     5
 10
-80.141015999999993
 20
-54.899999999999999
 30
0.0
 40
1.5
  0
CIRCLE
  5
964
  8
DETAIL
  6
CONTINUOUS
 62
     5
 10
-80.141015999999993
 20
-70.615029000000021
 30
0.0
 40
1.5
  0
CIRCLE
  5
965
  8
DETAIL
  6
CONTINUOUS
 62
     5
 10
-80.141015999999993
 20
-113.00500099999989
 30
0.0
 40
1.5
  0
CIRCLE
  5
966
  8
DETAIL
  6
CONTINUOUS
 62
     5
 10
-62.820507999999997
 20
-115.00500099999989
 30
0.0
 40
1.5
  0
CIRCLE
  5
967
  8
DETAIL
  6
CONTINUOUS
 62
     5
 10
-66.284610000000001
 20
-113.00500099999989
 30
0.0
 40
1.5
  0
CIRCLE
  5
968
  8
DETAIL
  6
CONTINUOUS
 62
     5
 10
-59.356406000000007
 20
-117.00500099999989
 30
0.0
 40
1.5
  0
CIRCLE
  5
969
  8
DETAIL
  6
CONTINUOUS
 62
     5
 10
-66.284610000000001
 20
-58.899999999999999
 30
0.0
 40
1.5
  0
CIRCLE
  5
96A
  8
DETAIL
  6
CONTINUOUS
 62
     5
 10
-62.820507999999997
 20
-60.899999999999991
 30
0.0
 40
1.5
  0
CIRCLE
  5
96B
  8
DETAIL
  6
CONTINUOUS
 62
     5
 10
-69.748711
 20
-60.899999999999991
 30
0.0
 40
1.5
  0
CIRCLE
  5
96C
  8
DETAIL
  6
CONTINUOUS
 62
     5
 10
-66.284610000000001
 20
-62.899999999999999
 30
0.0
 40
1.5
  0
CIRCLE
  5
96D
  8
DETAIL
  6
CONTINUOUS
 62
     5
 10
-62.820507999999997
 20
-64.900000000000006
 30
0.0
 40
1.5
  0
CIRCLE
  5
96E
  8
DETAIL
  6
CONTINUOUS
 62
     5
 10
-69.748711
 20
-64.900000000000006
 30
0.0
 40
1.5
  0
CIRCLE
  5
96F
  8
DETAIL
  6
CONTINUOUS
 62
     5
 10
-66.284610000000001
 20
-66.900000000000006
 30
0.0
 40
1.5
  0
CIRCLE
  5
970
  8
DETAIL
  6
CONTINUOUS
 62
     5
 10
-62.820507999999997
 20
-68.615029000000007
 30
0.0
 40
1.5
  0
CIRCLE
  5
971
  8
DETAIL
  6
CONTINUOUS
 62
     5
 10
-69.748711
 20
-68.615029000000007
 30
0.0
 40
1.5
  0
CIRCLE
  5
972
  8
DETAIL
  6
CONTINUOUS
 62
     5
 10
-69.748711
 20
-111.00500099999989
 30
0.0
 40
1.5
  0
CIRCLE
  5
973
  8
DETAIL
  6
CONTINUOUS
 62
     5
 10
-62.820507999999997
 20
-111.00500099999989
 30
0.0
 40
1.5
  0
CIRCLE
  5
974
  8
DETAIL
  6
CONTINUOUS
 62
     5
 10
-66.284610000000001
 20
-70.615029000000021
 30
0.0
 40
1.5
  0
CIRCLE
  5
975
  8
DETAIL
  6
CONTINUOUS
 62
     5
 10
-59.356406000000007
 20
-70.615029000000021
 30
0.0
 40
1.5
  0
CIRCLE
  5
976
  8
DETAIL
  6
CONTINUOUS
 62
     5
 10
-66.284610000000001
 20
-117.00500099999989
 30
0.0
 40
1.5
  0
CIRCLE
  5
977
  8
DETAIL
  6
CONTINUOUS
 62
     5
 10
-69.748711
 20
-115.00500099999989
 30
0.0
 40
1.5
  0
CIRCLE
  5
978
  8
DETAIL
  6
CONTINUOUS
 62
     5
 10
-59.356406000000007
 20
-58.899999999999999
 30
0.0
 40
1.5
  0
CIRCLE
  5
979
  8
DETAIL
  6
CONTINUOUS
 62
     5
 10
-59.356406000000007
 20
-50.899999999999991
 30
0.0
 40
1.5
  0
CIRCLE
  5
97A
  8
DETAIL
  6
CONTINUOUS
 62
     5
 10
-62.820507999999997
 20
-52.899999999999999
 30
0.0
 40
1.5
  0
CIRCLE
  5
97B
  8
DETAIL
  6
CONTINUOUS
 62
     5
 10
-59.356406000000007
 20
-66.900000000000006
 30
0.0
 40
1.5
  0
CIRCLE
  5
97C
  8
DETAIL
  6
CONTINUOUS
 62
     5
 10
-59.356406000000007
 20
-62.899999999999999
 30
0.0
 40
1.5
  0
CIRCLE
  5
97D
  8
DETAIL
  6
CONTINUOUS
 62
     5
 10
-59.356406000000007
 20
-46.899999999999999
 30
0.0
 40
1.5
  0
CIRCLE
  5
97E
  8
DETAIL
  6
CONTINUOUS
 62
     5
 10
-59.356406000000007
 20
-42.899999999999999
 30
0.0
 40
1.5
  0
CIRCLE
  5
97F
  8
DETAIL
  6
CONTINUOUS
 62
     5
 10
-59.356406000000007
 20
-38.899999999999999
 30
0.0
 40
1.5
  0
CIRCLE
  5
980
  8
DETAIL
  6
CONTINUOUS
 62
     5
 10
-59.356406000000007
 20
-34.899999999999999
 30
0.0
 40
1.5
  0
CIRCLE
  5
981
  8
DETAIL
  6
CONTINUOUS
 62
     5
 10
-59.356406000000007
 20
-30.899999999999991
 30
0.0
 40
1.5
  0
CIRCLE
  5
982
  8
DETAIL
  6
CONTINUOUS
 62
     5
 10
-59.356406000000007
 20
-26.899999999999991
 30
0.0
 40
1.5
  0
CIRCLE
  5
983
  8
DETAIL
  6
CONTINUOUS
 62
     5
 10
-59.356406000000007
 20
-22.899999999999999
 30
0.0
 40
1.5
  0
CIRCLE
  5
984
  8
DETAIL
  6
CONTINUOUS
 62
     5
 10
-59.356406000000007
 20
-18.899999999999991
 30
0.0
 40
1.5
  0
CIRCLE
  5
985
  8
DETAIL
  6
CONTINUOUS
 62
     5
 10
-59.356406000000007
 20
-14.9
 30
0.0
 40
1.5
  0
CIRCLE
  5
986
  8
DETAIL
  6
CONTINUOUS
 62
     5
 10
-59.356406000000007
 20
-10.9
 30
0.0
 40
1.5
  0
CIRCLE
  5
987
  8
DETAIL
  6
CONTINUOUS
 62
     5
 10
-59.356406000000007
 20
-6.9000000000000004
 30
0.0
 40
1.5
  0
CIRCLE
  5
988
  8
DETAIL
  6
CONTINUOUS
 62
     5
 10
-59.356406000000007
 20
-54.899999999999999
 30
0.0
 40
1.5
  0
CIRCLE
  5
989
  8
DETAIL
  6
CONTINUOUS
 62
     5
 10
-59.356406000000007
 20
-113.00500099999989
 30
0.0
 40
1.5
  0
CIRCLE
  5
98A
  8
DETAIL
  6
CONTINUOUS
 62
     5
 10
-62.820507999999997
 20
-48.899999999999999
 30
0.0
 40
1.5
  0
CIRCLE
  5
98B
  8
DETAIL
  6
CONTINUOUS
 62
     5
 10
-62.820507999999997
 20
-44.899999999999999
 30
0.0
 40
1.5
  0
CIRCLE
  5
98C
  8
DETAIL
  6
CONTINUOUS
 62
     5
 10
-62.820507999999997
 20
-40.899999999999977
 30
0.0
 40
1.5
  0
CIRCLE
  5
98D
  8
DETAIL
  6
CONTINUOUS
 62
     5
 10
-62.820507999999997
 20
-36.899999999999991
 30
0.0
 40
1.5
  0
CIRCLE
  5
98E
  8
DETAIL
  6
CONTINUOUS
 62
     5
 10
-62.820507999999997
 20
-32.899999999999999
 30
0.0
 40
1.5
  0
CIRCLE
  5
98F
  8
DETAIL
  6
CONTINUOUS
 62
     5
 10
-62.820507999999997
 20
-28.899999999999999
 30
0.0
 40
1.5
  0
CIRCLE
  5
990
  8
DETAIL
  6
CONTINUOUS
 62
     5
 10
-62.820507999999997
 20
-24.899999999999999
 30
0.0
 40
1.5
  0
CIRCLE
  5
991
  8
DETAIL
  6
CONTINUOUS
 62
     5
 10
-62.820507999999997
 20
-20.899999999999991
 30
0.0
 40
1.5
  0
CIRCLE
  5
992
  8
DETAIL
  6
CONTINUOUS
 62
     5
 10
-62.820507999999997
 20
-16.899999999999991
 30
0.0
 40
1.5
  0
CIRCLE
  5
993
  8
DETAIL
  6
CONTINUOUS
 62
     5
 10
-62.820507999999997
 20
-12.9
 30
0.0
 40
1.5
  0
CIRCLE
  5
994
  8
DETAIL
  6
CONTINUOUS
 62
     5
 10
-62.820507999999997
 20
-8.9000000000000004
 30
0.0
 40
1.5
  0
CIRCLE
  5
995
  8
DETAIL
  6
CONTINUOUS
 62
     5
 10
-62.820507999999997
 20
-4.9000000000000004
 30
0.0
 40
1.5
  0
CIRCLE
  5
996
  8
DETAIL
  6
CONTINUOUS
 62
     5
 10
-62.820507999999997
 20
-56.899999999999999
 30
0.0
 40
1.5
  0
CIRCLE
  5
997
  8
DETAIL
  6
CONTINUOUS
 62
     5
 10
-62.820507999999997
 20
-119.00500099999999
 30
0.0
 40
1.5
  0
CIRCLE
  5
998
  8
DETAIL
  6
CONTINUOUS
 62
     5
 10
-69.748711
 20
-4.9000000000000004
 30
0.0
 40
1.5
  0
CIRCLE
  5
999
  8
DETAIL
  6
CONTINUOUS
 62
     5
 10
-66.284610000000001
 20
-6.9000000000000004
 30
0.0
 40
1.5
  0
CIRCLE
  5
99A
  8
DETAIL
  6
CONTINUOUS
 62
     5
 10
-69.748711
 20
-8.9000000000000004
 30
0.0
 40
1.5
  0
CIRCLE
  5
99B
  8
DETAIL
  6
CONTINUOUS
 62
     5
 10
-66.284610000000001
 20
-10.9
 30
0.0
 40
1.5
  0
CIRCLE
  5
99C
  8
DETAIL
  6
CONTINUOUS
 62
     5
 10
-66.284610000000001
 20
-14.9
 30
0.0
 40
1.5
  0
CIRCLE
  5
99D
  8
DETAIL
  6
CONTINUOUS
 62
     5
 10
-66.284610000000001
 20
-18.899999999999991
 30
0.0
 40
1.5
  0
CIRCLE
  5
99E
  8
DETAIL
  6
CONTINUOUS
 62
     5
 10
-66.284610000000001
 20
-22.899999999999999
 30
0.0
 40
1.5
  0
CIRCLE
  5
99F
  8
DETAIL
  6
CONTINUOUS
 62
     5
 10
-66.284610000000001
 20
-26.899999999999991
 30
0.0
 40
1.5
  0
CIRCLE
  5
9A0
  8
DETAIL
  6
CONTINUOUS
 62
     5
 10
-59.356406000000007
 20
-2.8999999999999999
 30
0.0
 40
1.5
  0
CIRCLE
  5
9A1
  8
DETAIL
  6
CONTINUOUS
 62
     5
 10
-66.284610000000001
 20
-2.8999999999999999
 30
0.0
 40
1.5
  0
CIRCLE
  5
9A2
  8
DETAIL
  6
CONTINUOUS
 62
     5
 10
-66.284610000000001
 20
-54.899999999999999
 30
0.0
 40
1.5
  0
CIRCLE
  5
9A3
  8
DETAIL
  6
CONTINUOUS
 62
     5
 10
-66.284610000000001
 20
-30.899999999999991
 30
0.0
 40
1.5
  0
CIRCLE
  5
9A4
  8
DETAIL
  6
CONTINUOUS
 62
     5
 10
-66.284610000000001
 20
-34.899999999999999
 30
0.0
 40
1.5
  0
CIRCLE
  5
9A5
  8
DETAIL
  6
CONTINUOUS
 62
     5
 10
-66.284610000000001
 20
-38.899999999999999
 30
0.0
 40
1.5
  0
CIRCLE
  5
9A6
  8
DETAIL
  6
CONTINUOUS
 62
     5
 10
-66.284610000000001
 20
-42.899999999999999
 30
0.0
 40
1.5
  0
CIRCLE
  5
9A7
  8
DETAIL
  6
CONTINUOUS
 62
     5
 10
-66.284610000000001
 20
-46.899999999999999
 30
0.0
 40
1.5
  0
CIRCLE
  5
9A8
  8
DETAIL
  6
CONTINUOUS
 62
     5
 10
-66.284610000000001
 20
-50.899999999999991
 30
0.0
 40
1.5
  0
CIRCLE
  5
9A9
  8
DETAIL
  6
CONTINUOUS
 62
     5
 10
-69.748711
 20
-56.899999999999999
 30
0.0
 40
1.5
  0
CIRCLE
  5
9AA
  8
DETAIL
  6
CONTINUOUS
 62
     5
 10
-69.748711
 20
-12.9
 30
0.0
 40
1.5
  0
CIRCLE
  5
9AB
  8
DETAIL
  6
CONTINUOUS
 62
     5
 10
-69.748711
 20
-16.899999999999991
 30
0.0
 40
1.5
  0
CIRCLE
  5
9AC
  8
DETAIL
  6
CONTINUOUS
 62
     5
 10
-69.748711
 20
-20.899999999999991
 30
0.0
 40
1.5
  0
CIRCLE
  5
9AD
  8
DETAIL
  6
CONTINUOUS
 62
     5
 10
-69.748711
 20
-24.899999999999999
 30
0.0
 40
1.5
  0
CIRCLE
  5
9AE
  8
DETAIL
  6
CONTINUOUS
 62
     5
 10
-69.748711
 20
-28.899999999999999
 30
0.0
 40
1.5
  0
CIRCLE
  5
9AF
  8
DETAIL
  6
CONTINUOUS
 62
     5
 10
-69.748711
 20
-32.899999999999999
 30
0.0
 40
1.5
  0
CIRCLE
  5
9B0
  8
DETAIL
  6
CONTINUOUS
 62
     5
 10
-69.748711
 20
-36.899999999999991
 30
0.0
 40
1.5
  0
CIRCLE
  5
9B1
  8
DETAIL
  6
CONTINUOUS
 62
     5
 10
-69.748711
 20
-40.899999999999977
 30
0.0
 40
1.5
  0
CIRCLE
  5
9B2
  8
DETAIL
  6
CONTINUOUS
 62
     5
 10
-69.748711
 20
-44.899999999999999
 30
0.0
 40
1.5
  0
CIRCLE
  5
9B3
  8
DETAIL
  6
CONTINUOUS
 62
     5
 10
-69.748711
 20
-48.899999999999999
 30
0.0
 40
1.5
  0
CIRCLE
  5
9B4
  8
DETAIL
  6
CONTINUOUS
 62
     5
 10
-69.748711
 20
-52.899999999999999
 30
0.0
 40
1.5
  0
CIRCLE
  5
9B5
  8
DETAIL
  6
CONTINUOUS
 62
     5
 10
-69.748711
 20
-119.00500099999999
 30
0.0
 40
1.5
  0
CIRCLE
  5
9B6
  8
DETAIL
  6
CONTINUOUS
 62
     5
 10
-76.67691499999998
 20
-60.899999999999991
 30
0.0
 40
1.5
  0
CIRCLE
  5
9B7
  8
DETAIL
  6
CONTINUOUS
 62
     5
 10
-76.67691499999998
 20
-64.900000000000006
 30
0.0
 40
1.5
  0
CIRCLE
  5
9B8
  8
DETAIL
  6
CONTINUOUS
 62
     5
 10
-76.67691499999998
 20
-68.615029000000007
 30
0.0
 40
1.5
  0
CIRCLE
  5
9B9
  8
DETAIL
  6
CONTINUOUS
 62
     5
 10
-76.67691499999998
 20
-115.00500099999989
 30
0.0
 40
1.5
  0
CIRCLE
  5
9BA
  8
DETAIL
  6
CONTINUOUS
 62
     5
 10
-76.67691499999998
 20
-119.00500099999999
 30
0.0
 40
1.5
  0
CIRCLE
  5
9BB
  8
DETAIL
  6
CONTINUOUS
 62
     5
 10
-76.67691499999998
 20
-4.9000000000000004
 30
0.0
 40
1.5
  0
CIRCLE
  5
9BC
  8
DETAIL
  6
CONTINUOUS
 62
     5
 10
-76.67691499999998
 20
-8.9000000000000004
 30
0.0
 40
1.5
  0
CIRCLE
  5
9BD
  8
DETAIL
  6
CONTINUOUS
 62
     5
 10
-76.67691499999998
 20
-12.9
 30
0.0
 40
1.5
  0
CIRCLE
  5
9BE
  8
DETAIL
  6
CONTINUOUS
 62
     5
 10
-76.67691499999998
 20
-16.899999999999991
 30
0.0
 40
1.5
  0
CIRCLE
  5
9BF
  8
DETAIL
  6
CONTINUOUS
 62
     5
 10
-76.67691499999998
 20
-20.899999999999991
 30
0.0
 40
1.5
  0
CIRCLE
  5
9C0
  8
DETAIL
  6
CONTINUOUS
 62
     5
 10
-76.67691499999998
 20
-24.899999999999999
 30
0.0
 40
1.5
  0
CIRCLE
  5
9C1
  8
DETAIL
  6
CONTINUOUS
 62
     5
 10
-76.67691499999998
 20
-28.899999999999999
 30
0.0
 40
1.5
  0
CIRCLE
  5
9C2
  8
DETAIL
  6
CONTINUOUS
 62
     5
 10
-76.67691499999998
 20
-32.899999999999999
 30
0.0
 40
1.5
  0
CIRCLE
  5
9C3
  8
DETAIL
  6
CONTINUOUS
 62
     5
 10
-76.67691499999998
 20
-36.899999999999991
 30
0.0
 40
1.5
  0
CIRCLE
  5
9C4
  8
DETAIL
  6
CONTINUOUS
 62
     5
 10
-76.67691499999998
 20
-40.899999999999977
 30
0.0
 40
1.5
  0
CIRCLE
  5
9C5
  8
DETAIL
  6
CONTINUOUS
 62
     5
 10
-76.67691499999998
 20
-44.899999999999999
 30
0.0
 40
1.5
  0
CIRCLE
  5
9C6
  8
DETAIL
  6
CONTINUOUS
 62
     5
 10
-76.67691499999998
 20
-48.899999999999999
 30
0.0
 40
1.5
  0
CIRCLE
  5
9C7
  8
DETAIL
  6
CONTINUOUS
 62
     5
 10
-76.67691499999998
 20
-52.899999999999999
 30
0.0
 40
1.5
  0
CIRCLE
  5
9C8
  8
DETAIL
  6
CONTINUOUS
 62
     5
 10
-76.67691499999998
 20
-56.899999999999999
 30
0.0
 40
1.5
  0
CIRCLE
  5
9C9
  8
DETAIL
  6
CONTINUOUS
 62
     5
 10
-76.67691499999998
 20
-111.00500099999989
 30
0.0
 40
1.5
  0
CIRCLE
  5
9CA
  8
DETAIL
  6
CONTINUOUS
 62
     5
 10
-73.212812999999983
 20
-113.00500099999989
 30
0.0
 40
1.5
  0
CIRCLE
  5
9CB
  8
DETAIL
  6
CONTINUOUS
 62
     5
 10
-73.212812999999983
 20
-58.899999999999999
 30
0.0
 40
1.5
  0
CIRCLE
  5
9CC
  8
DETAIL
  6
CONTINUOUS
 62
     5
 10
-73.212812999999983
 20
-62.899999999999999
 30
0.0
 40
1.5
  0
CIRCLE
  5
9CD
  8
DETAIL
  6
CONTINUOUS
 62
     5
 10
-73.212812999999983
 20
-66.900000000000006
 30
0.0
 40
1.5
  0
CIRCLE
  5
9CE
  8
DETAIL
  6
CONTINUOUS
 62
     5
 10
-73.212812999999983
 20
-70.615029000000021
 30
0.0
 40
1.5
  0
CIRCLE
  5
9CF
  8
DETAIL
  6
CONTINUOUS
 62
     5
 10
-73.212812999999983
 20
-117.00500099999989
 30
0.0
 40
1.5
  0
CIRCLE
  5
9D0
  8
DETAIL
  6
CONTINUOUS
 62
     5
 10
-73.212812999999983
 20
-6.9000000000000004
 30
0.0
 40
1.5
  0
CIRCLE
  5
9D1
  8
DETAIL
  6
CONTINUOUS
 62
     5
 10
-73.212812999999983
 20
-2.8999999999999999
 30
0.0
 40
1.5
  0
CIRCLE
  5
9D2
  8
DETAIL
  6
CONTINUOUS
 62
     5
 10
-73.212812999999983
 20
-10.9
 30
0.0
 40
1.5
  0
CIRCLE
  5
9D3
  8
DETAIL
  6
CONTINUOUS
 62
     5
 10
-73.212812999999983
 20
-14.9
 30
0.0
 40
1.5
  0
CIRCLE
  5
9D4
  8
DETAIL
  6
CONTINUOUS
 62
     5
 10
-73.212812999999983
 20
-18.899999999999991
 30
0.0
 40
1.5
  0
CIRCLE
  5
9D5
  8
DETAIL
  6
CONTINUOUS
 62
     5
 10
-73.212812999999983
 20
-22.899999999999999
 30
0.0
 40
1.5
  0
CIRCLE
  5
9D6
  8
DETAIL
  6
CONTINUOUS
 62
     5
 10
-73.212812999999983
 20
-26.899999999999991
 30
0.0
 40
1.5
  0
CIRCLE
  5
9D7
  8
DETAIL
  6
CONTINUOUS
 62
     5
 10
-73.212812999999983
 20
-30.899999999999991
 30
0.0
 40
1.5
  0
CIRCLE
  5
9D8
  8
DETAIL
  6
CONTINUOUS
 62
     5
 10
-73.212812999999983
 20
-34.899999999999999
 30
0.0
 40
1.5
  0
CIRCLE
  5
9D9
  8
DETAIL
  6
CONTINUOUS
 62
     5
 10
-73.212812999999983
 20
-38.899999999999999
 30
0.0
 40
1.5
  0
CIRCLE
  5
9DA
  8
DETAIL
  6
CONTINUOUS
 62
     5
 10
-73.212812999999983
 20
-42.899999999999999
 30
0.0
 40
1.5
  0
CIRCLE
  5
9DB
  8
DETAIL
  6
CONTINUOUS
 62
     5
 10
-73.212812999999983
 20
-46.899999999999999
 30
0.0
 40
1.5
  0
CIRCLE
  5
9DC
  8
DETAIL
  6
CONTINUOUS
 62
     5
 10
-73.212812999999983
 20
-50.899999999999991
 30
0.0
 40
1.5
  0
CIRCLE
  5
9DD
  8
DETAIL
  6
CONTINUOUS
 62
     5
 10
-73.212812999999983
 20
-54.899999999999999
 30
0.0
 40
1.5
  0
CIRCLE
  5
9DE
  8
DETAIL
  6
CONTINUOUS
 62
     5
 10
-38.428203000000003
 20
-58.899999999999999
 30
0.0
 40
1.5
  0
CIRCLE
  5
9DF
  8
DETAIL
  6
CONTINUOUS
 62
     5
 10
-34.96410199999999
 20
-60.899999999999991
 30
0.0
 40
1.5
  0
CIRCLE
  5
9E0
  8
DETAIL
  6
CONTINUOUS
 62
     5
 10
-38.428203000000003
 20
-62.899999999999999
 30
0.0
 40
1.5
  0
CIRCLE
  5
9E1
  8
DETAIL
  6
CONTINUOUS
 62
     5
 10
-34.96410199999999
 20
-64.900000000000006
 30
0.0
 40
1.5
  0
CIRCLE
  5
9E2
  8
DETAIL
  6
CONTINUOUS
 62
     5
 10
-38.428203000000003
 20
-66.900000000000006
 30
0.0
 40
1.5
  0
CIRCLE
  5
9E3
  8
DETAIL
  6
CONTINUOUS
 62
     5
 10
-34.96410199999999
 20
-68.615029000000007
 30
0.0
 40
1.5
  0
CIRCLE
  5
9E4
  8
DETAIL
  6
CONTINUOUS
 62
     5
 10
-34.96410199999999
 20
-115.00500099999989
 30
0.0
 40
1.5
  0
CIRCLE
  5
9E5
  8
DETAIL
  6
CONTINUOUS
 62
     5
 10
-38.428203000000003
 20
-117.00500099999989
 30
0.0
 40
1.5
  0
CIRCLE
  5
9E6
  8
DETAIL
  6
CONTINUOUS
 62
     5
 10
-41.892304999999993
 20
-115.00500099999989
 30
0.0
 40
1.5
  0
CIRCLE
  5
9E7
  8
DETAIL
  6
CONTINUOUS
 62
     5
 10
-41.892304999999993
 20
-119.00500099999999
 30
0.0
 40
1.5
  0
CIRCLE
  5
9E8
  8
DETAIL
  6
CONTINUOUS
 62
     5
 10
-34.96410199999999
 20
-119.00500099999999
 30
0.0
 40
1.5
  0
CIRCLE
  5
9E9
  8
DETAIL
  6
CONTINUOUS
 62
     5
 10
-34.96410199999999
 20
-4.9000000000000004
 30
0.0
 40
1.5
  0
CIRCLE
  5
9EA
  8
DETAIL
  6
CONTINUOUS
 62
     5
 10
-38.428203000000003
 20
-2.8999999999999999
 30
0.0
 40
1.5
  0
CIRCLE
  5
9EB
  8
DETAIL
  6
CONTINUOUS
 62
     5
 10
-38.428203000000003
 20
-50.899999999999991
 30
0.0
 40
1.5
  0
CIRCLE
  5
9EC
  8
DETAIL
  6
CONTINUOUS
 62
     5
 10
-38.428203000000003
 20
-46.899999999999999
 30
0.0
 40
1.5
  0
CIRCLE
  5
9ED
  8
DETAIL
  6
CONTINUOUS
 62
     5
 10
-38.428203000000003
 20
-42.899999999999999
 30
0.0
 40
1.5
  0
CIRCLE
  5
9EE
  8
DETAIL
  6
CONTINUOUS
 62
     5
 10
-38.428203000000003
 20
-38.899999999999999
 30
0.0
 40
1.5
  0
CIRCLE
  5
9EF
  8
DETAIL
  6
CONTINUOUS
 62
     5
 10
-38.428203000000003
 20
-34.899999999999999
 30
0.0
 40
1.5
  0
CIRCLE
  5
9F0
  8
DETAIL
  6
CONTINUOUS
 62
     5
 10
-38.428203000000003
 20
-30.899999999999991
 30
0.0
 40
1.5
  0
CIRCLE
  5
9F1
  8
DETAIL
  6
CONTINUOUS
 62
     5
 10
-38.428203000000003
 20
-26.899999999999991
 30
0.0
 40
1.5
  0
CIRCLE
  5
9F2
  8
DETAIL
  6
CONTINUOUS
 62
     5
 10
-38.428203000000003
 20
-22.899999999999999
 30
0.0
 40
1.5
  0
CIRCLE
  5
9F3
  8
DETAIL
  6
CONTINUOUS
 62
     5
 10
-38.428203000000003
 20
-18.899999999999991
 30
0.0
 40
1.5
  0
CIRCLE
  5
9F4
  8
DETAIL
  6
CONTINUOUS
 62
     5
 10
-38.428203000000003
 20
-14.9
 30
0.0
 40
1.5
  0
CIRCLE
  5
9F5
  8
DETAIL
  6
CONTINUOUS
 62
     5
 10
-38.428203000000003
 20
-10.9
 30
0.0
 40
1.5
  0
CIRCLE
  5
9F6
  8
DETAIL
  6
CONTINUOUS
 62
     5
 10
-34.96410199999999
 20
-8.9000000000000004
 30
0.0
 40
1.5
  0
CIRCLE
  5
9F7
  8
DETAIL
  6
CONTINUOUS
 62
     5
 10
-34.96410199999999
 20
-12.9
 30
0.0
 40
1.5
  0
CIRCLE
  5
9F8
  8
DETAIL
  6
CONTINUOUS
 62
     5
 10
-34.96410199999999
 20
-16.899999999999991
 30
0.0
 40
1.5
  0
CIRCLE
  5
9F9
  8
DETAIL
  6
CONTINUOUS
 62
     5
 10
-34.96410199999999
 20
-20.899999999999991
 30
0.0
 40
1.5
  0
CIRCLE
  5
9FA
  8
DETAIL
  6
CONTINUOUS
 62
     5
 10
-34.96410199999999
 20
-24.899999999999999
 30
0.0
 40
1.5
  0
CIRCLE
  5
9FB
  8
DETAIL
  6
CONTINUOUS
 62
     5
 10
-34.96410199999999
 20
-28.899999999999999
 30
0.0
 40
1.5
  0
CIRCLE
  5
9FC
  8
DETAIL
  6
CONTINUOUS
 62
     5
 10
-34.96410199999999
 20
-32.899999999999999
 30
0.0
 40
1.5
  0
CIRCLE
  5
9FD
  8
DETAIL
  6
CONTINUOUS
 62
     5
 10
-34.96410199999999
 20
-36.899999999999991
 30
0.0
 40
1.5
  0
CIRCLE
  5
9FE
  8
DETAIL
  6
CONTINUOUS
 62
     5
 10
-34.96410199999999
 20
-40.899999999999977
 30
0.0
 40
1.5
  0
CIRCLE
  5
9FF
  8
DETAIL
  6
CONTINUOUS
 62
     5
 10
-34.96410199999999
 20
-44.899999999999999
 30
0.0
 40
1.5
  0
CIRCLE
  5
A00
  8
DETAIL
  6
CONTINUOUS
 62
     5
 10
-34.96410199999999
 20
-48.899999999999999
 30
0.0
 40
1.5
  0
CIRCLE
  5
A01
  8
DETAIL
  6
CONTINUOUS
 62
     5
 10
-34.96410199999999
 20
-52.899999999999999
 30
0.0
 40
1.5
  0
CIRCLE
  5
A02
  8
DETAIL
  6
CONTINUOUS
 62
     5
 10
-41.892304999999993
 20
-48.899999999999999
 30
0.0
 40
1.5
  0
CIRCLE
  5
A03
  8
DETAIL
  6
CONTINUOUS
 62
     5
 10
-41.892304999999993
 20
-44.899999999999999
 30
0.0
 40
1.5
  0
CIRCLE
  5
A04
  8
DETAIL
  6
CONTINUOUS
 62
     5
 10
-41.892304999999993
 20
-40.899999999999977
 30
0.0
 40
1.5
  0
CIRCLE
  5
A05
  8
DETAIL
  6
CONTINUOUS
 62
     5
 10
-41.892304999999993
 20
-36.899999999999991
 30
0.0
 40
1.5
  0
CIRCLE
  5
A06
  8
DETAIL
  6
CONTINUOUS
 62
     5
 10
-41.892304999999993
 20
-32.899999999999999
 30
0.0
 40
1.5
  0
CIRCLE
  5
A07
  8
DETAIL
  6
CONTINUOUS
 62
     5
 10
-41.892304999999993
 20
-28.899999999999999
 30
0.0
 40
1.5
  0
CIRCLE
  5
A08
  8
DETAIL
  6
CONTINUOUS
 62
     5
 10
-41.892304999999993
 20
-24.899999999999999
 30
0.0
 40
1.5
  0
CIRCLE
  5
A09
  8
DETAIL
  6
CONTINUOUS
 62
     5
 10
-41.892304999999993
 20
-20.899999999999991
 30
0.0
 40
1.5
  0
CIRCLE
  5
A0A
  8
DETAIL
  6
CONTINUOUS
 62
     5
 10
-41.892304999999993
 20
-16.899999999999991
 30
0.0
 40
1.5
  0
CIRCLE
  5
A0B
  8
DETAIL
  6
CONTINUOUS
 62
     5
 10
-41.892304999999993
 20
-12.9
 30
0.0
 40
1.5
  0
CIRCLE
  5
A0C
  8
DETAIL
  6
CONTINUOUS
 62
     5
 10
-41.892304999999993
 20
-8.9000000000000004
 30
0.0
 40
1.5
  0
CIRCLE
  5
A0D
  8
DETAIL
  6
CONTINUOUS
 62
     5
 10
-38.428203000000003
 20
-6.9000000000000004
 30
0.0
 40
1.5
  0
CIRCLE
  5
A0E
  8
DETAIL
  6
CONTINUOUS
 62
     5
 10
-41.892304999999993
 20
-4.9000000000000004
 30
0.0
 40
1.5
  0
CIRCLE
  5
A0F
  8
DETAIL
  6
CONTINUOUS
 62
     5
 10
-34.96410199999999
 20
-56.899999999999999
 30
0.0
 40
1.5
  0
CIRCLE
  5
A10
  8
DETAIL
  6
CONTINUOUS
 62
     5
 10
-38.428203000000003
 20
-54.899999999999999
 30
0.0
 40
1.5
  0
CIRCLE
  5
A11
  8
DETAIL
  6
CONTINUOUS
 62
     5
 10
-34.96410199999999
 20
-111.00500099999989
 30
0.0
 40
1.5
  0
CIRCLE
  5
A12
  8
DETAIL
  6
CONTINUOUS
 62
     5
 10
-38.428203000000003
 20
-70.615029000000021
 30
0.0
 40
1.5
  0
CIRCLE
  5
A13
  8
DETAIL
  6
CONTINUOUS
 62
     5
 10
-38.428203000000003
 20
-113.00500099999989
 30
0.0
 40
1.5
  0
CIRCLE
  5
A14
  8
DETAIL
  6
CONTINUOUS
 62
     5
 10
-41.892304999999993
 20
-111.00500099999989
 30
0.0
 40
1.5
  0
CIRCLE
  5
A15
  8
DETAIL
  6
CONTINUOUS
 62
     5
 10
-41.892304999999993
 20
-56.899999999999999
 30
0.0
 40
1.5
  0
CIRCLE
  5
A16
  8
DETAIL
  6
CONTINUOUS
 62
     5
 10
-41.892304999999993
 20
-52.899999999999999
 30
0.0
 40
1.5
  0
CIRCLE
  5
A17
  8
DETAIL
  6
CONTINUOUS
 62
     5
 10
-41.892304999999993
 20
-68.615029000000007
 30
0.0
 40
1.5
  0
CIRCLE
  5
A18
  8
DETAIL
  6
CONTINUOUS
 62
     5
 10
-41.892304999999993
 20
-64.900000000000006
 30
0.0
 40
1.5
  0
CIRCLE
  5
A19
  8
DETAIL
  6
CONTINUOUS
 62
     5
 10
-41.892304999999993
 20
-60.899999999999991
 30
0.0
 40
1.5
  0
CIRCLE
  5
A1A
  8
DETAIL
  6
CONTINUOUS
 62
     5
 10
-31.5
 20
-113.00500099999989
 30
0.0
 40
1.5
  0
CIRCLE
  5
A1B
  8
DETAIL
  6
CONTINUOUS
 62
     5
 10
-31.5
 20
-58.899999999999999
 30
0.0
 40
1.5
  0
CIRCLE
  5
A1C
  8
DETAIL
  6
CONTINUOUS
 62
     5
 10
-31.5
 20
-62.899999999999999
 30
0.0
 40
1.5
  0
CIRCLE
  5
A1D
  8
DETAIL
  6
CONTINUOUS
 62
     5
 10
-31.5
 20
-66.900000000000006
 30
0.0
 40
1.5
  0
CIRCLE
  5
A1E
  8
DETAIL
  6
CONTINUOUS
 62
     5
 10
-31.5
 20
-70.615029000000021
 30
0.0
 40
1.5
  0
CIRCLE
  5
A1F
  8
DETAIL
  6
CONTINUOUS
 62
     5
 10
-31.5
 20
-117.00500099999989
 30
0.0
 40
1.5
  0
CIRCLE
  5
A20
  8
DETAIL
  6
CONTINUOUS
 62
     5
 10
-31.5
 20
-6.9000000000000004
 30
0.0
 40
1.5
  0
CIRCLE
  5
A21
  8
DETAIL
  6
CONTINUOUS
 62
     5
 10
-31.5
 20
-2.8999999999999999
 30
0.0
 40
1.5
  0
CIRCLE
  5
A22
  8
DETAIL
  6
CONTINUOUS
 62
     5
 10
-31.5
 20
-10.9
 30
0.0
 40
1.5
  0
CIRCLE
  5
A23
  8
DETAIL
  6
CONTINUOUS
 62
     5
 10
-31.5
 20
-14.9
 30
0.0
 40
1.5
  0
CIRCLE
  5
A24
  8
DETAIL
  6
CONTINUOUS
 62
     5
 10
-31.5
 20
-18.899999999999991
 30
0.0
 40
1.5
  0
CIRCLE
  5
A25
  8
DETAIL
  6
CONTINUOUS
 62
     5
 10
-31.5
 20
-22.899999999999999
 30
0.0
 40
1.5
  0
CIRCLE
  5
A26
  8
DETAIL
  6
CONTINUOUS
 62
     5
 10
-31.5
 20
-26.899999999999991
 30
0.0
 40
1.5
  0
CIRCLE
  5
A27
  8
DETAIL
  6
CONTINUOUS
 62
     5
 10
-31.5
 20
-30.899999999999991
 30
0.0
 40
1.5
  0
CIRCLE
  5
A28
  8
DETAIL
  6
CONTINUOUS
 62
     5
 10
-31.5
 20
-34.899999999999999
 30
0.0
 40
1.5
  0
CIRCLE
  5
A29
  8
DETAIL
  6
CONTINUOUS
 62
     5
 10
-31.5
 20
-38.899999999999999
 30
0.0
 40
1.5
  0
CIRCLE
  5
A2A
  8
DETAIL
  6
CONTINUOUS
 62
     5
 10
-31.5
 20
-42.899999999999999
 30
0.0
 40
1.5
  0
CIRCLE
  5
A2B
  8
DETAIL
  6
CONTINUOUS
 62
     5
 10
-31.5
 20
-46.899999999999999
 30
0.0
 40
1.5
  0
CIRCLE
  5
A2C
  8
DETAIL
  6
CONTINUOUS
 62
     5
 10
-31.5
 20
-50.899999999999991
 30
0.0
 40
1.5
  0
CIRCLE
  5
A2D
  8
DETAIL
  6
CONTINUOUS
 62
     5
 10
-31.5
 20
-54.899999999999999
 30
0.0
 40
1.5
  0
CIRCLE
  5
A2E
  8
DETAIL
  6
CONTINUOUS
 62
     5
 10
-55.820507999999997
 20
-119.00500099999999
 30
0.0
 40
1.5
  0
CIRCLE
  5
A2F
  8
DETAIL
  6
CONTINUOUS
 62
     5
 10
-55.820507999999997
 20
-52.899999999999999
 30
0.0
 40
1.5
  0
CIRCLE
  5
A30
  8
DETAIL
  6
CONTINUOUS
 62
     5
 10
-55.820507999999997
 20
-48.899999999999999
 30
0.0
 40
1.5
  0
CIRCLE
  5
A31
  8
DETAIL
  6
CONTINUOUS
 62
     5
 10
-55.820507999999997
 20
-44.899999999999999
 30
0.0
 40
1.5
  0
CIRCLE
  5
A32
  8
DETAIL
  6
CONTINUOUS
 62
     5
 10
-55.820507999999997
 20
-40.899999999999977
 30
0.0
 40
1.5
  0
CIRCLE
  5
A33
  8
DETAIL
  6
CONTINUOUS
 62
     5
 10
-55.820507999999997
 20
-36.899999999999991
 30
0.0
 40
1.5
  0
CIRCLE
  5
A34
  8
DETAIL
  6
CONTINUOUS
 62
     5
 10
-55.820507999999997
 20
-32.899999999999999
 30
0.0
 40
1.5
  0
CIRCLE
  5
A35
  8
DETAIL
  6
CONTINUOUS
 62
     5
 10
-55.820507999999997
 20
-28.899999999999999
 30
0.0
 40
1.5
  0
CIRCLE
  5
A36
  8
DETAIL
  6
CONTINUOUS
 62
     5
 10
-55.820507999999997
 20
-24.899999999999999
 30
0.0
 40
1.5
  0
CIRCLE
  5
A37
  8
DETAIL
  6
CONTINUOUS
 62
     5
 10
-55.820507999999997
 20
-20.899999999999991
 30
0.0
 40
1.5
  0
CIRCLE
  5
A38
  8
DETAIL
  6
CONTINUOUS
 62
     5
 10
-55.820507999999997
 20
-16.899999999999991
 30
0.0
 40
1.5
  0
CIRCLE
  5
A39
  8
DETAIL
  6
CONTINUOUS
 62
     5
 10
-55.820507999999997
 20
-12.9
 30
0.0
 40
1.5
  0
CIRCLE
  5
A3A
  8
DETAIL
  6
CONTINUOUS
 62
     5
 10
-55.820507999999997
 20
-56.899999999999999
 30
0.0
 40
1.5
  0
CIRCLE
  5
A3B
  8
DETAIL
  6
CONTINUOUS
 62
     5
 10
-52.356405999999993
 20
-50.899999999999991
 30
0.0
 40
1.5
  0
CIRCLE
  5
A3C
  8
DETAIL
  6
CONTINUOUS
 62
     5
 10
-52.356405999999993
 20
-46.899999999999999
 30
0.0
 40
1.5
  0
CIRCLE
  5
A3D
  8
DETAIL
  6
CONTINUOUS
 62
     5
 10
-52.356405999999993
 20
-42.899999999999999
 30
0.0
 40
1.5
  0
CIRCLE
  5
A3E
  8
DETAIL
  6
CONTINUOUS
 62
     5
 10
-52.356405999999993
 20
-38.899999999999999
 30
0.0
 40
1.5
  0
CIRCLE
  5
A3F
  8
DETAIL
  6
CONTINUOUS
 62
     5
 10
-52.356405999999993
 20
-34.899999999999999
 30
0.0
 40
1.5
  0
CIRCLE
  5
A40
  8
DETAIL
  6
CONTINUOUS
 62
     5
 10
-52.356405999999993
 20
-30.899999999999991
 30
0.0
 40
1.5
  0
CIRCLE
  5
A41
  8
DETAIL
  6
CONTINUOUS
 62
     5
 10
-52.356405999999993
 20
-54.899999999999999
 30
0.0
 40
1.5
  0
CIRCLE
  5
A42
  8
DETAIL
  6
CONTINUOUS
 62
     5
 10
-52.356405999999993
 20
-2.8999999999999999
 30
0.0
 40
1.5
  0
CIRCLE
  5
A43
  8
DETAIL
  6
CONTINUOUS
 62
     5
 10
-45.428203000000003
 20
-2.8999999999999999
 30
0.0
 40
1.5
  0
CIRCLE
  5
A44
  8
DETAIL
  6
CONTINUOUS
 62
     5
 10
-52.356405999999993
 20
-26.899999999999991
 30
0.0
 40
1.5
  0
CIRCLE
  5
A45
  8
DETAIL
  6
CONTINUOUS
 62
     5
 10
-52.356405999999993
 20
-22.899999999999999
 30
0.0
 40
1.5
  0
CIRCLE
  5
A46
  8
DETAIL
  6
CONTINUOUS
 62
     5
 10
-52.356405999999993
 20
-18.899999999999991
 30
0.0
 40
1.5
  0
CIRCLE
  5
A47
  8
DETAIL
  6
CONTINUOUS
 62
     5
 10
-52.356405999999993
 20
-14.9
 30
0.0
 40
1.5
  0
CIRCLE
  5
A48
  8
DETAIL
  6
CONTINUOUS
 62
     5
 10
-52.356405999999993
 20
-10.9
 30
0.0
 40
1.5
  0
CIRCLE
  5
A49
  8
DETAIL
  6
CONTINUOUS
 62
     5
 10
-55.820507999999997
 20
-8.9000000000000004
 30
0.0
 40
1.5
  0
CIRCLE
  5
A4A
  8
DETAIL
  6
CONTINUOUS
 62
     5
 10
-52.356405999999993
 20
-6.9000000000000004
 30
0.0
 40
1.5
  0
CIRCLE
  5
A4B
  8
DETAIL
  6
CONTINUOUS
 62
     5
 10
-55.820507999999997
 20
-4.9000000000000004
 30
0.0
 40
1.5
  0
CIRCLE
  5
A4C
  8
DETAIL
  6
CONTINUOUS
 62
     5
 10
-48.892305
 20
-119.00500099999999
 30
0.0
 40
1.5
  0
CIRCLE
  5
A4D
  8
DETAIL
  6
CONTINUOUS
 62
     5
 10
-48.892305
 20
-56.899999999999999
 30
0.0
 40
1.5
  0
CIRCLE
  5
A4E
  8
DETAIL
  6
CONTINUOUS
 62
     5
 10
-48.892305
 20
-4.9000000000000004
 30
0.0
 40
1.5
  0
CIRCLE
  5
A4F
  8
DETAIL
  6
CONTINUOUS
 62
     5
 10
-48.892305
 20
-8.9000000000000004
 30
0.0
 40
1.5
  0
CIRCLE
  5
A50
  8
DETAIL
  6
CONTINUOUS
 62
     5
 10
-48.892305
 20
-12.9
 30
0.0
 40
1.5
  0
CIRCLE
  5
A51
  8
DETAIL
  6
CONTINUOUS
 62
     5
 10
-48.892305
 20
-16.899999999999991
 30
0.0
 40
1.5
  0
CIRCLE
  5
A52
  8
DETAIL
  6
CONTINUOUS
 62
     5
 10
-48.892305
 20
-20.899999999999991
 30
0.0
 40
1.5
  0
CIRCLE
  5
A53
  8
DETAIL
  6
CONTINUOUS
 62
     5
 10
-48.892305
 20
-24.899999999999999
 30
0.0
 40
1.5
  0
CIRCLE
  5
A54
  8
DETAIL
  6
CONTINUOUS
 62
     5
 10
-48.892305
 20
-28.899999999999999
 30
0.0
 40
1.5
  0
CIRCLE
  5
A55
  8
DETAIL
  6
CONTINUOUS
 62
     5
 10
-48.892305
 20
-32.899999999999999
 30
0.0
 40
1.5
  0
CIRCLE
  5
A56
  8
DETAIL
  6
CONTINUOUS
 62
     5
 10
-48.892305
 20
-36.899999999999991
 30
0.0
 40
1.5
  0
CIRCLE
  5
A57
  8
DETAIL
  6
CONTINUOUS
 62
     5
 10
-48.892305
 20
-40.899999999999977
 30
0.0
 40
1.5
  0
CIRCLE
  5
A58
  8
DETAIL
  6
CONTINUOUS
 62
     5
 10
-48.892305
 20
-44.899999999999999
 30
0.0
 40
1.5
  0
CIRCLE
  5
A59
  8
DETAIL
  6
CONTINUOUS
 62
     5
 10
-48.892305
 20
-48.899999999999999
 30
0.0
 40
1.5
  0
CIRCLE
  5
A5A
  8
DETAIL
  6
CONTINUOUS
 62
     5
 10
-45.428203000000003
 20
-113.00500099999989
 30
0.0
 40
1.5
  0
CIRCLE
  5
A5B
  8
DETAIL
  6
CONTINUOUS
 62
     5
 10
-45.428203000000003
 20
-54.899999999999999
 30
0.0
 40
1.5
  0
CIRCLE
  5
A5C
  8
DETAIL
  6
CONTINUOUS
 62
     5
 10
-45.428203000000003
 20
-6.9000000000000004
 30
0.0
 40
1.5
  0
CIRCLE
  5
A5D
  8
DETAIL
  6
CONTINUOUS
 62
     5
 10
-45.428203000000003
 20
-10.9
 30
0.0
 40
1.5
  0
CIRCLE
  5
A5E
  8
DETAIL
  6
CONTINUOUS
 62
     5
 10
-45.428203000000003
 20
-14.9
 30
0.0
 40
1.5
  0
CIRCLE
  5
A5F
  8
DETAIL
  6
CONTINUOUS
 62
     5
 10
-45.428203000000003
 20
-18.899999999999991
 30
0.0
 40
1.5
  0
CIRCLE
  5
A60
  8
DETAIL
  6
CONTINUOUS
 62
     5
 10
-45.428203000000003
 20
-22.899999999999999
 30
0.0
 40
1.5
  0
CIRCLE
  5
A61
  8
DETAIL
  6
CONTINUOUS
 62
     5
 10
-45.428203000000003
 20
-26.899999999999991
 30
0.0
 40
1.5
  0
CIRCLE
  5
A62
  8
DETAIL
  6
CONTINUOUS
 62
     5
 10
-45.428203000000003
 20
-30.899999999999991
 30
0.0
 40
1.5
  0
CIRCLE
  5
A63
  8
DETAIL
  6
CONTINUOUS
 62
     5
 10
-45.428203000000003
 20
-34.899999999999999
 30
0.0
 40
1.5
  0
CIRCLE
  5
A64
  8
DETAIL
  6
CONTINUOUS
 62
     5
 10
-45.428203000000003
 20
-38.899999999999999
 30
0.0
 40
1.5
  0
CIRCLE
  5
A65
  8
DETAIL
  6
CONTINUOUS
 62
     5
 10
-45.428203000000003
 20
-42.899999999999999
 30
0.0
 40
1.5
  0
CIRCLE
  5
A66
  8
DETAIL
  6
CONTINUOUS
 62
     5
 10
-45.428203000000003
 20
-46.899999999999999
 30
0.0
 40
1.5
  0
CIRCLE
  5
A67
  8
DETAIL
  6
CONTINUOUS
 62
     5
 10
-45.428203000000003
 20
-62.899999999999999
 30
0.0
 40
1.5
  0
CIRCLE
  5
A68
  8
DETAIL
  6
CONTINUOUS
 62
     5
 10
-45.428203000000003
 20
-66.900000000000006
 30
0.0
 40
1.5
  0
CIRCLE
  5
A69
  8
DETAIL
  6
CONTINUOUS
 62
     5
 10
-48.892305
 20
-52.899999999999999
 30
0.0
 40
1.5
  0
CIRCLE
  5
A6A
  8
DETAIL
  6
CONTINUOUS
 62
     5
 10
-45.428203000000003
 20
-50.899999999999991
 30
0.0
 40
1.5
  0
CIRCLE
  5
A6B
  8
DETAIL
  6
CONTINUOUS
 62
     5
 10
-45.428203000000003
 20
-58.899999999999999
 30
0.0
 40
1.5
  0
CIRCLE
  5
A6C
  8
DETAIL
  6
CONTINUOUS
 62
     5
 10
-55.820507999999997
 20
-115.00500099999989
 30
0.0
 40
1.5
  0
CIRCLE
  5
A6D
  8
DETAIL
  6
CONTINUOUS
 62
     5
 10
-52.356405999999993
 20
-117.00500099999989
 30
0.0
 40
1.5
  0
CIRCLE
  5
A6E
  8
DETAIL
  6
CONTINUOUS
 62
     5
 10
-45.428203000000003
 20
-70.615029000000021
 30
0.0
 40
1.5
  0
CIRCLE
  5
A6F
  8
DETAIL
  6
CONTINUOUS
 62
     5
 10
-52.356405999999993
 20
-70.615029000000021
 30
0.0
 40
1.5
  0
CIRCLE
  5
A70
  8
DETAIL
  6
CONTINUOUS
 62
     5
 10
-48.892305
 20
-111.00500099999989
 30
0.0
 40
1.5
  0
CIRCLE
  5
A71
  8
DETAIL
  6
CONTINUOUS
 62
     5
 10
-55.820507999999997
 20
-111.00500099999989
 30
0.0
 40
1.5
  0
CIRCLE
  5
A72
  8
DETAIL
  6
CONTINUOUS
 62
     5
 10
-55.820507999999997
 20
-68.615029000000007
 30
0.0
 40
1.5
  0
CIRCLE
  5
A73
  8
DETAIL
  6
CONTINUOUS
 62
     5
 10
-48.892305
 20
-68.615029000000007
 30
0.0
 40
1.5
  0
CIRCLE
  5
A74
  8
DETAIL
  6
CONTINUOUS
 62
     5
 10
-52.356405999999993
 20
-66.900000000000006
 30
0.0
 40
1.5
  0
CIRCLE
  5
A75
  8
DETAIL
  6
CONTINUOUS
 62
     5
 10
-55.820507999999997
 20
-64.900000000000006
 30
0.0
 40
1.5
  0
CIRCLE
  5
A76
  8
DETAIL
  6
CONTINUOUS
 62
     5
 10
-48.892305
 20
-64.900000000000006
 30
0.0
 40
1.5
  0
CIRCLE
  5
A77
  8
DETAIL
  6
CONTINUOUS
 62
     5
 10
-52.356405999999993
 20
-62.899999999999999
 30
0.0
 40
1.5
  0
CIRCLE
  5
A78
  8
DETAIL
  6
CONTINUOUS
 62
     5
 10
-55.820507999999997
 20
-60.899999999999991
 30
0.0
 40
1.5
  0
CIRCLE
  5
A79
  8
DETAIL
  6
CONTINUOUS
 62
     5
 10
-48.892305
 20
-60.899999999999991
 30
0.0
 40
1.5
  0
CIRCLE
  5
A7A
  8
DETAIL
  6
CONTINUOUS
 62
     5
 10
-52.356405999999993
 20
-58.899999999999999
 30
0.0
 40
1.5
  0
CIRCLE
  5
A7B
  8
DETAIL
  6
CONTINUOUS
 62
     5
 10
-45.428203000000003
 20
-117.00500099999989
 30
0.0
 40
1.5
  0
CIRCLE
  5
A7C
  8
DETAIL
  6
CONTINUOUS
 62
     5
 10
-52.356405999999993
 20
-113.00500099999989
 30
0.0
 40
1.5
  0
CIRCLE
  5
A7D
  8
DETAIL
  6
CONTINUOUS
 62
     5
 10
-48.892305
 20
-115.00500099999989
 30
0.0
 40
1.5
  0
CIRCLE
  5
A7E
  8
DETAIL
  6
CONTINUOUS
 62
     5
 10
-69.748711
 20
203.0
 30
0.0
 40
1.5
  0
CIRCLE
  5
A7F
  8
DETAIL
  6
CONTINUOUS
 62
     5
 10
-66.284610000000001
 20
201.0
 30
0.0
 40
1.5
  0
CIRCLE
  5
A80
  8
DETAIL
  6
CONTINUOUS
 62
     5
 10
-62.820507999999997
 20
203.0
 30
0.0
 40
1.5
  0
CIRCLE
  5
A81
  8
DETAIL
  6
CONTINUOUS
 62
     5
 10
-59.356406000000007
 20
201.0
 30
0.0
 40
1.5
  0
CIRCLE
  5
A82
  8
DETAIL
  6
CONTINUOUS
 62
     5
 10
-41.892304999999993
 20
203.0
 30
0.0
 40
1.5
  0
CIRCLE
  5
A83
  8
DETAIL
  6
CONTINUOUS
 62
     5
 10
-38.428203000000003
 20
201.0
 30
0.0
 40
1.5
  0
CIRCLE
  5
A84
  8
DETAIL
  6
CONTINUOUS
 62
     5
 10
-34.96410199999999
 20
203.0
 30
0.0
 40
1.5
  0
CIRCLE
  5
A85
  8
DETAIL
  6
CONTINUOUS
 62
     5
 10
-31.5
 20
201.0
 30
0.0
 40
1.5
  0
CIRCLE
  5
A86
  8
DETAIL
  6
CONTINUOUS
 62
     5
 10
-45.428203000000003
 20
201.0
 30
0.0
 40
1.5
  0
CIRCLE
  5
A87
  8
DETAIL
  6
CONTINUOUS
 62
     5
 10
-48.892305
 20
203.0
 30
0.0
 40
1.5
  0
CIRCLE
  5
A88
  8
DETAIL
  6
CONTINUOUS
 62
     5
 10
-52.356405999999993
 20
201.0
 30
0.0
 40
1.5
  0
CIRCLE
  5
A89
  8
DETAIL
  6
CONTINUOUS
 62
     5
 10
-55.820507999999997
 20
203.0
 30
0.0
 40
1.5
  0
CIRCLE
  5
A8A
  8
DETAIL
  6
CONTINUOUS
 62
     5
 10
-80.141015999999993
 20
201.0
 30
0.0
 40
1.5
  0
CIRCLE
  5
A8B
  8
DETAIL
  6
CONTINUOUS
 62
     5
 10
-76.67691499999998
 20
203.0
 30
0.0
 40
1.5
  0
CIRCLE
  5
A8C
  8
DETAIL
  6
CONTINUOUS
 62
     5
 10
-73.212812999999983
 20
201.0
 30
0.0
 40
1.5
  0
CIRCLE
  5
A8D
  8
DETAIL
  6
CONTINUOUS
 62
     5
 10
-69.748711
 20
119.0
 30
0.0
 40
1.5
  0
CIRCLE
  5
A8E
  8
DETAIL
  6
CONTINUOUS
 62
     5
 10
-62.820507999999997
 20
119.0
 30
0.0
 40
1.5
  0
CIRCLE
  5
A8F
  8
DETAIL
  6
CONTINUOUS
 62
     5
 10
-76.67691499999998
 20
119.0
 30
0.0
 40
1.5
  0
CIRCLE
  5
A90
  8
DETAIL
  6
CONTINUOUS
 62
     5
 10
-66.284610000000001
 20
121.0
 30
0.0
 40
1.5
  0
CIRCLE
  5
A91
  8
DETAIL
  6
CONTINUOUS
 62
     5
 10
-59.356406000000007
 20
121.0
 30
0.0
 40
1.5
  0
CIRCLE
  5
A92
  8
DETAIL
  6
CONTINUOUS
 62
     5
 10
-73.212812999999983
 20
121.0
 30
0.0
 40
1.5
  0
CIRCLE
  5
A93
  8
DETAIL
  6
CONTINUOUS
 62
     5
 10
-80.141015999999993
 20
121.0
 30
0.0
 40
1.5
  0
CIRCLE
  5
A94
  8
DETAIL
  6
CONTINUOUS
 62
     5
 10
-34.96410199999999
 20
119.0
 30
0.0
 40
1.5
  0
CIRCLE
  5
A95
  8
DETAIL
  6
CONTINUOUS
 62
     5
 10
-41.892304999999993
 20
119.0
 30
0.0
 40
1.5
  0
CIRCLE
  5
A96
  8
DETAIL
  6
CONTINUOUS
 62
     5
 10
-48.892305
 20
119.0
 30
0.0
 40
1.5
  0
CIRCLE
  5
A97
  8
DETAIL
  6
CONTINUOUS
 62
     5
 10
-55.820507999999997
 20
119.0
 30
0.0
 40
1.5
  0
CIRCLE
  5
A98
  8
DETAIL
  6
CONTINUOUS
 62
     5
 10
-31.5
 20
121.0
 30
0.0
 40
1.5
  0
CIRCLE
  5
A99
  8
DETAIL
  6
CONTINUOUS
 62
     5
 10
-38.428203000000003
 20
121.0
 30
0.0
 40
1.5
  0
CIRCLE
  5
A9A
  8
DETAIL
  6
CONTINUOUS
 62
     5
 10
-45.428203000000003
 20
121.0
 30
0.0
 40
1.5
  0
CIRCLE
  5
A9B
  8
DETAIL
  6
CONTINUOUS
 62
     5
 10
-52.356405999999993
 20
121.0
 30
0.0
 40
1.5
  0
CIRCLE
  5
A9C
  8
DETAIL
  6
CONTINUOUS
 62
     5
 10
-80.141015999999993
 20
73.5
 30
0.0
 40
1.5
  0
CIRCLE
  5
A9D
  8
DETAIL
  6
CONTINUOUS
 62
     5
 10
-80.141015999999993
 20
69.5
 30
0.0
 40
1.5
  0
CIRCLE
  5
A9E
  8
DETAIL
  6
CONTINUOUS
 62
     5
 10
-80.141015999999993
 20
53.5
 30
0.0
 40
1.5
  0
CIRCLE
  5
A9F
  8
DETAIL
  6
CONTINUOUS
 62
     5
 10
-80.141015999999993
 20
5.5
 30
0.0
 40
1.5
  0
CIRCLE
  5
AA0
  8
DETAIL
  6
CONTINUOUS
 62
     5
 10
-80.141015999999993
 20
9.5
 30
0.0
 40
1.5
  0
CIRCLE
  5
AA1
  8
DETAIL
  6
CONTINUOUS
 62
     5
 10
-80.141015999999993
 20
13.5
 30
0.0
 40
1.5
  0
CIRCLE
  5
AA2
  8
DETAIL
  6
CONTINUOUS
 62
     5
 10
-80.141015999999993
 20
17.5
 30
0.0
 40
1.5
  0
CIRCLE
  5
AA3
  8
DETAIL
  6
CONTINUOUS
 62
     5
 10
-80.141015999999993
 20
21.499999999999989
 30
0.0
 40
1.5
  0
CIRCLE
  5
AA4
  8
DETAIL
  6
CONTINUOUS
 62
     5
 10
-80.141015999999993
 20
25.5
 30
0.0
 40
1.5
  0
CIRCLE
  5
AA5
  8
DETAIL
  6
CONTINUOUS
 62
     5
 10
-80.141015999999993
 20
29.5
 30
0.0
 40
1.5
  0
CIRCLE
  5
AA6
  8
DETAIL
  6
CONTINUOUS
 62
     5
 10
-80.141015999999993
 20
33.5
 30
0.0
 40
1.5
  0
CIRCLE
  5
AA7
  8
DETAIL
  6
CONTINUOUS
 62
     5
 10
-80.141015999999993
 20
37.5
 30
0.0
 40
1.5
  0
CIRCLE
  5
AA8
  8
DETAIL
  6
CONTINUOUS
 62
     5
 10
-80.141015999999993
 20
41.5
 30
0.0
 40
1.5
  0
CIRCLE
  5
AA9
  8
DETAIL
  6
CONTINUOUS
 62
     5
 10
-80.141015999999993
 20
45.499999999999993
 30
0.0
 40
1.5
  0
CIRCLE
  5
AAA
  8
DETAIL
  6
CONTINUOUS
 62
     5
 10
-80.141015999999993
 20
49.5
 30
0.0
 40
1.5
  0
CIRCLE
  5
AAB
  8
DETAIL
  6
CONTINUOUS
 62
     5
 10
-80.141015999999993
 20
1.5
 30
0.0
 40
1.5
  0
CIRCLE
  5
AAC
  8
DETAIL
  6
CONTINUOUS
 62
     5
 10
-80.141015999999993
 20
117.0
 30
0.0
 40
1.5
  0
CIRCLE
  5
AAD
  8
DETAIL
  6
CONTINUOUS
 62
     5
 10
-80.141015999999993
 20
65.5
 30
0.0
 40
1.5
  0
CIRCLE
  5
AAE
  8
DETAIL
  6
CONTINUOUS
 62
     5
 10
-80.141015999999993
 20
61.5
 30
0.0
 40
1.5
  0
CIRCLE
  5
AAF
  8
DETAIL
  6
CONTINUOUS
 62
     5
 10
-80.141015999999993
 20
57.5
 30
0.0
 40
1.5
  0
CIRCLE
  5
AB0
  8
DETAIL
  6
CONTINUOUS
 62
     5
 10
-69.748711
 20
51.5
 30
0.0
 40
1.5
  0
CIRCLE
  5
AB1
  8
DETAIL
  6
CONTINUOUS
 62
     5
 10
-69.748711
 20
47.5
 30
0.0
 40
1.5
  0
CIRCLE
  5
AB2
  8
DETAIL
  6
CONTINUOUS
 62
     5
 10
-69.748711
 20
43.5
 30
0.0
 40
1.5
  0
CIRCLE
  5
AB3
  8
DETAIL
  6
CONTINUOUS
 62
     5
 10
-69.748711
 20
39.5
 30
0.0
 40
1.5
  0
CIRCLE
  5
AB4
  8
DETAIL
  6
CONTINUOUS
 62
     5
 10
-69.748711
 20
35.5
 30
0.0
 40
1.5
  0
CIRCLE
  5
AB5
  8
DETAIL
  6
CONTINUOUS
 62
     5
 10
-69.748711
 20
31.5
 30
0.0
 40
1.5
  0
CIRCLE
  5
AB6
  8
DETAIL
  6
CONTINUOUS
 62
     5
 10
-69.748711
 20
27.5
 30
0.0
 40
1.5
  0
CIRCLE
  5
AB7
  8
DETAIL
  6
CONTINUOUS
 62
     5
 10
-69.748711
 20
23.5
 30
0.0
 40
1.5
  0
CIRCLE
  5
AB8
  8
DETAIL
  6
CONTINUOUS
 62
     5
 10
-69.748711
 20
19.5
 30
0.0
 40
1.5
  0
CIRCLE
  5
AB9
  8
DETAIL
  6
CONTINUOUS
 62
     5
 10
-69.748711
 20
15.5
 30
0.0
 40
1.5
  0
CIRCLE
  5
ABA
  8
DETAIL
  6
CONTINUOUS
 62
     5
 10
-69.748711
 20
11.5
 30
0.0
 40
1.5
  0
CIRCLE
  5
ABB
  8
DETAIL
  6
CONTINUOUS
 62
     5
 10
-69.748711
 20
55.5
 30
0.0
 40
1.5
  0
CIRCLE
  5
ABC
  8
DETAIL
  6
CONTINUOUS
 62
     5
 10
-66.284610000000001
 20
49.5
 30
0.0
 40
1.5
  0
CIRCLE
  5
ABD
  8
DETAIL
  6
CONTINUOUS
 62
     5
 10
-66.284610000000001
 20
45.499999999999993
 30
0.0
 40
1.5
  0
CIRCLE
  5
ABE
  8
DETAIL
  6
CONTINUOUS
 62
     5
 10
-66.284610000000001
 20
41.5
 30
0.0
 40
1.5
  0
CIRCLE
  5
ABF
  8
DETAIL
  6
CONTINUOUS
 62
     5
 10
-66.284610000000001
 20
37.5
 30
0.0
 40
1.5
  0
CIRCLE
  5
AC0
  8
DETAIL
  6
CONTINUOUS
 62
     5
 10
-66.284610000000001
 20
33.5
 30
0.0
 40
1.5
  0
CIRCLE
  5
AC1
  8
DETAIL
  6
CONTINUOUS
 62
     5
 10
-66.284610000000001
 20
29.5
 30
0.0
 40
1.5
  0
CIRCLE
  5
AC2
  8
DETAIL
  6
CONTINUOUS
 62
     5
 10
-66.284610000000001
 20
53.5
 30
0.0
 40
1.5
  0
CIRCLE
  5
AC3
  8
DETAIL
  6
CONTINUOUS
 62
     5
 10
-66.284610000000001
 20
1.5
 30
0.0
 40
1.5
  0
CIRCLE
  5
AC4
  8
DETAIL
  6
CONTINUOUS
 62
     5
 10
-59.356406000000007
 20
1.5
 30
0.0
 40
1.5
  0
CIRCLE
  5
AC5
  8
DETAIL
  6
CONTINUOUS
 62
     5
 10
-66.284610000000001
 20
25.5
 30
0.0
 40
1.5
  0
CIRCLE
  5
AC6
  8
DETAIL
  6
CONTINUOUS
 62
     5
 10
-66.284610000000001
 20
21.499999999999989
 30
0.0
 40
1.5
  0
CIRCLE
  5
AC7
  8
DETAIL
  6
CONTINUOUS
 62
     5
 10
-66.284610000000001
 20
17.5
 30
0.0
 40
1.5
  0
CIRCLE
  5
AC8
  8
DETAIL
  6
CONTINUOUS
 62
     5
 10
-66.284610000000001
 20
13.5
 30
0.0
 40
1.5
  0
CIRCLE
  5
AC9
  8
DETAIL
  6
CONTINUOUS
 62
     5
 10
-66.284610000000001
 20
9.5
 30
0.0
 40
1.5
  0
CIRCLE
  5
ACA
  8
DETAIL
  6
CONTINUOUS
 62
     5
 10
-69.748711
 20
7.5
 30
0.0
 40
1.5
  0
CIRCLE
  5
ACB
  8
DETAIL
  6
CONTINUOUS
 62
     5
 10
-66.284610000000001
 20
5.5
 30
0.0
 40
1.5
  0
CIRCLE
  5
ACC
  8
DETAIL
  6
CONTINUOUS
 62
     5
 10
-69.748711
 20
3.5
 30
0.0
 40
1.5
  0
CIRCLE
  5
ACD
  8
DETAIL
  6
CONTINUOUS
 62
     5
 10
-62.820507999999997
 20
55.5
 30
0.0
 40
1.5
  0
CIRCLE
  5
ACE
  8
DETAIL
  6
CONTINUOUS
 62
     5
 10
-62.820507999999997
 20
3.5
 30
0.0
 40
1.5
  0
CIRCLE
  5
ACF
  8
DETAIL
  6
CONTINUOUS
 62
     5
 10
-62.820507999999997
 20
7.5
 30
0.0
 40
1.5
  0
CIRCLE
  5
AD0
  8
DETAIL
  6
CONTINUOUS
 62
     5
 10
-62.820507999999997
 20
11.5
 30
0.0
 40
1.5
  0
CIRCLE
  5
AD1
  8
DETAIL
  6
CONTINUOUS
 62
     5
 10
-62.820507999999997
 20
15.5
 30
0.0
 40
1.5
  0
CIRCLE
  5
AD2
  8
DETAIL
  6
CONTINUOUS
 62
     5
 10
-62.820507999999997
 20
19.5
 30
0.0
 40
1.5
  0
CIRCLE
  5
AD3
  8
DETAIL
  6
CONTINUOUS
 62
     5
 10
-62.820507999999997
 20
23.5
 30
0.0
 40
1.5
  0
CIRCLE
  5
AD4
  8
DETAIL
  6
CONTINUOUS
 62
     5
 10
-62.820507999999997
 20
27.5
 30
0.0
 40
1.5
  0
CIRCLE
  5
AD5
  8
DETAIL
  6
CONTINUOUS
 62
     5
 10
-62.820507999999997
 20
31.5
 30
0.0
 40
1.5
  0
CIRCLE
  5
AD6
  8
DETAIL
  6
CONTINUOUS
 62
     5
 10
-62.820507999999997
 20
35.5
 30
0.0
 40
1.5
  0
CIRCLE
  5
AD7
  8
DETAIL
  6
CONTINUOUS
 62
     5
 10
-62.820507999999997
 20
39.5
 30
0.0
 40
1.5
  0
CIRCLE
  5
AD8
  8
DETAIL
  6
CONTINUOUS
 62
     5
 10
-62.820507999999997
 20
43.5
 30
0.0
 40
1.5
  0
CIRCLE
  5
AD9
  8
DETAIL
  6
CONTINUOUS
 62
     5
 10
-62.820507999999997
 20
47.5
 30
0.0
 40
1.5
  0
CIRCLE
  5
ADA
  8
DETAIL
  6
CONTINUOUS
 62
     5
 10
-59.356406000000007
 20
73.5
 30
0.0
 40
1.5
  0
CIRCLE
  5
ADB
  8
DETAIL
  6
CONTINUOUS
 62
     5
 10
-59.356406000000007
 20
53.5
 30
0.0
 40
1.5
  0
CIRCLE
  5
ADC
  8
DETAIL
  6
CONTINUOUS
 62
     5
 10
-59.356406000000007
 20
5.5
 30
0.0
 40
1.5
  0
CIRCLE
  5
ADD
  8
DETAIL
  6
CONTINUOUS
 62
     5
 10
-59.356406000000007
 20
9.5
 30
0.0
 40
1.5
  0
CIRCLE
  5
ADE
  8
DETAIL
  6
CONTINUOUS
 62
     5
 10
-59.356406000000007
 20
13.5
 30
0.0
 40
1.5
  0
CIRCLE
  5
ADF
  8
DETAIL
  6
CONTINUOUS
 62
     5
 10
-59.356406000000007
 20
17.5
 30
0.0
 40
1.5
  0
CIRCLE
  5
AE0
  8
DETAIL
  6
CONTINUOUS
 62
     5
 10
-59.356406000000007
 20
21.499999999999989
 30
0.0
 40
1.5
  0
CIRCLE
  5
AE1
  8
DETAIL
  6
CONTINUOUS
 62
     5
 10
-59.356406000000007
 20
25.5
 30
0.0
 40
1.5
  0
CIRCLE
  5
AE2
  8
DETAIL
  6
CONTINUOUS
 62
     5
 10
-59.356406000000007
 20
29.5
 30
0.0
 40
1.5
  0
CIRCLE
  5
AE3
  8
DETAIL
  6
CONTINUOUS
 62
     5
 10
-59.356406000000007
 20
33.5
 30
0.0
 40
1.5
  0
CIRCLE
  5
AE4
  8
DETAIL
  6
CONTINUOUS
 62
     5
 10
-59.356406000000007
 20
37.5
 30
0.0
 40
1.5
  0
CIRCLE
  5
AE5
  8
DETAIL
  6
CONTINUOUS
 62
     5
 10
-59.356406000000007
 20
41.5
 30
0.0
 40
1.5
  0
CIRCLE
  5
AE6
  8
DETAIL
  6
CONTINUOUS
 62
     5
 10
-59.356406000000007
 20
45.499999999999993
 30
0.0
 40
1.5
  0
CIRCLE
  5
AE7
  8
DETAIL
  6
CONTINUOUS
 62
     5
 10
-59.356406000000007
 20
61.5
 30
0.0
 40
1.5
  0
CIRCLE
  5
AE8
  8
DETAIL
  6
CONTINUOUS
 62
     5
 10
-59.356406000000007
 20
65.5
 30
0.0
 40
1.5
  0
CIRCLE
  5
AE9
  8
DETAIL
  6
CONTINUOUS
 62
     5
 10
-62.820507999999997
 20
51.5
 30
0.0
 40
1.5
  0
CIRCLE
  5
AEA
  8
DETAIL
  6
CONTINUOUS
 62
     5
 10
-59.356406000000007
 20
49.5
 30
0.0
 40
1.5
  0
CIRCLE
  5
AEB
  8
DETAIL
  6
CONTINUOUS
 62
     5
 10
-59.356406000000007
 20
57.5
 30
0.0
 40
1.5
  0
CIRCLE
  5
AEC
  8
DETAIL
  6
CONTINUOUS
 62
     5
 10
-69.748711
 20
115.0
 30
0.0
 40
1.5
  0
CIRCLE
  5
AED
  8
DETAIL
  6
CONTINUOUS
 62
     5
 10
-66.284610000000001
 20
117.0
 30
0.0
 40
1.5
  0
CIRCLE
  5
AEE
  8
DETAIL
  6
CONTINUOUS
 62
     5
 10
-59.356406000000007
 20
69.5
 30
0.0
 40
1.5
  0
CIRCLE
  5
AEF
  8
DETAIL
  6
CONTINUOUS
 62
     5
 10
-66.284610000000001
 20
69.5
 30
0.0
 40
1.5
  0
CIRCLE
  5
AF0
  8
DETAIL
  6
CONTINUOUS
 62
     5
 10
-62.820507999999997
 20
71.5
 30
0.0
 40
1.5
  0
CIRCLE
  5
AF1
  8
DETAIL
  6
CONTINUOUS
 62
     5
 10
-69.748711
 20
71.5
 30
0.0
 40
1.5
  0
CIRCLE
  5
AF2
  8
DETAIL
  6
CONTINUOUS
 62
     5
 10
-69.748711
 20
67.5
 30
0.0
 40
1.5
  0
CIRCLE
  5
AF3
  8
DETAIL
  6
CONTINUOUS
 62
     5
 10
-62.820507999999997
 20
67.5
 30
0.0
 40
1.5
  0
CIRCLE
  5
AF4
  8
DETAIL
  6
CONTINUOUS
 62
     5
 10
-66.284610000000001
 20
65.5
 30
0.0
 40
1.5
  0
CIRCLE
  5
AF5
  8
DETAIL
  6
CONTINUOUS
 62
     5
 10
-69.748711
 20
63.5
 30
0.0
 40
1.5
  0
CIRCLE
  5
AF6
  8
DETAIL
  6
CONTINUOUS
 62
     5
 10
-62.820507999999997
 20
63.5
 30
0.0
 40
1.5
  0
CIRCLE
  5
AF7
  8
DETAIL
  6
CONTINUOUS
 62
     5
 10
-66.284610000000001
 20
61.5
 30
0.0
 40
1.5
  0
CIRCLE
  5
AF8
  8
DETAIL
  6
CONTINUOUS
 62
     5
 10
-69.748711
 20
59.5
 30
0.0
 40
1.5
  0
CIRCLE
  5
AF9
  8
DETAIL
  6
CONTINUOUS
 62
     5
 10
-62.820507999999997
 20
59.5
 30
0.0
 40
1.5
  0
CIRCLE
  5
AFA
  8
DETAIL
  6
CONTINUOUS
 62
     5
 10
-66.284610000000001
 20
57.5
 30
0.0
 40
1.5
  0
CIRCLE
  5
AFB
  8
DETAIL
  6
CONTINUOUS
 62
     5
 10
-59.356406000000007
 20
117.0
 30
0.0
 40
1.5
  0
CIRCLE
  5
AFC
  8
DETAIL
  6
CONTINUOUS
 62
     5
 10
-66.284610000000001
 20
73.5
 30
0.0
 40
1.5
  0
CIRCLE
  5
AFD
  8
DETAIL
  6
CONTINUOUS
 62
     5
 10
-62.820507999999997
 20
115.0
 30
0.0
 40
1.5
  0
CIRCLE
  5
AFE
  8
DETAIL
  6
CONTINUOUS
 62
     5
 10
-76.67691499999998
 20
71.5
 30
0.0
 40
1.5
  0
CIRCLE
  5
AFF
  8
DETAIL
  6
CONTINUOUS
 62
     5
 10
-76.67691499999998
 20
55.5
 30
0.0
 40
1.5
  0
CIRCLE
  5
B00
  8
DETAIL
  6
CONTINUOUS
 62
     5
 10
-76.67691499999998
 20
51.5
 30
0.0
 40
1.5
  0
CIRCLE
  5
B01
  8
DETAIL
  6
CONTINUOUS
 62
     5
 10
-76.67691499999998
 20
47.5
 30
0.0
 40
1.5
  0
CIRCLE
  5
B02
  8
DETAIL
  6
CONTINUOUS
 62
     5
 10
-76.67691499999998
 20
43.5
 30
0.0
 40
1.5
  0
CIRCLE
  5
B03
  8
DETAIL
  6
CONTINUOUS
 62
     5
 10
-76.67691499999998
 20
39.5
 30
0.0
 40
1.5
  0
CIRCLE
  5
B04
  8
DETAIL
  6
CONTINUOUS
 62
     5
 10
-76.67691499999998
 20
35.5
 30
0.0
 40
1.5
  0
CIRCLE
  5
B05
  8
DETAIL
  6
CONTINUOUS
 62
     5
 10
-76.67691499999998
 20
31.5
 30
0.0
 40
1.5
  0
CIRCLE
  5
B06
  8
DETAIL
  6
CONTINUOUS
 62
     5
 10
-76.67691499999998
 20
27.5
 30
0.0
 40
1.5
  0
CIRCLE
  5
B07
  8
DETAIL
  6
CONTINUOUS
 62
     5
 10
-76.67691499999998
 20
23.5
 30
0.0
 40
1.5
  0
CIRCLE
  5
B08
  8
DETAIL
  6
CONTINUOUS
 62
     5
 10
-76.67691499999998
 20
19.5
 30
0.0
 40
1.5
  0
CIRCLE
  5
B09
  8
DETAIL
  6
CONTINUOUS
 62
     5
 10
-76.67691499999998
 20
15.5
 30
0.0
 40
1.5
  0
CIRCLE
  5
B0A
  8
DETAIL
  6
CONTINUOUS
 62
     5
 10
-76.67691499999998
 20
11.5
 30
0.0
 40
1.5
  0
CIRCLE
  5
B0B
  8
DETAIL
  6
CONTINUOUS
 62
     5
 10
-76.67691499999998
 20
7.5
 30
0.0
 40
1.5
  0
CIRCLE
  5
B0C
  8
DETAIL
  6
CONTINUOUS
 62
     5
 10
-76.67691499999998
 20
3.5
 30
0.0
 40
1.5
  0
CIRCLE
  5
B0D
  8
DETAIL
  6
CONTINUOUS
 62
     5
 10
-76.67691499999998
 20
115.0
 30
0.0
 40
1.5
  0
CIRCLE
  5
B0E
  8
DETAIL
  6
CONTINUOUS
 62
     5
 10
-76.67691499999998
 20
67.5
 30
0.0
 40
1.5
  0
CIRCLE
  5
B0F
  8
DETAIL
  6
CONTINUOUS
 62
     5
 10
-76.67691499999998
 20
63.5
 30
0.0
 40
1.5
  0
CIRCLE
  5
B10
  8
DETAIL
  6
CONTINUOUS
 62
     5
 10
-76.67691499999998
 20
59.5
 30
0.0
 40
1.5
  0
CIRCLE
  5
B11
  8
DETAIL
  6
CONTINUOUS
 62
     5
 10
-73.212812999999983
 20
53.5
 30
0.0
 40
1.5
  0
CIRCLE
  5
B12
  8
DETAIL
  6
CONTINUOUS
 62
     5
 10
-73.212812999999983
 20
49.5
 30
0.0
 40
1.5
  0
CIRCLE
  5
B13
  8
DETAIL
  6
CONTINUOUS
 62
     5
 10
-73.212812999999983
 20
45.499999999999993
 30
0.0
 40
1.5
  0
CIRCLE
  5
B14
  8
DETAIL
  6
CONTINUOUS
 62
     5
 10
-73.212812999999983
 20
41.5
 30
0.0
 40
1.5
  0
CIRCLE
  5
B15
  8
DETAIL
  6
CONTINUOUS
 62
     5
 10
-73.212812999999983
 20
37.5
 30
0.0
 40
1.5
  0
CIRCLE
  5
B16
  8
DETAIL
  6
CONTINUOUS
 62
     5
 10
-73.212812999999983
 20
33.5
 30
0.0
 40
1.5
  0
CIRCLE
  5
B17
  8
DETAIL
  6
CONTINUOUS
 62
     5
 10
-73.212812999999983
 20
29.5
 30
0.0
 40
1.5
  0
CIRCLE
  5
B18
  8
DETAIL
  6
CONTINUOUS
 62
     5
 10
-73.212812999999983
 20
25.5
 30
0.0
 40
1.5
  0
CIRCLE
  5
B19
  8
DETAIL
  6
CONTINUOUS
 62
     5
 10
-73.212812999999983
 20
21.499999999999989
 30
0.0
 40
1.5
  0
CIRCLE
  5
B1A
  8
DETAIL
  6
CONTINUOUS
 62
     5
 10
-73.212812999999983
 20
17.5
 30
0.0
 40
1.5
  0
CIRCLE
  5
B1B
  8
DETAIL
  6
CONTINUOUS
 62
     5
 10
-73.212812999999983
 20
13.5
 30
0.0
 40
1.5
  0
CIRCLE
  5
B1C
  8
DETAIL
  6
CONTINUOUS
 62
     5
 10
-73.212812999999983
 20
9.5
 30
0.0
 40
1.5
  0
CIRCLE
  5
B1D
  8
DETAIL
  6
CONTINUOUS
 62
     5
 10
-73.212812999999983
 20
1.5
 30
0.0
 40
1.5
  0
CIRCLE
  5
B1E
  8
DETAIL
  6
CONTINUOUS
 62
     5
 10
-73.212812999999983
 20
5.5
 30
0.0
 40
1.5
  0
CIRCLE
  5
B1F
  8
DETAIL
  6
CONTINUOUS
 62
     5
 10
-73.212812999999983
 20
117.0
 30
0.0
 40
1.5
  0
CIRCLE
  5
B20
  8
DETAIL
  6
CONTINUOUS
 62
     5
 10
-73.212812999999983
 20
69.5
 30
0.0
 40
1.5
  0
CIRCLE
  5
B21
  8
DETAIL
  6
CONTINUOUS
 62
     5
 10
-73.212812999999983
 20
65.5
 30
0.0
 40
1.5
  0
CIRCLE
  5
B22
  8
DETAIL
  6
CONTINUOUS
 62
     5
 10
-73.212812999999983
 20
61.5
 30
0.0
 40
1.5
  0
CIRCLE
  5
B23
  8
DETAIL
  6
CONTINUOUS
 62
     5
 10
-73.212812999999983
 20
57.5
 30
0.0
 40
1.5
  0
CIRCLE
  5
B24
  8
DETAIL
  6
CONTINUOUS
 62
     5
 10
-73.212812999999983
 20
73.5
 30
0.0
 40
1.5
  0
CIRCLE
  5
B25
  8
DETAIL
  6
CONTINUOUS
 62
     5
 10
-41.892304999999993
 20
59.5
 30
0.0
 40
1.5
  0
CIRCLE
  5
B26
  8
DETAIL
  6
CONTINUOUS
 62
     5
 10
-41.892304999999993
 20
63.5
 30
0.0
 40
1.5
  0
CIRCLE
  5
B27
  8
DETAIL
  6
CONTINUOUS
 62
     5
 10
-41.892304999999993
 20
67.5
 30
0.0
 40
1.5
  0
CIRCLE
  5
B28
  8
DETAIL
  6
CONTINUOUS
 62
     5
 10
-41.892304999999993
 20
51.5
 30
0.0
 40
1.5
  0
CIRCLE
  5
B29
  8
DETAIL
  6
CONTINUOUS
 62
     5
 10
-41.892304999999993
 20
55.5
 30
0.0
 40
1.5
  0
CIRCLE
  5
B2A
  8
DETAIL
  6
CONTINUOUS
 62
     5
 10
-41.892304999999993
 20
71.5
 30
0.0
 40
1.5
  0
CIRCLE
  5
B2B
  8
DETAIL
  6
CONTINUOUS
 62
     5
 10
-38.428203000000003
 20
73.5
 30
0.0
 40
1.5
  0
CIRCLE
  5
B2C
  8
DETAIL
  6
CONTINUOUS
 62
     5
 10
-38.428203000000003
 20
69.5
 30
0.0
 40
1.5
  0
CIRCLE
  5
B2D
  8
DETAIL
  6
CONTINUOUS
 62
     5
 10
-34.96410199999999
 20
71.5
 30
0.0
 40
1.5
  0
CIRCLE
  5
B2E
  8
DETAIL
  6
CONTINUOUS
 62
     5
 10
-38.428203000000003
 20
53.5
 30
0.0
 40
1.5
  0
CIRCLE
  5
B2F
  8
DETAIL
  6
CONTINUOUS
 62
     5
 10
-34.96410199999999
 20
55.5
 30
0.0
 40
1.5
  0
CIRCLE
  5
B30
  8
DETAIL
  6
CONTINUOUS
 62
     5
 10
-41.892304999999993
 20
3.5
 30
0.0
 40
1.5
  0
CIRCLE
  5
B31
  8
DETAIL
  6
CONTINUOUS
 62
     5
 10
-38.428203000000003
 20
5.5
 30
0.0
 40
1.5
  0
CIRCLE
  5
B32
  8
DETAIL
  6
CONTINUOUS
 62
     5
 10
-41.892304999999993
 20
7.5
 30
0.0
 40
1.5
  0
CIRCLE
  5
B33
  8
DETAIL
  6
CONTINUOUS
 62
     5
 10
-41.892304999999993
 20
11.5
 30
0.0
 40
1.5
  0
CIRCLE
  5
B34
  8
DETAIL
  6
CONTINUOUS
 62
     5
 10
-41.892304999999993
 20
15.5
 30
0.0
 40
1.5
  0
CIRCLE
  5
B35
  8
DETAIL
  6
CONTINUOUS
 62
     5
 10
-41.892304999999993
 20
19.5
 30
0.0
 40
1.5
  0
CIRCLE
  5
B36
  8
DETAIL
  6
CONTINUOUS
 62
     5
 10
-41.892304999999993
 20
23.5
 30
0.0
 40
1.5
  0
CIRCLE
  5
B37
  8
DETAIL
  6
CONTINUOUS
 62
     5
 10
-41.892304999999993
 20
27.5
 30
0.0
 40
1.5
  0
CIRCLE
  5
B38
  8
DETAIL
  6
CONTINUOUS
 62
     5
 10
-41.892304999999993
 20
31.5
 30
0.0
 40
1.5
  0
CIRCLE
  5
B39
  8
DETAIL
  6
CONTINUOUS
 62
     5
 10
-41.892304999999993
 20
35.5
 30
0.0
 40
1.5
  0
CIRCLE
  5
B3A
  8
DETAIL
  6
CONTINUOUS
 62
     5
 10
-41.892304999999993
 20
39.5
 30
0.0
 40
1.5
  0
CIRCLE
  5
B3B
  8
DETAIL
  6
CONTINUOUS
 62
     5
 10
-41.892304999999993
 20
43.5
 30
0.0
 40
1.5
  0
CIRCLE
  5
B3C
  8
DETAIL
  6
CONTINUOUS
 62
     5
 10
-41.892304999999993
 20
47.5
 30
0.0
 40
1.5
  0
CIRCLE
  5
B3D
  8
DETAIL
  6
CONTINUOUS
 62
     5
 10
-34.96410199999999
 20
51.5
 30
0.0
 40
1.5
  0
CIRCLE
  5
B3E
  8
DETAIL
  6
CONTINUOUS
 62
     5
 10
-34.96410199999999
 20
47.5
 30
0.0
 40
1.5
  0
CIRCLE
  5
B3F
  8
DETAIL
  6
CONTINUOUS
 62
     5
 10
-34.96410199999999
 20
43.5
 30
0.0
 40
1.5
  0
CIRCLE
  5
B40
  8
DETAIL
  6
CONTINUOUS
 62
     5
 10
-34.96410199999999
 20
39.5
 30
0.0
 40
1.5
  0
CIRCLE
  5
B41
  8
DETAIL
  6
CONTINUOUS
 62
     5
 10
-34.96410199999999
 20
35.5
 30
0.0
 40
1.5
  0
CIRCLE
  5
B42
  8
DETAIL
  6
CONTINUOUS
 62
     5
 10
-34.96410199999999
 20
31.5
 30
0.0
 40
1.5
  0
CIRCLE
  5
B43
  8
DETAIL
  6
CONTINUOUS
 62
     5
 10
-34.96410199999999
 20
27.5
 30
0.0
 40
1.5
  0
CIRCLE
  5
B44
  8
DETAIL
  6
CONTINUOUS
 62
     5
 10
-34.96410199999999
 20
23.5
 30
0.0
 40
1.5
  0
CIRCLE
  5
B45
  8
DETAIL
  6
CONTINUOUS
 62
     5
 10
-34.96410199999999
 20
19.5
 30
0.0
 40
1.5
  0
CIRCLE
  5
B46
  8
DETAIL
  6
CONTINUOUS
 62
     5
 10
-34.96410199999999
 20
15.5
 30
0.0
 40
1.5
  0
CIRCLE
  5
B47
  8
DETAIL
  6
CONTINUOUS
 62
     5
 10
-34.96410199999999
 20
11.5
 30
0.0
 40
1.5
  0
CIRCLE
  5
B48
  8
DETAIL
  6
CONTINUOUS
 62
     5
 10
-34.96410199999999
 20
7.5
 30
0.0
 40
1.5
  0
CIRCLE
  5
B49
  8
DETAIL
  6
CONTINUOUS
 62
     5
 10
-38.428203000000003
 20
9.5
 30
0.0
 40
1.5
  0
CIRCLE
  5
B4A
  8
DETAIL
  6
CONTINUOUS
 62
     5
 10
-38.428203000000003
 20
13.5
 30
0.0
 40
1.5
  0
CIRCLE
  5
B4B
  8
DETAIL
  6
CONTINUOUS
 62
     5
 10
-38.428203000000003
 20
17.5
 30
0.0
 40
1.5
  0
CIRCLE
  5
B4C
  8
DETAIL
  6
CONTINUOUS
 62
     5
 10
-38.428203000000003
 20
21.499999999999989
 30
0.0
 40
1.5
  0
CIRCLE
  5
B4D
  8
DETAIL
  6
CONTINUOUS
 62
     5
 10
-38.428203000000003
 20
25.5
 30
0.0
 40
1.5
  0
CIRCLE
  5
B4E
  8
DETAIL
  6
CONTINUOUS
 62
     5
 10
-38.428203000000003
 20
29.5
 30
0.0
 40
1.5
  0
CIRCLE
  5
B4F
  8
DETAIL
  6
CONTINUOUS
 62
     5
 10
-38.428203000000003
 20
33.5
 30
0.0
 40
1.5
  0
CIRCLE
  5
B50
  8
DETAIL
  6
CONTINUOUS
 62
     5
 10
-38.428203000000003
 20
37.5
 30
0.0
 40
1.5
  0
CIRCLE
  5
B51
  8
DETAIL
  6
CONTINUOUS
 62
     5
 10
-38.428203000000003
 20
41.5
 30
0.0
 40
1.5
  0
CIRCLE
  5
B52
  8
DETAIL
  6
CONTINUOUS
 62
     5
 10
-38.428203000000003
 20
45.499999999999993
 30
0.0
 40
1.5
  0
CIRCLE
  5
B53
  8
DETAIL
  6
CONTINUOUS
 62
     5
 10
-38.428203000000003
 20
49.5
 30
0.0
 40
1.5
  0
CIRCLE
  5
B54
  8
DETAIL
  6
CONTINUOUS
 62
     5
 10
-38.428203000000003
 20
1.5
 30
0.0
 40
1.5
  0
CIRCLE
  5
B55
  8
DETAIL
  6
CONTINUOUS
 62
     5
 10
-34.96410199999999
 20
3.5
 30
0.0
 40
1.5
  0
CIRCLE
  5
B56
  8
DETAIL
  6
CONTINUOUS
 62
     5
 10
-41.892304999999993
 20
115.0
 30
0.0
 40
1.5
  0
CIRCLE
  5
B57
  8
DETAIL
  6
CONTINUOUS
 62
     5
 10
-38.428203000000003
 20
117.0
 30
0.0
 40
1.5
  0
CIRCLE
  5
B58
  8
DETAIL
  6
CONTINUOUS
 62
     5
 10
-34.96410199999999
 20
115.0
 30
0.0
 40
1.5
  0
CIRCLE
  5
B59
  8
DETAIL
  6
CONTINUOUS
 62
     5
 10
-34.96410199999999
 20
67.5
 30
0.0
 40
1.5
  0
CIRCLE
  5
B5A
  8
DETAIL
  6
CONTINUOUS
 62
     5
 10
-38.428203000000003
 20
65.5
 30
0.0
 40
1.5
  0
CIRCLE
  5
B5B
  8
DETAIL
  6
CONTINUOUS
 62
     5
 10
-34.96410199999999
 20
63.5
 30
0.0
 40
1.5
  0
CIRCLE
  5
B5C
  8
DETAIL
  6
CONTINUOUS
 62
     5
 10
-38.428203000000003
 20
61.5
 30
0.0
 40
1.5
  0
CIRCLE
  5
B5D
  8
DETAIL
  6
CONTINUOUS
 62
     5
 10
-34.96410199999999
 20
59.5
 30
0.0
 40
1.5
  0
CIRCLE
  5
B5E
  8
DETAIL
  6
CONTINUOUS
 62
     5
 10
-38.428203000000003
 20
57.5
 30
0.0
 40
1.5
  0
CIRCLE
  5
B5F
  8
DETAIL
  6
CONTINUOUS
 62
     5
 10
-31.5
 20
53.5
 30
0.0
 40
1.5
  0
CIRCLE
  5
B60
  8
DETAIL
  6
CONTINUOUS
 62
     5
 10
-31.5
 20
49.5
 30
0.0
 40
1.5
  0
CIRCLE
  5
B61
  8
DETAIL
  6
CONTINUOUS
 62
     5
 10
-31.5
 20
45.499999999999993
 30
0.0
 40
1.5
  0
CIRCLE
  5
B62
  8
DETAIL
  6
CONTINUOUS
 62
     5
 10
-31.5
 20
41.5
 30
0.0
 40
1.5
  0
CIRCLE
  5
B63
  8
DETAIL
  6
CONTINUOUS
 62
     5
 10
-31.5
 20
37.5
 30
0.0
 40
1.5
  0
CIRCLE
  5
B64
  8
DETAIL
  6
CONTINUOUS
 62
     5
 10
-31.5
 20
33.5
 30
0.0
 40
1.5
  0
CIRCLE
  5
B65
  8
DETAIL
  6
CONTINUOUS
 62
     5
 10
-31.5
 20
29.5
 30
0.0
 40
1.5
  0
CIRCLE
  5
B66
  8
DETAIL
  6
CONTINUOUS
 62
     5
 10
-31.5
 20
25.5
 30
0.0
 40
1.5
  0
CIRCLE
  5
B67
  8
DETAIL
  6
CONTINUOUS
 62
     5
 10
-31.5
 20
21.499999999999989
 30
0.0
 40
1.5
  0
CIRCLE
  5
B68
  8
DETAIL
  6
CONTINUOUS
 62
     5
 10
-31.5
 20
17.5
 30
0.0
 40
1.5
  0
CIRCLE
  5
B69
  8
DETAIL
  6
CONTINUOUS
 62
     5
 10
-31.5
 20
13.5
 30
0.0
 40
1.5
  0
CIRCLE
  5
B6A
  8
DETAIL
  6
CONTINUOUS
 62
     5
 10
-31.5
 20
9.5
 30
0.0
 40
1.5
  0
CIRCLE
  5
B6B
  8
DETAIL
  6
CONTINUOUS
 62
     5
 10
-31.5
 20
1.5
 30
0.0
 40
1.5
  0
CIRCLE
  5
B6C
  8
DETAIL
  6
CONTINUOUS
 62
     5
 10
-31.5
 20
5.5
 30
0.0
 40
1.5
  0
CIRCLE
  5
B6D
  8
DETAIL
  6
CONTINUOUS
 62
     5
 10
-31.5
 20
117.0
 30
0.0
 40
1.5
  0
CIRCLE
  5
B6E
  8
DETAIL
  6
CONTINUOUS
 62
     5
 10
-31.5
 20
69.5
 30
0.0
 40
1.5
  0
CIRCLE
  5
B6F
  8
DETAIL
  6
CONTINUOUS
 62
     5
 10
-31.5
 20
65.5
 30
0.0
 40
1.5
  0
CIRCLE
  5
B70
  8
DETAIL
  6
CONTINUOUS
 62
     5
 10
-31.5
 20
61.5
 30
0.0
 40
1.5
  0
CIRCLE
  5
B71
  8
DETAIL
  6
CONTINUOUS
 62
     5
 10
-31.5
 20
57.5
 30
0.0
 40
1.5
  0
CIRCLE
  5
B72
  8
DETAIL
  6
CONTINUOUS
 62
     5
 10
-31.5
 20
73.5
 30
0.0
 40
1.5
  0
CIRCLE
  5
B73
  8
DETAIL
  6
CONTINUOUS
 62
     5
 10
-48.892305
 20
115.0
 30
0.0
 40
1.5
  0
CIRCLE
  5
B74
  8
DETAIL
  6
CONTINUOUS
 62
     5
 10
-52.356405999999993
 20
73.5
 30
0.0
 40
1.5
  0
CIRCLE
  5
B75
  8
DETAIL
  6
CONTINUOUS
 62
     5
 10
-45.428203000000003
 20
117.0
 30
0.0
 40
1.5
  0
CIRCLE
  5
B76
  8
DETAIL
  6
CONTINUOUS
 62
     5
 10
-52.356405999999993
 20
57.5
 30
0.0
 40
1.5
  0
CIRCLE
  5
B77
  8
DETAIL
  6
CONTINUOUS
 62
     5
 10
-48.892305
 20
59.5
 30
0.0
 40
1.5
  0
CIRCLE
  5
B78
  8
DETAIL
  6
CONTINUOUS
 62
     5
 10
-55.820507999999997
 20
59.5
 30
0.0
 40
1.5
  0
CIRCLE
  5
B79
  8
DETAIL
  6
CONTINUOUS
 62
     5
 10
-52.356405999999993
 20
61.5
 30
0.0
 40
1.5
  0
CIRCLE
  5
B7A
  8
DETAIL
  6
CONTINUOUS
 62
     5
 10
-48.892305
 20
63.5
 30
0.0
 40
1.5
  0
CIRCLE
  5
B7B
  8
DETAIL
  6
CONTINUOUS
 62
     5
 10
-55.820507999999997
 20
63.5
 30
0.0
 40
1.5
  0
CIRCLE
  5
B7C
  8
DETAIL
  6
CONTINUOUS
 62
     5
 10
-52.356405999999993
 20
65.5
 30
0.0
 40
1.5
  0
CIRCLE
  5
B7D
  8
DETAIL
  6
CONTINUOUS
 62
     5
 10
-48.892305
 20
67.5
 30
0.0
 40
1.5
  0
CIRCLE
  5
B7E
  8
DETAIL
  6
CONTINUOUS
 62
     5
 10
-55.820507999999997
 20
67.5
 30
0.0
 40
1.5
  0
CIRCLE
  5
B7F
  8
DETAIL
  6
CONTINUOUS
 62
     5
 10
-55.820507999999997
 20
71.5
 30
0.0
 40
1.5
  0
CIRCLE
  5
B80
  8
DETAIL
  6
CONTINUOUS
 62
     5
 10
-48.892305
 20
71.5
 30
0.0
 40
1.5
  0
CIRCLE
  5
B81
  8
DETAIL
  6
CONTINUOUS
 62
     5
 10
-52.356405999999993
 20
69.5
 30
0.0
 40
1.5
  0
CIRCLE
  5
B82
  8
DETAIL
  6
CONTINUOUS
 62
     5
 10
-45.428203000000003
 20
69.5
 30
0.0
 40
1.5
  0
CIRCLE
  5
B83
  8
DETAIL
  6
CONTINUOUS
 62
     5
 10
-52.356405999999993
 20
117.0
 30
0.0
 40
1.5
  0
CIRCLE
  5
B84
  8
DETAIL
  6
CONTINUOUS
 62
     5
 10
-55.820507999999997
 20
115.0
 30
0.0
 40
1.5
  0
CIRCLE
  5
B85
  8
DETAIL
  6
CONTINUOUS
 62
     5
 10
-45.428203000000003
 20
57.5
 30
0.0
 40
1.5
  0
CIRCLE
  5
B86
  8
DETAIL
  6
CONTINUOUS
 62
     5
 10
-45.428203000000003
 20
49.5
 30
0.0
 40
1.5
  0
CIRCLE
  5
B87
  8
DETAIL
  6
CONTINUOUS
 62
     5
 10
-48.892305
 20
51.5
 30
0.0
 40
1.5
  0
CIRCLE
  5
B88
  8
DETAIL
  6
CONTINUOUS
 62
     5
 10
-45.428203000000003
 20
65.5
 30
0.0
 40
1.5
  0
CIRCLE
  5
B89
  8
DETAIL
  6
CONTINUOUS
 62
     5
 10
-45.428203000000003
 20
61.5
 30
0.0
 40
1.5
  0
CIRCLE
  5
B8A
  8
DETAIL
  6
CONTINUOUS
 62
     5
 10
-45.428203000000003
 20
45.499999999999993
 30
0.0
 40
1.5
  0
CIRCLE
  5
B8B
  8
DETAIL
  6
CONTINUOUS
 62
     5
 10
-45.428203000000003
 20
41.5
 30
0.0
 40
1.5
  0
CIRCLE
  5
B8C
  8
DETAIL
  6
CONTINUOUS
 62
     5
 10
-45.428203000000003
 20
37.5
 30
0.0
 40
1.5
  0
CIRCLE
  5
B8D
  8
DETAIL
  6
CONTINUOUS
 62
     5
 10
-45.428203000000003
 20
33.5
 30
0.0
 40
1.5
  0
CIRCLE
  5
B8E
  8
DETAIL
  6
CONTINUOUS
 62
     5
 10
-45.428203000000003
 20
29.5
 30
0.0
 40
1.5
  0
CIRCLE
  5
B8F
  8
DETAIL
  6
CONTINUOUS
 62
     5
 10
-45.428203000000003
 20
25.5
 30
0.0
 40
1.5
  0
CIRCLE
  5
B90
  8
DETAIL
  6
CONTINUOUS
 62
     5
 10
-45.428203000000003
 20
21.499999999999989
 30
0.0
 40
1.5
  0
CIRCLE
  5
B91
  8
DETAIL
  6
CONTINUOUS
 62
     5
 10
-45.428203000000003
 20
17.5
 30
0.0
 40
1.5
  0
CIRCLE
  5
B92
  8
DETAIL
  6
CONTINUOUS
 62
     5
 10
-45.428203000000003
 20
13.5
 30
0.0
 40
1.5
  0
CIRCLE
  5
B93
  8
DETAIL
  6
CONTINUOUS
 62
     5
 10
-45.428203000000003
 20
9.5
 30
0.0
 40
1.5
  0
CIRCLE
  5
B94
  8
DETAIL
  6
CONTINUOUS
 62
     5
 10
-45.428203000000003
 20
5.5
 30
0.0
 40
1.5
  0
CIRCLE
  5
B95
  8
DETAIL
  6
CONTINUOUS
 62
     5
 10
-45.428203000000003
 20
53.5
 30
0.0
 40
1.5
  0
CIRCLE
  5
B96
  8
DETAIL
  6
CONTINUOUS
 62
     5
 10
-45.428203000000003
 20
73.5
 30
0.0
 40
1.5
  0
CIRCLE
  5
B97
  8
DETAIL
  6
CONTINUOUS
 62
     5
 10
-48.892305
 20
47.5
 30
0.0
 40
1.5
  0
CIRCLE
  5
B98
  8
DETAIL
  6
CONTINUOUS
 62
     5
 10
-48.892305
 20
43.5
 30
0.0
 40
1.5
  0
CIRCLE
  5
B99
  8
DETAIL
  6
CONTINUOUS
 62
     5
 10
-48.892305
 20
39.5
 30
0.0
 40
1.5
  0
CIRCLE
  5
B9A
  8
DETAIL
  6
CONTINUOUS
 62
     5
 10
-48.892305
 20
35.5
 30
0.0
 40
1.5
  0
CIRCLE
  5
B9B
  8
DETAIL
  6
CONTINUOUS
 62
     5
 10
-48.892305
 20
31.5
 30
0.0
 40
1.5
  0
CIRCLE
  5
B9C
  8
DETAIL
  6
CONTINUOUS
 62
     5
 10
-48.892305
 20
27.5
 30
0.0
 40
1.5
  0
CIRCLE
  5
B9D
  8
DETAIL
  6
CONTINUOUS
 62
     5
 10
-48.892305
 20
23.5
 30
0.0
 40
1.5
  0
CIRCLE
  5
B9E
  8
DETAIL
  6
CONTINUOUS
 62
     5
 10
-48.892305
 20
19.5
 30
0.0
 40
1.5
  0
CIRCLE
  5
B9F
  8
DETAIL
  6
CONTINUOUS
 62
     5
 10
-48.892305
 20
15.5
 30
0.0
 40
1.5
  0
CIRCLE
  5
BA0
  8
DETAIL
  6
CONTINUOUS
 62
     5
 10
-48.892305
 20
11.5
 30
0.0
 40
1.5
  0
CIRCLE
  5
BA1
  8
DETAIL
  6
CONTINUOUS
 62
     5
 10
-48.892305
 20
7.5
 30
0.0
 40
1.5
  0
CIRCLE
  5
BA2
  8
DETAIL
  6
CONTINUOUS
 62
     5
 10
-48.892305
 20
3.5
 30
0.0
 40
1.5
  0
CIRCLE
  5
BA3
  8
DETAIL
  6
CONTINUOUS
 62
     5
 10
-48.892305
 20
55.5
 30
0.0
 40
1.5
  0
CIRCLE
  5
BA4
  8
DETAIL
  6
CONTINUOUS
 62
     5
 10
-55.820507999999997
 20
3.5
 30
0.0
 40
1.5
  0
CIRCLE
  5
BA5
  8
DETAIL
  6
CONTINUOUS
 62
     5
 10
-52.356405999999993
 20
5.5
 30
0.0
 40
1.5
  0
CIRCLE
  5
BA6
  8
DETAIL
  6
CONTINUOUS
 62
     5
 10
-55.820507999999997
 20
7.5
 30
0.0
 40
1.5
  0
CIRCLE
  5
BA7
  8
DETAIL
  6
CONTINUOUS
 62
     5
 10
-52.356405999999993
 20
9.5
 30
0.0
 40
1.5
  0
CIRCLE
  5
BA8
  8
DETAIL
  6
CONTINUOUS
 62
     5
 10
-52.356405999999993
 20
13.5
 30
0.0
 40
1.5
  0
CIRCLE
  5
BA9
  8
DETAIL
  6
CONTINUOUS
 62
     5
 10
-52.356405999999993
 20
17.5
 30
0.0
 40
1.5
  0
CIRCLE
  5
BAA
  8
DETAIL
  6
CONTINUOUS
 62
     5
 10
-52.356405999999993
 20
21.499999999999989
 30
0.0
 40
1.5
  0
CIRCLE
  5
BAB
  8
DETAIL
  6
CONTINUOUS
 62
     5
 10
-52.356405999999993
 20
25.5
 30
0.0
 40
1.5
  0
CIRCLE
  5
BAC
  8
DETAIL
  6
CONTINUOUS
 62
     5
 10
-45.428203000000003
 20
1.5
 30
0.0
 40
1.5
  0
CIRCLE
  5
BAD
  8
DETAIL
  6
CONTINUOUS
 62
     5
 10
-52.356405999999993
 20
1.5
 30
0.0
 40
1.5
  0
CIRCLE
  5
BAE
  8
DETAIL
  6
CONTINUOUS
 62
     5
 10
-52.356405999999993
 20
53.5
 30
0.0
 40
1.5
  0
CIRCLE
  5
BAF
  8
DETAIL
  6
CONTINUOUS
 62
     5
 10
-52.356405999999993
 20
29.5
 30
0.0
 40
1.5
  0
CIRCLE
  5
BB0
  8
DETAIL
  6
CONTINUOUS
 62
     5
 10
-52.356405999999993
 20
33.5
 30
0.0
 40
1.5
  0
CIRCLE
  5
BB1
  8
DETAIL
  6
CONTINUOUS
 62
     5
 10
-52.356405999999993
 20
37.5
 30
0.0
 40
1.5
  0
CIRCLE
  5
BB2
  8
DETAIL
  6
CONTINUOUS
 62
     5
 10
-52.356405999999993
 20
41.5
 30
0.0
 40
1.5
  0
CIRCLE
  5
BB3
  8
DETAIL
  6
CONTINUOUS
 62
     5
 10
-52.356405999999993
 20
45.499999999999993
 30
0.0
 40
1.5
  0
CIRCLE
  5
BB4
  8
DETAIL
  6
CONTINUOUS
 62
     5
 10
-52.356405999999993
 20
49.5
 30
0.0
 40
1.5
  0
CIRCLE
  5
BB5
  8
DETAIL
  6
CONTINUOUS
 62
     5
 10
-55.820507999999997
 20
55.5
 30
0.0
 40
1.5
  0
CIRCLE
  5
BB6
  8
DETAIL
  6
CONTINUOUS
 62
     5
 10
-55.820507999999997
 20
11.5
 30
0.0
 40
1.5
  0
CIRCLE
  5
BB7
  8
DETAIL
  6
CONTINUOUS
 62
     5
 10
-55.820507999999997
 20
15.5
 30
0.0
 40
1.5
  0
CIRCLE
  5
BB8
  8
DETAIL
  6
CONTINUOUS
 62
     5
 10
-55.820507999999997
 20
19.5
 30
0.0
 40
1.5
  0
CIRCLE
  5
BB9
  8
DETAIL
  6
CONTINUOUS
 62
     5
 10
-55.820507999999997
 20
23.5
 30
0.0
 40
1.5
  0
CIRCLE
  5
BBA
  8
DETAIL
  6
CONTINUOUS
 62
     5
 10
-55.820507999999997
 20
27.5
 30
0.0
 40
1.5
  0
CIRCLE
  5
BBB
  8
DETAIL
  6
CONTINUOUS
 62
     5
 10
-55.820507999999997
 20
31.5
 30
0.0
 40
1.5
  0
CIRCLE
  5
BBC
  8
DETAIL
  6
CONTINUOUS
 62
     5
 10
-55.820507999999997
 20
35.5
 30
0.0
 40
1.5
  0
CIRCLE
  5
BBD
  8
DETAIL
  6
CONTINUOUS
 62
     5
 10
-55.820507999999997
 20
39.5
 30
0.0
 40
1.5
  0
CIRCLE
  5
BBE
  8
DETAIL
  6
CONTINUOUS
 62
     5
 10
-55.820507999999997
 20
43.5
 30
0.0
 40
1.5
  0
CIRCLE
  5
BBF
  8
DETAIL
  6
CONTINUOUS
 62
     5
 10
-55.820507999999997
 20
47.5
 30
0.0
 40
1.5
  0
CIRCLE
  5
BC0
  8
DETAIL
  6
CONTINUOUS
 62
     5
 10
-55.820507999999997
 20
51.5
 30
0.0
 40
1.5
  0
CIRCLE
  5
BC1
  8
DETAIL
  6
CONTINUOUS
 62
     5
 10
-80.141015999999993
 20
193.0
 30
0.0
 40
1.5
  0
CIRCLE
  5
BC2
  8
DETAIL
  6
CONTINUOUS
 62
     5
 10
-80.141015999999993
 20
197.0
 30
0.0
 40
1.5
  0
CIRCLE
  5
BC3
  8
DETAIL
  6
CONTINUOUS
 62
     5
 10
-80.141015999999993
 20
125.0
 30
0.0
 40
1.5
  0
CIRCLE
  5
BC4
  8
DETAIL
  6
CONTINUOUS
 62
     5
 10
-80.141015999999993
 20
129.0
 30
0.0
 40
1.5
  0
CIRCLE
  5
BC5
  8
DETAIL
  6
CONTINUOUS
 62
     5
 10
-80.141015999999993
 20
133.0
 30
0.0
 40
1.5
  0
CIRCLE
  5
BC6
  8
DETAIL
  6
CONTINUOUS
 62
     5
 10
-80.141015999999993
 20
137.0
 30
0.0
 40
1.5
  0
CIRCLE
  5
BC7
  8
DETAIL
  6
CONTINUOUS
 62
     5
 10
-80.141015999999993
 20
141.0
 30
0.0
 40
1.5
  0
CIRCLE
  5
BC8
  8
DETAIL
  6
CONTINUOUS
 62
     5
 10
-80.141015999999993
 20
145.0
 30
0.0
 40
1.5
  0
CIRCLE
  5
BC9
  8
DETAIL
  6
CONTINUOUS
 62
     5
 10
-80.141015999999993
 20
149.0
 30
0.0
 40
1.5
  0
CIRCLE
  5
BCA
  8
DETAIL
  6
CONTINUOUS
 62
     5
 10
-80.141015999999993
 20
153.0
 30
0.0
 40
1.5
  0
CIRCLE
  5
BCB
  8
DETAIL
  6
CONTINUOUS
 62
     5
 10
-80.141015999999993
 20
157.0
 30
0.0
 40
1.5
  0
CIRCLE
  5
BCC
  8
DETAIL
  6
CONTINUOUS
 62
     5
 10
-80.141015999999993
 20
161.0
 30
0.0
 40
1.5
  0
CIRCLE
  5
BCD
  8
DETAIL
  6
CONTINUOUS
 62
     5
 10
-80.141015999999993
 20
165.0
 30
0.0
 40
1.5
  0
CIRCLE
  5
BCE
  8
DETAIL
  6
CONTINUOUS
 62
     5
 10
-80.141015999999993
 20
169.0
 30
0.0
 40
1.5
  0
CIRCLE
  5
BCF
  8
DETAIL
  6
CONTINUOUS
 62
     5
 10
-80.141015999999993
 20
173.0
 30
0.0
 40
1.5
  0
CIRCLE
  5
BD0
  8
DETAIL
  6
CONTINUOUS
 62
     5
 10
-80.141015999999993
 20
177.0
 30
0.0
 40
1.5
  0
CIRCLE
  5
BD1
  8
DETAIL
  6
CONTINUOUS
 62
     5
 10
-80.141015999999993
 20
181.0
 30
0.0
 40
1.5
  0
CIRCLE
  5
BD2
  8
DETAIL
  6
CONTINUOUS
 62
     5
 10
-80.141015999999993
 20
185.0
 30
0.0
 40
1.5
  0
CIRCLE
  5
BD3
  8
DETAIL
  6
CONTINUOUS
 62
     5
 10
-80.141015999999993
 20
189.0
 30
0.0
 40
1.5
  0
CIRCLE
  5
BD4
  8
DETAIL
  6
CONTINUOUS
 62
     5
 10
-69.748711
 20
191.0
 30
0.0
 40
1.5
  0
CIRCLE
  5
BD5
  8
DETAIL
  6
CONTINUOUS
 62
     5
 10
-69.748711
 20
195.0
 30
0.0
 40
1.5
  0
CIRCLE
  5
BD6
  8
DETAIL
  6
CONTINUOUS
 62
     5
 10
-69.748711
 20
199.0
 30
0.0
 40
1.5
  0
CIRCLE
  5
BD7
  8
DETAIL
  6
CONTINUOUS
 62
     5
 10
-66.284610000000001
 20
193.0
 30
0.0
 40
1.5
  0
CIRCLE
  5
BD8
  8
DETAIL
  6
CONTINUOUS
 62
     5
 10
-66.284610000000001
 20
197.0
 30
0.0
 40
1.5
  0
CIRCLE
  5
BD9
  8
DETAIL
  6
CONTINUOUS
 62
     5
 10
-62.820507999999997
 20
199.0
 30
0.0
 40
1.5
  0
CIRCLE
  5
BDA
  8
DETAIL
  6
CONTINUOUS
 62
     5
 10
-62.820507999999997
 20
195.0
 30
0.0
 40
1.5
  0
CIRCLE
  5
BDB
  8
DETAIL
  6
CONTINUOUS
 62
     5
 10
-62.820507999999997
 20
191.0
 30
0.0
 40
1.5
  0
CIRCLE
  5
BDC
  8
DETAIL
  6
CONTINUOUS
 62
     5
 10
-59.356406000000007
 20
197.0
 30
0.0
 40
1.5
  0
CIRCLE
  5
BDD
  8
DETAIL
  6
CONTINUOUS
 62
     5
 10
-59.356406000000007
 20
193.0
 30
0.0
 40
1.5
  0
CIRCLE
  5
BDE
  8
DETAIL
  6
CONTINUOUS
 62
     5
 10
-41.892304999999993
 20
191.0
 30
0.0
 40
1.5
  0
CIRCLE
  5
BDF
  8
DETAIL
  6
CONTINUOUS
 62
     5
 10
-41.892304999999993
 20
195.0
 30
0.0
 40
1.5
  0
CIRCLE
  5
BE0
  8
DETAIL
  6
CONTINUOUS
 62
     5
 10
-41.892304999999993
 20
199.0
 30
0.0
 40
1.5
  0
CIRCLE
  5
BE1
  8
DETAIL
  6
CONTINUOUS
 62
     5
 10
-38.428203000000003
 20
193.0
 30
0.0
 40
1.5
  0
CIRCLE
  5
BE2
  8
DETAIL
  6
CONTINUOUS
 62
     5
 10
-38.428203000000003
 20
197.0
 30
0.0
 40
1.5
  0
CIRCLE
  5
BE3
  8
DETAIL
  6
CONTINUOUS
 62
     5
 10
-34.96410199999999
 20
199.0
 30
0.0
 40
1.5
  0
CIRCLE
  5
BE4
  8
DETAIL
  6
CONTINUOUS
 62
     5
 10
-34.96410199999999
 20
195.0
 30
0.0
 40
1.5
  0
CIRCLE
  5
BE5
  8
DETAIL
  6
CONTINUOUS
 62
     5
 10
-34.96410199999999
 20
191.0
 30
0.0
 40
1.5
  0
CIRCLE
  5
BE6
  8
DETAIL
  6
CONTINUOUS
 62
     5
 10
-31.5
 20
197.0
 30
0.0
 40
1.5
  0
CIRCLE
  5
BE7
  8
DETAIL
  6
CONTINUOUS
 62
     5
 10
-31.5
 20
193.0
 30
0.0
 40
1.5
  0
CIRCLE
  5
BE8
  8
DETAIL
  6
CONTINUOUS
 62
     5
 10
-45.428203000000003
 20
193.0
 30
0.0
 40
1.5
  0
CIRCLE
  5
BE9
  8
DETAIL
  6
CONTINUOUS
 62
     5
 10
-45.428203000000003
 20
197.0
 30
0.0
 40
1.5
  0
CIRCLE
  5
BEA
  8
DETAIL
  6
CONTINUOUS
 62
     5
 10
-48.892305
 20
191.0
 30
0.0
 40
1.5
  0
CIRCLE
  5
BEB
  8
DETAIL
  6
CONTINUOUS
 62
     5
 10
-48.892305
 20
195.0
 30
0.0
 40
1.5
  0
CIRCLE
  5
BEC
  8
DETAIL
  6
CONTINUOUS
 62
     5
 10
-48.892305
 20
199.0
 30
0.0
 40
1.5
  0
CIRCLE
  5
BED
  8
DETAIL
  6
CONTINUOUS
 62
     5
 10
-52.356405999999993
 20
197.0
 30
0.0
 40
1.5
  0
CIRCLE
  5
BEE
  8
DETAIL
  6
CONTINUOUS
 62
     5
 10
-52.356405999999993
 20
193.0
 30
0.0
 40
1.5
  0
CIRCLE
  5
BEF
  8
DETAIL
  6
CONTINUOUS
 62
     5
 10
-55.820507999999997
 20
199.0
 30
0.0
 40
1.5
  0
CIRCLE
  5
BF0
  8
DETAIL
  6
CONTINUOUS
 62
     5
 10
-55.820507999999997
 20
195.0
 30
0.0
 40
1.5
  0
CIRCLE
  5
BF1
  8
DETAIL
  6
CONTINUOUS
 62
     5
 10
-55.820507999999997
 20
191.0
 30
0.0
 40
1.5
  0
CIRCLE
  5
BF2
  8
DETAIL
  6
CONTINUOUS
 62
     5
 10
-76.67691499999998
 20
199.0
 30
0.0
 40
1.5
  0
CIRCLE
  5
BF3
  8
DETAIL
  6
CONTINUOUS
 62
     5
 10
-76.67691499999998
 20
195.0
 30
0.0
 40
1.5
  0
CIRCLE
  5
BF4
  8
DETAIL
  6
CONTINUOUS
 62
     5
 10
-76.67691499999998
 20
191.0
 30
0.0
 40
1.5
  0
CIRCLE
  5
BF5
  8
DETAIL
  6
CONTINUOUS
 62
     5
 10
-73.212812999999983
 20
197.0
 30
0.0
 40
1.5
  0
CIRCLE
  5
BF6
  8
DETAIL
  6
CONTINUOUS
 62
     5
 10
-73.212812999999983
 20
193.0
 30
0.0
 40
1.5
  0
CIRCLE
  5
BF7
  8
DETAIL
  6
CONTINUOUS
 62
     5
 10
-69.748711
 20
127.0
 30
0.0
 40
1.5
  0
CIRCLE
  5
BF8
  8
DETAIL
  6
CONTINUOUS
 62
     5
 10
-69.748711
 20
131.0
 30
0.0
 40
1.5
  0
CIRCLE
  5
BF9
  8
DETAIL
  6
CONTINUOUS
 62
     5
 10
-69.748711
 20
135.0
 30
0.0
 40
1.5
  0
CIRCLE
  5
BFA
  8
DETAIL
  6
CONTINUOUS
 62
     5
 10
-69.748711
 20
139.0
 30
0.0
 40
1.5
  0
CIRCLE
  5
BFB
  8
DETAIL
  6
CONTINUOUS
 62
     5
 10
-69.748711
 20
143.0
 30
0.0
 40
1.5
  0
CIRCLE
  5
BFC
  8
DETAIL
  6
CONTINUOUS
 62
     5
 10
-69.748711
 20
147.0
 30
0.0
 40
1.5
  0
CIRCLE
  5
BFD
  8
DETAIL
  6
CONTINUOUS
 62
     5
 10
-69.748711
 20
151.0
 30
0.0
 40
1.5
  0
CIRCLE
  5
BFE
  8
DETAIL
  6
CONTINUOUS
 62
     5
 10
-69.748711
 20
155.0
 30
0.0
 40
1.5
  0
CIRCLE
  5
BFF
  8
DETAIL
  6
CONTINUOUS
 62
     5
 10
-69.748711
 20
159.0
 30
0.0
 40
1.5
  0
CIRCLE
  5
C00
  8
DETAIL
  6
CONTINUOUS
 62
     5
 10
-69.748711
 20
163.0
 30
0.0
 40
1.5
  0
CIRCLE
  5
C01
  8
DETAIL
  6
CONTINUOUS
 62
     5
 10
-69.748711
 20
167.0
 30
0.0
 40
1.5
  0
CIRCLE
  5
C02
  8
DETAIL
  6
CONTINUOUS
 62
     5
 10
-69.748711
 20
171.0
 30
0.0
 40
1.5
  0
CIRCLE
  5
C03
  8
DETAIL
  6
CONTINUOUS
 62
     5
 10
-69.748711
 20
175.0
 30
0.0
 40
1.5
  0
CIRCLE
  5
C04
  8
DETAIL
  6
CONTINUOUS
 62
     5
 10
-69.748711
 20
179.0
 30
0.0
 40
1.5
  0
CIRCLE
  5
C05
  8
DETAIL
  6
CONTINUOUS
 62
     5
 10
-69.748711
 20
183.0
 30
0.0
 40
1.5
  0
CIRCLE
  5
C06
  8
DETAIL
  6
CONTINUOUS
 62
     5
 10
-69.748711
 20
187.0
 30
0.0
 40
1.5
  0
CIRCLE
  5
C07
  8
DETAIL
  6
CONTINUOUS
 62
     5
 10
-66.284610000000001
 20
125.0
 30
0.0
 40
1.5
  0
CIRCLE
  5
C08
  8
DETAIL
  6
CONTINUOUS
 62
     5
 10
-66.284610000000001
 20
129.0
 30
0.0
 40
1.5
  0
CIRCLE
  5
C09
  8
DETAIL
  6
CONTINUOUS
 62
     5
 10
-66.284610000000001
 20
133.0
 30
0.0
 40
1.5
  0
CIRCLE
  5
C0A
  8
DETAIL
  6
CONTINUOUS
 62
     5
 10
-66.284610000000001
 20
137.0
 30
0.0
 40
1.5
  0
CIRCLE
  5
C0B
  8
DETAIL
  6
CONTINUOUS
 62
     5
 10
-66.284610000000001
 20
141.0
 30
0.0
 40
1.5
  0
CIRCLE
  5
C0C
  8
DETAIL
  6
CONTINUOUS
 62
     5
 10
-66.284610000000001
 20
145.0
 30
0.0
 40
1.5
  0
CIRCLE
  5
C0D
  8
DETAIL
  6
CONTINUOUS
 62
     5
 10
-66.284610000000001
 20
149.0
 30
0.0
 40
1.5
  0
CIRCLE
  5
C0E
  8
DETAIL
  6
CONTINUOUS
 62
     5
 10
-66.284610000000001
 20
153.0
 30
0.0
 40
1.5
  0
CIRCLE
  5
C0F
  8
DETAIL
  6
CONTINUOUS
 62
     5
 10
-66.284610000000001
 20
157.0
 30
0.0
 40
1.5
  0
CIRCLE
  5
C10
  8
DETAIL
  6
CONTINUOUS
 62
     5
 10
-66.284610000000001
 20
161.0
 30
0.0
 40
1.5
  0
CIRCLE
  5
C11
  8
DETAIL
  6
CONTINUOUS
 62
     5
 10
-66.284610000000001
 20
165.0
 30
0.0
 40
1.5
  0
CIRCLE
  5
C12
  8
DETAIL
  6
CONTINUOUS
 62
     5
 10
-66.284610000000001
 20
169.0
 30
0.0
 40
1.5
  0
CIRCLE
  5
C13
  8
DETAIL
  6
CONTINUOUS
 62
     5
 10
-66.284610000000001
 20
173.0
 30
0.0
 40
1.5
  0
CIRCLE
  5
C14
  8
DETAIL
  6
CONTINUOUS
 62
     5
 10
-66.284610000000001
 20
177.0
 30
0.0
 40
1.5
  0
CIRCLE
  5
C15
  8
DETAIL
  6
CONTINUOUS
 62
     5
 10
-66.284610000000001
 20
181.0
 30
0.0
 40
1.5
  0
CIRCLE
  5
C16
  8
DETAIL
  6
CONTINUOUS
 62
     5
 10
-66.284610000000001
 20
185.0
 30
0.0
 40
1.5
  0
CIRCLE
  5
C17
  8
DETAIL
  6
CONTINUOUS
 62
     5
 10
-66.284610000000001
 20
189.0
 30
0.0
 40
1.5
  0
CIRCLE
  5
C18
  8
DETAIL
  6
CONTINUOUS
 62
     5
 10
-69.748711
 20
123.0
 30
0.0
 40
1.5
  0
CIRCLE
  5
C19
  8
DETAIL
  6
CONTINUOUS
 62
     5
 10
-62.820507999999997
 20
123.0
 30
0.0
 40
1.5
  0
CIRCLE
  5
C1A
  8
DETAIL
  6
CONTINUOUS
 62
     5
 10
-62.820507999999997
 20
187.0
 30
0.0
 40
1.5
  0
CIRCLE
  5
C1B
  8
DETAIL
  6
CONTINUOUS
 62
     5
 10
-62.820507999999997
 20
183.0
 30
0.0
 40
1.5
  0
CIRCLE
  5
C1C
  8
DETAIL
  6
CONTINUOUS
 62
     5
 10
-62.820507999999997
 20
179.0
 30
0.0
 40
1.5
  0
CIRCLE
  5
C1D
  8
DETAIL
  6
CONTINUOUS
 62
     5
 10
-62.820507999999997
 20
175.0
 30
0.0
 40
1.5
  0
CIRCLE
  5
C1E
  8
DETAIL
  6
CONTINUOUS
 62
     5
 10
-62.820507999999997
 20
171.0
 30
0.0
 40
1.5
  0
CIRCLE
  5
C1F
  8
DETAIL
  6
CONTINUOUS
 62
     5
 10
-62.820507999999997
 20
167.0
 30
0.0
 40
1.5
  0
CIRCLE
  5
C20
  8
DETAIL
  6
CONTINUOUS
 62
     5
 10
-62.820507999999997
 20
163.0
 30
0.0
 40
1.5
  0
CIRCLE
  5
C21
  8
DETAIL
  6
CONTINUOUS
 62
     5
 10
-62.820507999999997
 20
159.0
 30
0.0
 40
1.5
  0
CIRCLE
  5
C22
  8
DETAIL
  6
CONTINUOUS
 62
     5
 10
-62.820507999999997
 20
155.0
 30
0.0
 40
1.5
  0
CIRCLE
  5
C23
  8
DETAIL
  6
CONTINUOUS
 62
     5
 10
-62.820507999999997
 20
151.0
 30
0.0
 40
1.5
  0
CIRCLE
  5
C24
  8
DETAIL
  6
CONTINUOUS
 62
     5
 10
-62.820507999999997
 20
147.0
 30
0.0
 40
1.5
  0
CIRCLE
  5
C25
  8
DETAIL
  6
CONTINUOUS
 62
     5
 10
-62.820507999999997
 20
143.0
 30
0.0
 40
1.5
  0
CIRCLE
  5
C26
  8
DETAIL
  6
CONTINUOUS
 62
     5
 10
-62.820507999999997
 20
139.0
 30
0.0
 40
1.5
  0
CIRCLE
  5
C27
  8
DETAIL
  6
CONTINUOUS
 62
     5
 10
-62.820507999999997
 20
135.0
 30
0.0
 40
1.5
  0
CIRCLE
  5
C28
  8
DETAIL
  6
CONTINUOUS
 62
     5
 10
-62.820507999999997
 20
131.0
 30
0.0
 40
1.5
  0
CIRCLE
  5
C29
  8
DETAIL
  6
CONTINUOUS
 62
     5
 10
-62.820507999999997
 20
127.0
 30
0.0
 40
1.5
  0
CIRCLE
  5
C2A
  8
DETAIL
  6
CONTINUOUS
 62
     5
 10
-59.356406000000007
 20
189.0
 30
0.0
 40
1.5
  0
CIRCLE
  5
C2B
  8
DETAIL
  6
CONTINUOUS
 62
     5
 10
-59.356406000000007
 20
185.0
 30
0.0
 40
1.5
  0
CIRCLE
  5
C2C
  8
DETAIL
  6
CONTINUOUS
 62
     5
 10
-59.356406000000007
 20
181.0
 30
0.0
 40
1.5
  0
CIRCLE
  5
C2D
  8
DETAIL
  6
CONTINUOUS
 62
     5
 10
-59.356406000000007
 20
177.0
 30
0.0
 40
1.5
  0
CIRCLE
  5
C2E
  8
DETAIL
  6
CONTINUOUS
 62
     5
 10
-59.356406000000007
 20
173.0
 30
0.0
 40
1.5
  0
CIRCLE
  5
C2F
  8
DETAIL
  6
CONTINUOUS
 62
     5
 10
-59.356406000000007
 20
169.0
 30
0.0
 40
1.5
  0
CIRCLE
  5
C30
  8
DETAIL
  6
CONTINUOUS
 62
     5
 10
-59.356406000000007
 20
165.0
 30
0.0
 40
1.5
  0
CIRCLE
  5
C31
  8
DETAIL
  6
CONTINUOUS
 62
     5
 10
-59.356406000000007
 20
161.0
 30
0.0
 40
1.5
  0
CIRCLE
  5
C32
  8
DETAIL
  6
CONTINUOUS
 62
     5
 10
-59.356406000000007
 20
157.0
 30
0.0
 40
1.5
  0
CIRCLE
  5
C33
  8
DETAIL
  6
CONTINUOUS
 62
     5
 10
-59.356406000000007
 20
153.0
 30
0.0
 40
1.5
  0
CIRCLE
  5
C34
  8
DETAIL
  6
CONTINUOUS
 62
     5
 10
-59.356406000000007
 20
149.0
 30
0.0
 40
1.5
  0
CIRCLE
  5
C35
  8
DETAIL
  6
CONTINUOUS
 62
     5
 10
-59.356406000000007
 20
145.0
 30
0.0
 40
1.5
  0
CIRCLE
  5
C36
  8
DETAIL
  6
CONTINUOUS
 62
     5
 10
-59.356406000000007
 20
141.0
 30
0.0
 40
1.5
  0
CIRCLE
  5
C37
  8
DETAIL
  6
CONTINUOUS
 62
     5
 10
-59.356406000000007
 20
137.0
 30
0.0
 40
1.5
  0
CIRCLE
  5
C38
  8
DETAIL
  6
CONTINUOUS
 62
     5
 10
-59.356406000000007
 20
133.0
 30
0.0
 40
1.5
  0
CIRCLE
  5
C39
  8
DETAIL
  6
CONTINUOUS
 62
     5
 10
-59.356406000000007
 20
129.0
 30
0.0
 40
1.5
  0
CIRCLE
  5
C3A
  8
DETAIL
  6
CONTINUOUS
 62
     5
 10
-59.356406000000007
 20
125.0
 30
0.0
 40
1.5
  0
CIRCLE
  5
C3B
  8
DETAIL
  6
CONTINUOUS
 62
     5
 10
-76.67691499999998
 20
123.0
 30
0.0
 40
1.5
  0
CIRCLE
  5
C3C
  8
DETAIL
  6
CONTINUOUS
 62
     5
 10
-76.67691499999998
 20
187.0
 30
0.0
 40
1.5
  0
CIRCLE
  5
C3D
  8
DETAIL
  6
CONTINUOUS
 62
     5
 10
-76.67691499999998
 20
183.0
 30
0.0
 40
1.5
  0
CIRCLE
  5
C3E
  8
DETAIL
  6
CONTINUOUS
 62
     5
 10
-76.67691499999998
 20
179.0
 30
0.0
 40
1.5
  0
CIRCLE
  5
C3F
  8
DETAIL
  6
CONTINUOUS
 62
     5
 10
-76.67691499999998
 20
175.0
 30
0.0
 40
1.5
  0
CIRCLE
  5
C40
  8
DETAIL
  6
CONTINUOUS
 62
     5
 10
-76.67691499999998
 20
171.0
 30
0.0
 40
1.5
  0
CIRCLE
  5
C41
  8
DETAIL
  6
CONTINUOUS
 62
     5
 10
-76.67691499999998
 20
167.0
 30
0.0
 40
1.5
  0
CIRCLE
  5
C42
  8
DETAIL
  6
CONTINUOUS
 62
     5
 10
-76.67691499999998
 20
163.0
 30
0.0
 40
1.5
  0
CIRCLE
  5
C43
  8
DETAIL
  6
CONTINUOUS
 62
     5
 10
-76.67691499999998
 20
159.0
 30
0.0
 40
1.5
  0
CIRCLE
  5
C44
  8
DETAIL
  6
CONTINUOUS
 62
     5
 10
-76.67691499999998
 20
155.0
 30
0.0
 40
1.5
  0
CIRCLE
  5
C45
  8
DETAIL
  6
CONTINUOUS
 62
     5
 10
-76.67691499999998
 20
151.0
 30
0.0
 40
1.5
  0
CIRCLE
  5
C46
  8
DETAIL
  6
CONTINUOUS
 62
     5
 10
-76.67691499999998
 20
147.0
 30
0.0
 40
1.5
  0
CIRCLE
  5
C47
  8
DETAIL
  6
CONTINUOUS
 62
     5
 10
-76.67691499999998
 20
143.0
 30
0.0
 40
1.5
  0
CIRCLE
  5
C48
  8
DETAIL
  6
CONTINUOUS
 62
     5
 10
-76.67691499999998
 20
139.0
 30
0.0
 40
1.5
  0
CIRCLE
  5
C49
  8
DETAIL
  6
CONTINUOUS
 62
     5
 10
-76.67691499999998
 20
135.0
 30
0.0
 40
1.5
  0
CIRCLE
  5
C4A
  8
DETAIL
  6
CONTINUOUS
 62
     5
 10
-76.67691499999998
 20
131.0
 30
0.0
 40
1.5
  0
CIRCLE
  5
C4B
  8
DETAIL
  6
CONTINUOUS
 62
     5
 10
-76.67691499999998
 20
127.0
 30
0.0
 40
1.5
  0
CIRCLE
  5
C4C
  8
DETAIL
  6
CONTINUOUS
 62
     5
 10
-73.212812999999983
 20
189.0
 30
0.0
 40
1.5
  0
CIRCLE
  5
C4D
  8
DETAIL
  6
CONTINUOUS
 62
     5
 10
-73.212812999999983
 20
185.0
 30
0.0
 40
1.5
  0
CIRCLE
  5
C4E
  8
DETAIL
  6
CONTINUOUS
 62
     5
 10
-73.212812999999983
 20
181.0
 30
0.0
 40
1.5
  0
CIRCLE
  5
C4F
  8
DETAIL
  6
CONTINUOUS
 62
     5
 10
-73.212812999999983
 20
177.0
 30
0.0
 40
1.5
  0
CIRCLE
  5
C50
  8
DETAIL
  6
CONTINUOUS
 62
     5
 10
-73.212812999999983
 20
173.0
 30
0.0
 40
1.5
  0
CIRCLE
  5
C51
  8
DETAIL
  6
CONTINUOUS
 62
     5
 10
-73.212812999999983
 20
169.0
 30
0.0
 40
1.5
  0
CIRCLE
  5
C52
  8
DETAIL
  6
CONTINUOUS
 62
     5
 10
-73.212812999999983
 20
165.0
 30
0.0
 40
1.5
  0
CIRCLE
  5
C53
  8
DETAIL
  6
CONTINUOUS
 62
     5
 10
-73.212812999999983
 20
161.0
 30
0.0
 40
1.5
  0
CIRCLE
  5
C54
  8
DETAIL
  6
CONTINUOUS
 62
     5
 10
-73.212812999999983
 20
157.0
 30
0.0
 40
1.5
  0
CIRCLE
  5
C55
  8
DETAIL
  6
CONTINUOUS
 62
     5
 10
-73.212812999999983
 20
153.0
 30
0.0
 40
1.5
  0
CIRCLE
  5
C56
  8
DETAIL
  6
CONTINUOUS
 62
     5
 10
-73.212812999999983
 20
149.0
 30
0.0
 40
1.5
  0
CIRCLE
  5
C57
  8
DETAIL
  6
CONTINUOUS
 62
     5
 10
-73.212812999999983
 20
145.0
 30
0.0
 40
1.5
  0
CIRCLE
  5
C58
  8
DETAIL
  6
CONTINUOUS
 62
     5
 10
-73.212812999999983
 20
141.0
 30
0.0
 40
1.5
  0
CIRCLE
  5
C59
  8
DETAIL
  6
CONTINUOUS
 62
     5
 10
-73.212812999999983
 20
137.0
 30
0.0
 40
1.5
  0
CIRCLE
  5
C5A
  8
DETAIL
  6
CONTINUOUS
 62
     5
 10
-73.212812999999983
 20
133.0
 30
0.0
 40
1.5
  0
CIRCLE
  5
C5B
  8
DETAIL
  6
CONTINUOUS
 62
     5
 10
-73.212812999999983
 20
129.0
 30
0.0
 40
1.5
  0
CIRCLE
  5
C5C
  8
DETAIL
  6
CONTINUOUS
 62
     5
 10
-73.212812999999983
 20
125.0
 30
0.0
 40
1.5
  0
CIRCLE
  5
C5D
  8
DETAIL
  6
CONTINUOUS
 62
     5
 10
-41.892304999999993
 20
127.0
 30
0.0
 40
1.5
  0
CIRCLE
  5
C5E
  8
DETAIL
  6
CONTINUOUS
 62
     5
 10
-41.892304999999993
 20
131.0
 30
0.0
 40
1.5
  0
CIRCLE
  5
C5F
  8
DETAIL
  6
CONTINUOUS
 62
     5
 10
-41.892304999999993
 20
135.0
 30
0.0
 40
1.5
  0
CIRCLE
  5
C60
  8
DETAIL
  6
CONTINUOUS
 62
     5
 10
-41.892304999999993
 20
139.0
 30
0.0
 40
1.5
  0
CIRCLE
  5
C61
  8
DETAIL
  6
CONTINUOUS
 62
     5
 10
-41.892304999999993
 20
143.0
 30
0.0
 40
1.5
  0
CIRCLE
  5
C62
  8
DETAIL
  6
CONTINUOUS
 62
     5
 10
-41.892304999999993
 20
147.0
 30
0.0
 40
1.5
  0
CIRCLE
  5
C63
  8
DETAIL
  6
CONTINUOUS
 62
     5
 10
-41.892304999999993
 20
151.0
 30
0.0
 40
1.5
  0
CIRCLE
  5
C64
  8
DETAIL
  6
CONTINUOUS
 62
     5
 10
-41.892304999999993
 20
155.0
 30
0.0
 40
1.5
  0
CIRCLE
  5
C65
  8
DETAIL
  6
CONTINUOUS
 62
     5
 10
-41.892304999999993
 20
159.0
 30
0.0
 40
1.5
  0
CIRCLE
  5
C66
  8
DETAIL
  6
CONTINUOUS
 62
     5
 10
-41.892304999999993
 20
163.0
 30
0.0
 40
1.5
  0
CIRCLE
  5
C67
  8
DETAIL
  6
CONTINUOUS
 62
     5
 10
-41.892304999999993
 20
167.0
 30
0.0
 40
1.5
  0
CIRCLE
  5
C68
  8
DETAIL
  6
CONTINUOUS
 62
     5
 10
-41.892304999999993
 20
171.0
 30
0.0
 40
1.5
  0
CIRCLE
  5
C69
  8
DETAIL
  6
CONTINUOUS
 62
     5
 10
-41.892304999999993
 20
175.0
 30
0.0
 40
1.5
  0
CIRCLE
  5
C6A
  8
DETAIL
  6
CONTINUOUS
 62
     5
 10
-41.892304999999993
 20
179.0
 30
0.0
 40
1.5
  0
CIRCLE
  5
C6B
  8
DETAIL
  6
CONTINUOUS
 62
     5
 10
-41.892304999999993
 20
183.0
 30
0.0
 40
1.5
  0
CIRCLE
  5
C6C
  8
DETAIL
  6
CONTINUOUS
 62
     5
 10
-41.892304999999993
 20
187.0
 30
0.0
 40
1.5
  0
CIRCLE
  5
C6D
  8
DETAIL
  6
CONTINUOUS
 62
     5
 10
-41.892304999999993
 20
123.0
 30
0.0
 40
1.5
  0
CIRCLE
  5
C6E
  8
DETAIL
  6
CONTINUOUS
 62
     5
 10
-38.428203000000003
 20
125.0
 30
0.0
 40
1.5
  0
CIRCLE
  5
C6F
  8
DETAIL
  6
CONTINUOUS
 62
     5
 10
-38.428203000000003
 20
129.0
 30
0.0
 40
1.5
  0
CIRCLE
  5
C70
  8
DETAIL
  6
CONTINUOUS
 62
     5
 10
-38.428203000000003
 20
133.0
 30
0.0
 40
1.5
  0
CIRCLE
  5
C71
  8
DETAIL
  6
CONTINUOUS
 62
     5
 10
-38.428203000000003
 20
137.0
 30
0.0
 40
1.5
  0
CIRCLE
  5
C72
  8
DETAIL
  6
CONTINUOUS
 62
     5
 10
-38.428203000000003
 20
141.0
 30
0.0
 40
1.5
  0
CIRCLE
  5
C73
  8
DETAIL
  6
CONTINUOUS
 62
     5
 10
-38.428203000000003
 20
145.0
 30
0.0
 40
1.5
  0
CIRCLE
  5
C74
  8
DETAIL
  6
CONTINUOUS
 62
     5
 10
-38.428203000000003
 20
149.0
 30
0.0
 40
1.5
  0
CIRCLE
  5
C75
  8
DETAIL
  6
CONTINUOUS
 62
     5
 10
-38.428203000000003
 20
153.0
 30
0.0
 40
1.5
  0
CIRCLE
  5
C76
  8
DETAIL
  6
CONTINUOUS
 62
     5
 10
-38.428203000000003
 20
157.0
 30
0.0
 40
1.5
  0
CIRCLE
  5
C77
  8
DETAIL
  6
CONTINUOUS
 62
     5
 10
-38.428203000000003
 20
161.0
 30
0.0
 40
1.5
  0
CIRCLE
  5
C78
  8
DETAIL
  6
CONTINUOUS
 62
     5
 10
-38.428203000000003
 20
165.0
 30
0.0
 40
1.5
  0
CIRCLE
  5
C79
  8
DETAIL
  6
CONTINUOUS
 62
     5
 10
-38.428203000000003
 20
169.0
 30
0.0
 40
1.5
  0
CIRCLE
  5
C7A
  8
DETAIL
  6
CONTINUOUS
 62
     5
 10
-38.428203000000003
 20
173.0
 30
0.0
 40
1.5
  0
CIRCLE
  5
C7B
  8
DETAIL
  6
CONTINUOUS
 62
     5
 10
-38.428203000000003
 20
177.0
 30
0.0
 40
1.5
  0
CIRCLE
  5
C7C
  8
DETAIL
  6
CONTINUOUS
 62
     5
 10
-38.428203000000003
 20
181.0
 30
0.0
 40
1.5
  0
CIRCLE
  5
C7D
  8
DETAIL
  6
CONTINUOUS
 62
     5
 10
-38.428203000000003
 20
185.0
 30
0.0
 40
1.5
  0
CIRCLE
  5
C7E
  8
DETAIL
  6
CONTINUOUS
 62
     5
 10
-38.428203000000003
 20
189.0
 30
0.0
 40
1.5
  0
CIRCLE
  5
C7F
  8
DETAIL
  6
CONTINUOUS
 62
     5
 10
-34.96410199999999
 20
123.0
 30
0.0
 40
1.5
  0
CIRCLE
  5
C80
  8
DETAIL
  6
CONTINUOUS
 62
     5
 10
-34.96410199999999
 20
187.0
 30
0.0
 40
1.5
  0
CIRCLE
  5
C81
  8
DETAIL
  6
CONTINUOUS
 62
     5
 10
-34.96410199999999
 20
183.0
 30
0.0
 40
1.5
  0
CIRCLE
  5
C82
  8
DETAIL
  6
CONTINUOUS
 62
     5
 10
-34.96410199999999
 20
179.0
 30
0.0
 40
1.5
  0
CIRCLE
  5
C83
  8
DETAIL
  6
CONTINUOUS
 62
     5
 10
-34.96410199999999
 20
175.0
 30
0.0
 40
1.5
  0
CIRCLE
  5
C84
  8
DETAIL
  6
CONTINUOUS
 62
     5
 10
-34.96410199999999
 20
171.0
 30
0.0
 40
1.5
  0
CIRCLE
  5
C85
  8
DETAIL
  6
CONTINUOUS
 62
     5
 10
-34.96410199999999
 20
167.0
 30
0.0
 40
1.5
  0
CIRCLE
  5
C86
  8
DETAIL
  6
CONTINUOUS
 62
     5
 10
-34.96410199999999
 20
163.0
 30
0.0
 40
1.5
  0
CIRCLE
  5
C87
  8
DETAIL
  6
CONTINUOUS
 62
     5
 10
-34.96410199999999
 20
159.0
 30
0.0
 40
1.5
  0
CIRCLE
  5
C88
  8
DETAIL
  6
CONTINUOUS
 62
     5
 10
-34.96410199999999
 20
155.0
 30
0.0
 40
1.5
  0
CIRCLE
  5
C89
  8
DETAIL
  6
CONTINUOUS
 62
     5
 10
-34.96410199999999
 20
151.0
 30
0.0
 40
1.5
  0
CIRCLE
  5
C8A
  8
DETAIL
  6
CONTINUOUS
 62
     5
 10
-34.96410199999999
 20
147.0
 30
0.0
 40
1.5
  0
CIRCLE
  5
C8B
  8
DETAIL
  6
CONTINUOUS
 62
     5
 10
-34.96410199999999
 20
143.0
 30
0.0
 40
1.5
  0
CIRCLE
  5
C8C
  8
DETAIL
  6
CONTINUOUS
 62
     5
 10
-34.96410199999999
 20
139.0
 30
0.0
 40
1.5
  0
CIRCLE
  5
C8D
  8
DETAIL
  6
CONTINUOUS
 62
     5
 10
-34.96410199999999
 20
135.0
 30
0.0
 40
1.5
  0
CIRCLE
  5
C8E
  8
DETAIL
  6
CONTINUOUS
 62
     5
 10
-34.96410199999999
 20
131.0
 30
0.0
 40
1.5
  0
CIRCLE
  5
C8F
  8
DETAIL
  6
CONTINUOUS
 62
     5
 10
-34.96410199999999
 20
127.0
 30
0.0
 40
1.5
  0
CIRCLE
  5
C90
  8
DETAIL
  6
CONTINUOUS
 62
     5
 10
-31.5
 20
189.0
 30
0.0
 40
1.5
  0
CIRCLE
  5
C91
  8
DETAIL
  6
CONTINUOUS
 62
     5
 10
-31.5
 20
185.0
 30
0.0
 40
1.5
  0
CIRCLE
  5
C92
  8
DETAIL
  6
CONTINUOUS
 62
     5
 10
-31.5
 20
181.0
 30
0.0
 40
1.5
  0
CIRCLE
  5
C93
  8
DETAIL
  6
CONTINUOUS
 62
     5
 10
-31.5
 20
177.0
 30
0.0
 40
1.5
  0
CIRCLE
  5
C94
  8
DETAIL
  6
CONTINUOUS
 62
     5
 10
-31.5
 20
173.0
 30
0.0
 40
1.5
  0
CIRCLE
  5
C95
  8
DETAIL
  6
CONTINUOUS
 62
     5
 10
-31.5
 20
169.0
 30
0.0
 40
1.5
  0
CIRCLE
  5
C96
  8
DETAIL
  6
CONTINUOUS
 62
     5
 10
-31.5
 20
165.0
 30
0.0
 40
1.5
  0
CIRCLE
  5
C97
  8
DETAIL
  6
CONTINUOUS
 62
     5
 10
-31.5
 20
161.0
 30
0.0
 40
1.5
  0
CIRCLE
  5
C98
  8
DETAIL
  6
CONTINUOUS
 62
     5
 10
-31.5
 20
157.0
 30
0.0
 40
1.5
  0
CIRCLE
  5
C99
  8
DETAIL
  6
CONTINUOUS
 62
     5
 10
-31.5
 20
153.0
 30
0.0
 40
1.5
  0
CIRCLE
  5
C9A
  8
DETAIL
  6
CONTINUOUS
 62
     5
 10
-31.5
 20
149.0
 30
0.0
 40
1.5
  0
CIRCLE
  5
C9B
  8
DETAIL
  6
CONTINUOUS
 62
     5
 10
-31.5
 20
145.0
 30
0.0
 40
1.5
  0
CIRCLE
  5
C9C
  8
DETAIL
  6
CONTINUOUS
 62
     5
 10
-31.5
 20
141.0
 30
0.0
 40
1.5
  0
CIRCLE
  5
C9D
  8
DETAIL
  6
CONTINUOUS
 62
     5
 10
-31.5
 20
137.0
 30
0.0
 40
1.5
  0
CIRCLE
  5
C9E
  8
DETAIL
  6
CONTINUOUS
 62
     5
 10
-31.5
 20
133.0
 30
0.0
 40
1.5
  0
CIRCLE
  5
C9F
  8
DETAIL
  6
CONTINUOUS
 62
     5
 10
-31.5
 20
129.0
 30
0.0
 40
1.5
  0
CIRCLE
  5
CA0
  8
DETAIL
  6
CONTINUOUS
 62
     5
 10
-31.5
 20
125.0
 30
0.0
 40
1.5
  0
CIRCLE
  5
CA1
  8
DETAIL
  6
CONTINUOUS
 62
     5
 10
-45.428203000000003
 20
125.0
 30
0.0
 40
1.5
  0
CIRCLE
  5
CA2
  8
DETAIL
  6
CONTINUOUS
 62
     5
 10
-45.428203000000003
 20
129.0
 30
0.0
 40
1.5
  0
CIRCLE
  5
CA3
  8
DETAIL
  6
CONTINUOUS
 62
     5
 10
-45.428203000000003
 20
133.0
 30
0.0
 40
1.5
  0
CIRCLE
  5
CA4
  8
DETAIL
  6
CONTINUOUS
 62
     5
 10
-45.428203000000003
 20
137.0
 30
0.0
 40
1.5
  0
CIRCLE
  5
CA5
  8
DETAIL
  6
CONTINUOUS
 62
     5
 10
-45.428203000000003
 20
141.0
 30
0.0
 40
1.5
  0
CIRCLE
  5
CA6
  8
DETAIL
  6
CONTINUOUS
 62
     5
 10
-45.428203000000003
 20
145.0
 30
0.0
 40
1.5
  0
CIRCLE
  5
CA7
  8
DETAIL
  6
CONTINUOUS
 62
     5
 10
-45.428203000000003
 20
149.0
 30
0.0
 40
1.5
  0
CIRCLE
  5
CA8
  8
DETAIL
  6
CONTINUOUS
 62
     5
 10
-45.428203000000003
 20
153.0
 30
0.0
 40
1.5
  0
CIRCLE
  5
CA9
  8
DETAIL
  6
CONTINUOUS
 62
     5
 10
-45.428203000000003
 20
157.0
 30
0.0
 40
1.5
  0
CIRCLE
  5
CAA
  8
DETAIL
  6
CONTINUOUS
 62
     5
 10
-45.428203000000003
 20
161.0
 30
0.0
 40
1.5
  0
CIRCLE
  5
CAB
  8
DETAIL
  6
CONTINUOUS
 62
     5
 10
-45.428203000000003
 20
165.0
 30
0.0
 40
1.5
  0
CIRCLE
  5
CAC
  8
DETAIL
  6
CONTINUOUS
 62
     5
 10
-45.428203000000003
 20
169.0
 30
0.0
 40
1.5
  0
CIRCLE
  5
CAD
  8
DETAIL
  6
CONTINUOUS
 62
     5
 10
-45.428203000000003
 20
173.0
 30
0.0
 40
1.5
  0
CIRCLE
  5
CAE
  8
DETAIL
  6
CONTINUOUS
 62
     5
 10
-45.428203000000003
 20
177.0
 30
0.0
 40
1.5
  0
CIRCLE
  5
CAF
  8
DETAIL
  6
CONTINUOUS
 62
     5
 10
-45.428203000000003
 20
181.0
 30
0.0
 40
1.5
  0
CIRCLE
  5
CB0
  8
DETAIL
  6
CONTINUOUS
 62
     5
 10
-45.428203000000003
 20
185.0
 30
0.0
 40
1.5
  0
CIRCLE
  5
CB1
  8
DETAIL
  6
CONTINUOUS
 62
     5
 10
-45.428203000000003
 20
189.0
 30
0.0
 40
1.5
  0
CIRCLE
  5
CB2
  8
DETAIL
  6
CONTINUOUS
 62
     5
 10
-48.892305
 20
127.0
 30
0.0
 40
1.5
  0
CIRCLE
  5
CB3
  8
DETAIL
  6
CONTINUOUS
 62
     5
 10
-48.892305
 20
131.0
 30
0.0
 40
1.5
  0
CIRCLE
  5
CB4
  8
DETAIL
  6
CONTINUOUS
 62
     5
 10
-48.892305
 20
135.0
 30
0.0
 40
1.5
  0
CIRCLE
  5
CB5
  8
DETAIL
  6
CONTINUOUS
 62
     5
 10
-48.892305
 20
139.0
 30
0.0
 40
1.5
  0
CIRCLE
  5
CB6
  8
DETAIL
  6
CONTINUOUS
 62
     5
 10
-48.892305
 20
143.0
 30
0.0
 40
1.5
  0
CIRCLE
  5
CB7
  8
DETAIL
  6
CONTINUOUS
 62
     5
 10
-48.892305
 20
147.0
 30
0.0
 40
1.5
  0
CIRCLE
  5
CB8
  8
DETAIL
  6
CONTINUOUS
 62
     5
 10
-48.892305
 20
151.0
 30
0.0
 40
1.5
  0
CIRCLE
  5
CB9
  8
DETAIL
  6
CONTINUOUS
 62
     5
 10
-48.892305
 20
155.0
 30
0.0
 40
1.5
  0
CIRCLE
  5
CBA
  8
DETAIL
  6
CONTINUOUS
 62
     5
 10
-48.892305
 20
159.0
 30
0.0
 40
1.5
  0
CIRCLE
  5
CBB
  8
DETAIL
  6
CONTINUOUS
 62
     5
 10
-48.892305
 20
163.0
 30
0.0
 40
1.5
  0
CIRCLE
  5
CBC
  8
DETAIL
  6
CONTINUOUS
 62
     5
 10
-48.892305
 20
167.0
 30
0.0
 40
1.5
  0
CIRCLE
  5
CBD
  8
DETAIL
  6
CONTINUOUS
 62
     5
 10
-48.892305
 20
171.0
 30
0.0
 40
1.5
  0
CIRCLE
  5
CBE
  8
DETAIL
  6
CONTINUOUS
 62
     5
 10
-48.892305
 20
175.0
 30
0.0
 40
1.5
  0
CIRCLE
  5
CBF
  8
DETAIL
  6
CONTINUOUS
 62
     5
 10
-48.892305
 20
179.0
 30
0.0
 40
1.5
  0
CIRCLE
  5
CC0
  8
DETAIL
  6
CONTINUOUS
 62
     5
 10
-48.892305
 20
183.0
 30
0.0
 40
1.5
  0
CIRCLE
  5
CC1
  8
DETAIL
  6
CONTINUOUS
 62
     5
 10
-48.892305
 20
187.0
 30
0.0
 40
1.5
  0
CIRCLE
  5
CC2
  8
DETAIL
  6
CONTINUOUS
 62
     5
 10
-48.892305
 20
123.0
 30
0.0
 40
1.5
  0
CIRCLE
  5
CC3
  8
DETAIL
  6
CONTINUOUS
 62
     5
 10
-55.820507999999997
 20
123.0
 30
0.0
 40
1.5
  0
CIRCLE
  5
CC4
  8
DETAIL
  6
CONTINUOUS
 62
     5
 10
-52.356405999999993
 20
189.0
 30
0.0
 40
1.5
  0
CIRCLE
  5
CC5
  8
DETAIL
  6
CONTINUOUS
 62
     5
 10
-52.356405999999993
 20
185.0
 30
0.0
 40
1.5
  0
CIRCLE
  5
CC6
  8
DETAIL
  6
CONTINUOUS
 62
     5
 10
-52.356405999999993
 20
181.0
 30
0.0
 40
1.5
  0
CIRCLE
  5
CC7
  8
DETAIL
  6
CONTINUOUS
 62
     5
 10
-52.356405999999993
 20
177.0
 30
0.0
 40
1.5
  0
CIRCLE
  5
CC8
  8
DETAIL
  6
CONTINUOUS
 62
     5
 10
-52.356405999999993
 20
173.0
 30
0.0
 40
1.5
  0
CIRCLE
  5
CC9
  8
DETAIL
  6
CONTINUOUS
 62
     5
 10
-52.356405999999993
 20
169.0
 30
0.0
 40
1.5
  0
CIRCLE
  5
CCA
  8
DETAIL
  6
CONTINUOUS
 62
     5
 10
-52.356405999999993
 20
165.0
 30
0.0
 40
1.5
  0
CIRCLE
  5
CCB
  8
DETAIL
  6
CONTINUOUS
 62
     5
 10
-52.356405999999993
 20
161.0
 30
0.0
 40
1.5
  0
CIRCLE
  5
CCC
  8
DETAIL
  6
CONTINUOUS
 62
     5
 10
-52.356405999999993
 20
157.0
 30
0.0
 40
1.5
  0
CIRCLE
  5
CCD
  8
DETAIL
  6
CONTINUOUS
 62
     5
 10
-52.356405999999993
 20
153.0
 30
0.0
 40
1.5
  0
CIRCLE
  5
CCE
  8
DETAIL
  6
CONTINUOUS
 62
     5
 10
-52.356405999999993
 20
149.0
 30
0.0
 40
1.5
  0
CIRCLE
  5
CCF
  8
DETAIL
  6
CONTINUOUS
 62
     5
 10
-52.356405999999993
 20
145.0
 30
0.0
 40
1.5
  0
CIRCLE
  5
CD0
  8
DETAIL
  6
CONTINUOUS
 62
     5
 10
-52.356405999999993
 20
141.0
 30
0.0
 40
1.5
  0
CIRCLE
  5
CD1
  8
DETAIL
  6
CONTINUOUS
 62
     5
 10
-52.356405999999993
 20
137.0
 30
0.0
 40
1.5
  0
CIRCLE
  5
CD2
  8
DETAIL
  6
CONTINUOUS
 62
     5
 10
-52.356405999999993
 20
133.0
 30
0.0
 40
1.5
  0
CIRCLE
  5
CD3
  8
DETAIL
  6
CONTINUOUS
 62
     5
 10
-52.356405999999993
 20
129.0
 30
0.0
 40
1.5
  0
CIRCLE
  5
CD4
  8
DETAIL
  6
CONTINUOUS
 62
     5
 10
-52.356405999999993
 20
125.0
 30
0.0
 40
1.5
  0
CIRCLE
  5
CD5
  8
DETAIL
  6
CONTINUOUS
 62
     5
 10
-55.820507999999997
 20
187.0
 30
0.0
 40
1.5
  0
CIRCLE
  5
CD6
  8
DETAIL
  6
CONTINUOUS
 62
     5
 10
-55.820507999999997
 20
183.0
 30
0.0
 40
1.5
  0
CIRCLE
  5
CD7
  8
DETAIL
  6
CONTINUOUS
 62
     5
 10
-55.820507999999997
 20
179.0
 30
0.0
 40
1.5
  0
CIRCLE
  5
CD8
  8
DETAIL
  6
CONTINUOUS
 62
     5
 10
-55.820507999999997
 20
175.0
 30
0.0
 40
1.5
  0
CIRCLE
  5
CD9
  8
DETAIL
  6
CONTINUOUS
 62
     5
 10
-55.820507999999997
 20
171.0
 30
0.0
 40
1.5
  0
CIRCLE
  5
CDA
  8
DETAIL
  6
CONTINUOUS
 62
     5
 10
-55.820507999999997
 20
167.0
 30
0.0
 40
1.5
  0
CIRCLE
  5
CDB
  8
DETAIL
  6
CONTINUOUS
 62
     5
 10
-55.820507999999997
 20
163.0
 30
0.0
 40
1.5
  0
CIRCLE
  5
CDC
  8
DETAIL
  6
CONTINUOUS
 62
     5
 10
-55.820507999999997
 20
159.0
 30
0.0
 40
1.5
  0
CIRCLE
  5
CDD
  8
DETAIL
  6
CONTINUOUS
 62
     5
 10
-55.820507999999997
 20
155.0
 30
0.0
 40
1.5
  0
CIRCLE
  5
CDE
  8
DETAIL
  6
CONTINUOUS
 62
     5
 10
-55.820507999999997
 20
151.0
 30
0.0
 40
1.5
  0
CIRCLE
  5
CDF
  8
DETAIL
  6
CONTINUOUS
 62
     5
 10
-55.820507999999997
 20
147.0
 30
0.0
 40
1.5
  0
CIRCLE
  5
CE0
  8
DETAIL
  6
CONTINUOUS
 62
     5
 10
-55.820507999999997
 20
143.0
 30
0.0
 40
1.5
  0
CIRCLE
  5
CE1
  8
DETAIL
  6
CONTINUOUS
 62
     5
 10
-55.820507999999997
 20
139.0
 30
0.0
 40
1.5
  0
CIRCLE
  5
CE2
  8
DETAIL
  6
CONTINUOUS
 62
     5
 10
-55.820507999999997
 20
135.0
 30
0.0
 40
1.5
  0
CIRCLE
  5
CE3
  8
DETAIL
  6
CONTINUOUS
 62
     5
 10
-55.820507999999997
 20
131.0
 30
0.0
 40
1.5
  0
CIRCLE
  5
CE4
  8
DETAIL
  6
CONTINUOUS
 62
     5
 10
-55.820507999999997
 20
127.0
 30
0.0
 40
1.5
  0
CIRCLE
  5
CE5
  8
DETAIL
  6
CONTINUOUS
 62
     5
 10
-80.141015999999993
 20
205.0
 30
0.0
 40
1.5
  0
CIRCLE
  5
CE6
  8
DETAIL
  6
CONTINUOUS
 62
     5
 10
-80.141015999999993
 20
209.0
 30
0.0
 40
1.5
  0
CIRCLE
  5
CE7
  8
DETAIL
  6
CONTINUOUS
 62
     5
 10
-69.748711
 20
207.0
 30
0.0
 40
1.5
  0
CIRCLE
  5
CE8
  8
DETAIL
  6
CONTINUOUS
 62
     5
 10
-69.748711
 20
211.0
 30
0.0
 40
1.5
  0
CIRCLE
  5
CE9
  8
DETAIL
  6
CONTINUOUS
 62
     5
 10
-66.284610000000001
 20
205.0
 30
0.0
 40
1.5
  0
CIRCLE
  5
CEA
  8
DETAIL
  6
CONTINUOUS
 62
     5
 10
-66.284610000000001
 20
209.0
 30
0.0
 40
1.5
  0
CIRCLE
  5
CEB
  8
DETAIL
  6
CONTINUOUS
 62
     5
 10
-62.820507999999997
 20
211.0
 30
0.0
 40
1.5
  0
CIRCLE
  5
CEC
  8
DETAIL
  6
CONTINUOUS
 62
     5
 10
-62.820507999999997
 20
207.0
 30
0.0
 40
1.5
  0
CIRCLE
  5
CED
  8
DETAIL
  6
CONTINUOUS
 62
     5
 10
-59.356406000000007
 20
209.0
 30
0.0
 40
1.5
  0
CIRCLE
  5
CEE
  8
DETAIL
  6
CONTINUOUS
 62
     5
 10
-59.356406000000007
 20
205.0
 30
0.0
 40
1.5
  0
CIRCLE
  5
CEF
  8
DETAIL
  6
CONTINUOUS
 62
     5
 10
-41.892304999999993
 20
207.0
 30
0.0
 40
1.5
  0
CIRCLE
  5
CF0
  8
DETAIL
  6
CONTINUOUS
 62
     5
 10
-41.892304999999993
 20
211.0
 30
0.0
 40
1.5
  0
CIRCLE
  5
CF1
  8
DETAIL
  6
CONTINUOUS
 62
     5
 10
-38.428203000000003
 20
205.0
 30
0.0
 40
1.5
  0
CIRCLE
  5
CF2
  8
DETAIL
  6
CONTINUOUS
 62
     5
 10
-38.428203000000003
 20
209.0
 30
0.0
 40
1.5
  0
CIRCLE
  5
CF3
  8
DETAIL
  6
CONTINUOUS
 62
     5
 10
-34.96410199999999
 20
211.0
 30
0.0
 40
1.5
  0
CIRCLE
  5
CF4
  8
DETAIL
  6
CONTINUOUS
 62
     5
 10
-34.96410199999999
 20
207.0
 30
0.0
 40
1.5
  0
CIRCLE
  5
CF5
  8
DETAIL
  6
CONTINUOUS
 62
     5
 10
-31.5
 20
209.0
 30
0.0
 40
1.5
  0
CIRCLE
  5
CF6
  8
DETAIL
  6
CONTINUOUS
 62
     5
 10
-31.5
 20
205.0
 30
0.0
 40
1.5
  0
CIRCLE
  5
CF7
  8
DETAIL
  6
CONTINUOUS
 62
     5
 10
-45.428203000000003
 20
205.0
 30
0.0
 40
1.5
  0
CIRCLE
  5
CF8
  8
DETAIL
  6
CONTINUOUS
 62
     5
 10
-45.428203000000003
 20
209.0
 30
0.0
 40
1.5
  0
CIRCLE
  5
CF9
  8
DETAIL
  6
CONTINUOUS
 62
     5
 10
-48.892305
 20
207.0
 30
0.0
 40
1.5
  0
CIRCLE
  5
CFA
  8
DETAIL
  6
CONTINUOUS
 62
     5
 10
-48.892305
 20
211.0
 30
0.0
 40
1.5
  0
CIRCLE
  5
CFB
  8
DETAIL
  6
CONTINUOUS
 62
     5
 10
-52.356405999999993
 20
209.0
 30
0.0
 40
1.5
  0
CIRCLE
  5
CFC
  8
DETAIL
  6
CONTINUOUS
 62
     5
 10
-52.356405999999993
 20
205.0
 30
0.0
 40
1.5
  0
CIRCLE
  5
CFD
  8
DETAIL
  6
CONTINUOUS
 62
     5
 10
-55.820507999999997
 20
211.0
 30
0.0
 40
1.5
  0
CIRCLE
  5
CFE
  8
DETAIL
  6
CONTINUOUS
 62
     5
 10
-55.820507999999997
 20
207.0
 30
0.0
 40
1.5
  0
CIRCLE
  5
CFF
  8
DETAIL
  6
CONTINUOUS
 62
     5
 10
-76.67691499999998
 20
211.0
 30
0.0
 40
1.5
  0
CIRCLE
  5
D00
  8
DETAIL
  6
CONTINUOUS
 62
     5
 10
-76.67691499999998
 20
207.0
 30
0.0
 40
1.5
  0
CIRCLE
  5
D01
  8
DETAIL
  6
CONTINUOUS
 62
     5
 10
-73.212812999999983
 20
209.0
 30
0.0
 40
1.5
  0
CIRCLE
  5
D02
  8
DETAIL
  6
CONTINUOUS
 62
     5
 10
-73.212812999999983
 20
205.0
 30
0.0
 40
1.5
  0
LINE
  5
D03
  8
DETAIL
  6
CONTINUOUS
 62
     5
 10
-108.583124
 20
234.5
 30
0.0
 11
0.0
 21
234.5
 31
0.0
  0
LINE
  5
D04
  8
DETAIL
  6
CONTINUOUS
 62
     5
 10
-106.9753129999998
 20
-235.49999999999989
 30
0.0
 11
0.0
 21
-235.49999999999989
 31
0.0
  0
LINE
  5
D05
  8
DETAIL
  6
CONTINUOUS
 62
     5
 10
-82.731433999999979
 20
212.5
 30
0.0
 11
-82.731433999999979
 21
-212.50500099999991
 31
0.0
  0
CIRCLE
  5
D06
  8
DETAIL
  6
CONTINUOUS
 62
     5
 10
-59.356406000000007
 20
97.5
 30
0.0
 40
1.5
  0
CIRCLE
  5
D07
  8
DETAIL
  6
CONTINUOUS
 62
     5
 10
-59.356406000000007
 20
77.5
 30
0.0
 40
1.5
  0
CIRCLE
  5
D08
  8
DETAIL
  6
CONTINUOUS
 62
     5
 10
-59.356406000000007
 20
85.5
 30
0.0
 40
1.5
  0
CIRCLE
  5
D09
  8
DETAIL
  6
CONTINUOUS
 62
     5
 10
-59.356406000000007
 20
89.500000000000014
 30
0.0
 40
1.5
  0
CIRCLE
  5
D0A
  8
DETAIL
  6
CONTINUOUS
 62
     5
 10
-59.356406000000007
 20
81.5
 30
0.0
 40
1.5
  0
CIRCLE
  5
D0B
  8
DETAIL
  6
CONTINUOUS
 62
     5
 10
-59.356406000000007
 20
93.499999999999986
 30
0.0
 40
1.5
  0
CIRCLE
  5
D0C
  8
DETAIL
  6
CONTINUOUS
 62
     5
 10
-80.141015999999993
 20
97.5
 30
0.0
 40
1.5
  0
CIRCLE
  5
D0D
  8
DETAIL
  6
CONTINUOUS
 62
     5
 10
-80.141015999999993
 20
93.499999999999986
 30
0.0
 40
1.5
  0
CIRCLE
  5
D0E
  8
DETAIL
  6
CONTINUOUS
 62
     5
 10
-80.141015999999993
 20
77.5
 30
0.0
 40
1.5
  0
CIRCLE
  5
D0F
  8
DETAIL
  6
CONTINUOUS
 62
     5
 10
-80.141015999999993
 20
89.500000000000014
 30
0.0
 40
1.5
  0
CIRCLE
  5
D10
  8
DETAIL
  6
CONTINUOUS
 62
     5
 10
-80.141015999999993
 20
85.5
 30
0.0
 40
1.5
  0
CIRCLE
  5
D11
  8
DETAIL
  6
CONTINUOUS
 62
     5
 10
-80.141015999999993
 20
81.5
 30
0.0
 40
1.5
  0
CIRCLE
  5
D12
  8
DETAIL
  6
CONTINUOUS
 62
     5
 10
-69.748711
 20
75.5
 30
0.0
 40
1.5
  0
CIRCLE
  5
D13
  8
DETAIL
  6
CONTINUOUS
 62
     5
 10
-69.748711
 20
79.5
 30
0.0
 40
1.5
  0
CIRCLE
  5
D14
  8
DETAIL
  6
CONTINUOUS
 62
     5
 10
-66.284610000000001
 20
77.5
 30
0.0
 40
1.5
  0
CIRCLE
  5
D15
  8
DETAIL
  6
CONTINUOUS
 62
     5
 10
-62.820507999999997
 20
79.5
 30
0.0
 40
1.5
  0
CIRCLE
  5
D16
  8
DETAIL
  6
CONTINUOUS
 62
     5
 10
-62.820507999999997
 20
75.5
 30
0.0
 40
1.5
  0
CIRCLE
  5
D17
  8
DETAIL
  6
CONTINUOUS
 62
     5
 10
-66.284610000000001
 20
93.499999999999986
 30
0.0
 40
1.5
  0
CIRCLE
  5
D18
  8
DETAIL
  6
CONTINUOUS
 62
     5
 10
-62.820507999999997
 20
95.5
 30
0.0
 40
1.5
  0
CIRCLE
  5
D19
  8
DETAIL
  6
CONTINUOUS
 62
     5
 10
-69.748711
 20
95.5
 30
0.0
 40
1.5
  0
CIRCLE
  5
D1A
  8
DETAIL
  6
CONTINUOUS
 62
     5
 10
-69.748711
 20
91.5
 30
0.0
 40
1.5
  0
CIRCLE
  5
D1B
  8
DETAIL
  6
CONTINUOUS
 62
     5
 10
-62.820507999999997
 20
91.5
 30
0.0
 40
1.5
  0
CIRCLE
  5
D1C
  8
DETAIL
  6
CONTINUOUS
 62
     5
 10
-66.284610000000001
 20
89.500000000000014
 30
0.0
 40
1.5
  0
CIRCLE
  5
D1D
  8
DETAIL
  6
CONTINUOUS
 62
     5
 10
-69.748711
 20
87.5
 30
0.0
 40
1.5
  0
CIRCLE
  5
D1E
  8
DETAIL
  6
CONTINUOUS
 62
     5
 10
-62.820507999999997
 20
87.5
 30
0.0
 40
1.5
  0
CIRCLE
  5
D1F
  8
DETAIL
  6
CONTINUOUS
 62
     5
 10
-66.284610000000001
 20
85.5
 30
0.0
 40
1.5
  0
CIRCLE
  5
D20
  8
DETAIL
  6
CONTINUOUS
 62
     5
 10
-69.748711
 20
83.499999999999986
 30
0.0
 40
1.5
  0
CIRCLE
  5
D21
  8
DETAIL
  6
CONTINUOUS
 62
     5
 10
-62.820507999999997
 20
83.499999999999986
 30
0.0
 40
1.5
  0
CIRCLE
  5
D22
  8
DETAIL
  6
CONTINUOUS
 62
     5
 10
-66.284610000000001
 20
81.5
 30
0.0
 40
1.5
  0
CIRCLE
  5
D23
  8
DETAIL
  6
CONTINUOUS
 62
     5
 10
-66.284610000000001
 20
97.5
 30
0.0
 40
1.5
  0
CIRCLE
  5
D24
  8
DETAIL
  6
CONTINUOUS
 62
     5
 10
-76.67691499999998
 20
95.5
 30
0.0
 40
1.5
  0
CIRCLE
  5
D25
  8
DETAIL
  6
CONTINUOUS
 62
     5
 10
-76.67691499999998
 20
79.5
 30
0.0
 40
1.5
  0
CIRCLE
  5
D26
  8
DETAIL
  6
CONTINUOUS
 62
     5
 10
-76.67691499999998
 20
75.5
 30
0.0
 40
1.5
  0
CIRCLE
  5
D27
  8
DETAIL
  6
CONTINUOUS
 62
     5
 10
-76.67691499999998
 20
91.5
 30
0.0
 40
1.5
  0
CIRCLE
  5
D28
  8
DETAIL
  6
CONTINUOUS
 62
     5
 10
-76.67691499999998
 20
87.5
 30
0.0
 40
1.5
  0
CIRCLE
  5
D29
  8
DETAIL
  6
CONTINUOUS
 62
     5
 10
-76.67691499999998
 20
83.499999999999986
 30
0.0
 40
1.5
  0
CIRCLE
  5
D2A
  8
DETAIL
  6
CONTINUOUS
 62
     5
 10
-73.212812999999983
 20
77.5
 30
0.0
 40
1.5
  0
CIRCLE
  5
D2B
  8
DETAIL
  6
CONTINUOUS
 62
     5
 10
-73.212812999999983
 20
93.499999999999986
 30
0.0
 40
1.5
  0
CIRCLE
  5
D2C
  8
DETAIL
  6
CONTINUOUS
 62
     5
 10
-73.212812999999983
 20
89.500000000000014
 30
0.0
 40
1.5
  0
CIRCLE
  5
D2D
  8
DETAIL
  6
CONTINUOUS
 62
     5
 10
-73.212812999999983
 20
85.5
 30
0.0
 40
1.5
  0
CIRCLE
  5
D2E
  8
DETAIL
  6
CONTINUOUS
 62
     5
 10
-73.212812999999983
 20
81.5
 30
0.0
 40
1.5
  0
CIRCLE
  5
D2F
  8
DETAIL
  6
CONTINUOUS
 62
     5
 10
-73.212812999999983
 20
97.5
 30
0.0
 40
1.5
  0
CIRCLE
  5
D30
  8
DETAIL
  6
CONTINUOUS
 62
     5
 10
-41.892304999999993
 20
83.499999999999986
 30
0.0
 40
1.5
  0
CIRCLE
  5
D31
  8
DETAIL
  6
CONTINUOUS
 62
     5
 10
-41.892304999999993
 20
87.5
 30
0.0
 40
1.5
  0
CIRCLE
  5
D32
  8
DETAIL
  6
CONTINUOUS
 62
     5
 10
-41.892304999999993
 20
91.5
 30
0.0
 40
1.5
  0
CIRCLE
  5
D33
  8
DETAIL
  6
CONTINUOUS
 62
     5
 10
-41.892304999999993
 20
75.5
 30
0.0
 40
1.5
  0
CIRCLE
  5
D34
  8
DETAIL
  6
CONTINUOUS
 62
     5
 10
-41.892304999999993
 20
79.5
 30
0.0
 40
1.5
  0
CIRCLE
  5
D35
  8
DETAIL
  6
CONTINUOUS
 62
     5
 10
-41.892304999999993
 20
95.5
 30
0.0
 40
1.5
  0
CIRCLE
  5
D36
  8
DETAIL
  6
CONTINUOUS
 62
     5
 10
-38.428203000000003
 20
97.5
 30
0.0
 40
1.5
  0
CIRCLE
  5
D37
  8
DETAIL
  6
CONTINUOUS
 62
     5
 10
-38.428203000000003
 20
93.499999999999986
 30
0.0
 40
1.5
  0
CIRCLE
  5
D38
  8
DETAIL
  6
CONTINUOUS
 62
     5
 10
-34.96410199999999
 20
95.5
 30
0.0
 40
1.5
  0
CIRCLE
  5
D39
  8
DETAIL
  6
CONTINUOUS
 62
     5
 10
-38.428203000000003
 20
77.5
 30
0.0
 40
1.5
  0
CIRCLE
  5
D3A
  8
DETAIL
  6
CONTINUOUS
 62
     5
 10
-34.96410199999999
 20
79.5
 30
0.0
 40
1.5
  0
CIRCLE
  5
D3B
  8
DETAIL
  6
CONTINUOUS
 62
     5
 10
-34.96410199999999
 20
75.5
 30
0.0
 40
1.5
  0
CIRCLE
  5
D3C
  8
DETAIL
  6
CONTINUOUS
 62
     5
 10
-34.96410199999999
 20
91.5
 30
0.0
 40
1.5
  0
CIRCLE
  5
D3D
  8
DETAIL
  6
CONTINUOUS
 62
     5
 10
-38.428203000000003
 20
89.500000000000014
 30
0.0
 40
1.5
  0
CIRCLE
  5
D3E
  8
DETAIL
  6
CONTINUOUS
 62
     5
 10
-34.96410199999999
 20
87.5
 30
0.0
 40
1.5
  0
CIRCLE
  5
D3F
  8
DETAIL
  6
CONTINUOUS
 62
     5
 10
-38.428203000000003
 20
85.5
 30
0.0
 40
1.5
  0
CIRCLE
  5
D40
  8
DETAIL
  6
CONTINUOUS
 62
     5
 10
-34.96410199999999
 20
83.499999999999986
 30
0.0
 40
1.5
  0
CIRCLE
  5
D41
  8
DETAIL
  6
CONTINUOUS
 62
     5
 10
-38.428203000000003
 20
81.5
 30
0.0
 40
1.5
  0
CIRCLE
  5
D42
  8
DETAIL
  6
CONTINUOUS
 62
     5
 10
-31.5
 20
77.5
 30
0.0
 40
1.5
  0
CIRCLE
  5
D43
  8
DETAIL
  6
CONTINUOUS
 62
     5
 10
-31.5
 20
93.499999999999986
 30
0.0
 40
1.5
  0
CIRCLE
  5
D44
  8
DETAIL
  6
CONTINUOUS
 62
     5
 10
-31.5
 20
89.500000000000014
 30
0.0
 40
1.5
  0
CIRCLE
  5
D45
  8
DETAIL
  6
CONTINUOUS
 62
     5
 10
-31.5
 20
85.5
 30
0.0
 40
1.5
  0
CIRCLE
  5
D46
  8
DETAIL
  6
CONTINUOUS
 62
     5
 10
-31.5
 20
81.5
 30
0.0
 40
1.5
  0
CIRCLE
  5
D47
  8
DETAIL
  6
CONTINUOUS
 62
     5
 10
-31.5
 20
97.5
 30
0.0
 40
1.5
  0
CIRCLE
  5
D48
  8
DETAIL
  6
CONTINUOUS
 62
     5
 10
-45.428203000000003
 20
93.499999999999986
 30
0.0
 40
1.5
  0
CIRCLE
  5
D49
  8
DETAIL
  6
CONTINUOUS
 62
     5
 10
-45.428203000000003
 20
81.5
 30
0.0
 40
1.5
  0
CIRCLE
  5
D4A
  8
DETAIL
  6
CONTINUOUS
 62
     5
 10
-45.428203000000003
 20
89.500000000000014
 30
0.0
 40
1.5
  0
CIRCLE
  5
D4B
  8
DETAIL
  6
CONTINUOUS
 62
     5
 10
-45.428203000000003
 20
85.5
 30
0.0
 40
1.5
  0
CIRCLE
  5
D4C
  8
DETAIL
  6
CONTINUOUS
 62
     5
 10
-45.428203000000003
 20
77.5
 30
0.0
 40
1.5
  0
CIRCLE
  5
D4D
  8
DETAIL
  6
CONTINUOUS
 62
     5
 10
-45.428203000000003
 20
97.5
 30
0.0
 40
1.5
  0
CIRCLE
  5
D4E
  8
DETAIL
  6
CONTINUOUS
 62
     5
 10
-55.820507999999997
 20
83.499999999999986
 30
0.0
 40
1.5
  0
CIRCLE
  5
D4F
  8
DETAIL
  6
CONTINUOUS
 62
     5
 10
-55.820507999999997
 20
87.5
 30
0.0
 40
1.5
  0
CIRCLE
  5
D50
  8
DETAIL
  6
CONTINUOUS
 62
     5
 10
-55.820507999999997
 20
91.5
 30
0.0
 40
1.5
  0
CIRCLE
  5
D51
  8
DETAIL
  6
CONTINUOUS
 62
     5
 10
-55.820507999999997
 20
95.5
 30
0.0
 40
1.5
  0
CIRCLE
  5
D52
  8
DETAIL
  6
CONTINUOUS
 62
     5
 10
-55.820507999999997
 20
79.5
 30
0.0
 40
1.5
  0
CIRCLE
  5
D53
  8
DETAIL
  6
CONTINUOUS
 62
     5
 10
-55.820507999999997
 20
75.5
 30
0.0
 40
1.5
  0
CIRCLE
  5
D54
  8
DETAIL
  6
CONTINUOUS
 62
     5
 10
-52.356405999999993
 20
97.5
 30
0.0
 40
1.5
  0
CIRCLE
  5
D55
  8
DETAIL
  6
CONTINUOUS
 62
     5
 10
-52.356405999999993
 20
81.5
 30
0.0
 40
1.5
  0
CIRCLE
  5
D56
  8
DETAIL
  6
CONTINUOUS
 62
     5
 10
-52.356405999999993
 20
85.5
 30
0.0
 40
1.5
  0
CIRCLE
  5
D57
  8
DETAIL
  6
CONTINUOUS
 62
     5
 10
-52.356405999999993
 20
89.500000000000014
 30
0.0
 40
1.5
  0
CIRCLE
  5
D58
  8
DETAIL
  6
CONTINUOUS
 62
     5
 10
-52.356405999999993
 20
93.499999999999986
 30
0.0
 40
1.5
  0
CIRCLE
  5
D59
  8
DETAIL
  6
CONTINUOUS
 62
     5
 10
-52.356405999999993
 20
77.5
 30
0.0
 40
1.5
  0
CIRCLE
  5
D5A
  8
DETAIL
  6
CONTINUOUS
 62
     5
 10
-48.892305
 20
83.499999999999986
 30
0.0
 40
1.5
  0
CIRCLE
  5
D5B
  8
DETAIL
  6
CONTINUOUS
 62
     5
 10
-48.892305
 20
87.5
 30
0.0
 40
1.5
  0
CIRCLE
  5
D5C
  8
DETAIL
  6
CONTINUOUS
 62
     5
 10
-48.892305
 20
91.5
 30
0.0
 40
1.5
  0
CIRCLE
  5
D5D
  8
DETAIL
  6
CONTINUOUS
 62
     5
 10
-48.892305
 20
95.5
 30
0.0
 40
1.5
  0
CIRCLE
  5
D5E
  8
DETAIL
  6
CONTINUOUS
 62
     5
 10
-48.892305
 20
75.5
 30
0.0
 40
1.5
  0
CIRCLE
  5
D5F
  8
DETAIL
  6
CONTINUOUS
 62
     5
 10
-48.892305
 20
79.5
 30
0.0
 40
1.5
  0
CIRCLE
  5
D60
  8
DETAIL
  6
CONTINUOUS
 62
     5
 10
-59.356406000000007
 20
109.4999999999999
 30
0.0
 40
1.5
  0
CIRCLE
  5
D61
  8
DETAIL
  6
CONTINUOUS
 62
     5
 10
-59.356406000000007
 20
105.4999999999999
 30
0.0
 40
1.5
  0
CIRCLE
  5
D62
  8
DETAIL
  6
CONTINUOUS
 62
     5
 10
-59.356406000000007
 20
101.5
 30
0.0
 40
1.5
  0
CIRCLE
  5
D63
  8
DETAIL
  6
CONTINUOUS
 62
     5
 10
-59.356406000000007
 20
113.5
 30
0.0
 40
1.5
  0
CIRCLE
  5
D64
  8
DETAIL
  6
CONTINUOUS
 62
     5
 10
-73.212812999999983
 20
113.5
 30
0.0
 40
1.5
  0
CIRCLE
  5
D65
  8
DETAIL
  6
CONTINUOUS
 62
     5
 10
-73.212812999999983
 20
101.5
 30
0.0
 40
1.5
  0
CIRCLE
  5
D66
  8
DETAIL
  6
CONTINUOUS
 62
     5
 10
-73.212812999999983
 20
105.4999999999999
 30
0.0
 40
1.5
  0
CIRCLE
  5
D67
  8
DETAIL
  6
CONTINUOUS
 62
     5
 10
-73.212812999999983
 20
109.4999999999999
 30
0.0
 40
1.5
  0
CIRCLE
  5
D68
  8
DETAIL
  6
CONTINUOUS
 62
     5
 10
-76.67691499999998
 20
103.4999999999999
 30
0.0
 40
1.5
  0
CIRCLE
  5
D69
  8
DETAIL
  6
CONTINUOUS
 62
     5
 10
-76.67691499999998
 20
107.4999999999999
 30
0.0
 40
1.5
  0
CIRCLE
  5
D6A
  8
DETAIL
  6
CONTINUOUS
 62
     5
 10
-76.67691499999998
 20
111.4999999999999
 30
0.0
 40
1.5
  0
CIRCLE
  5
D6B
  8
DETAIL
  6
CONTINUOUS
 62
     5
 10
-66.284610000000001
 20
113.5
 30
0.0
 40
1.5
  0
CIRCLE
  5
D6C
  8
DETAIL
  6
CONTINUOUS
 62
     5
 10
-66.284610000000001
 20
101.5
 30
0.0
 40
1.5
  0
CIRCLE
  5
D6D
  8
DETAIL
  6
CONTINUOUS
 62
     5
 10
-62.820507999999997
 20
103.4999999999999
 30
0.0
 40
1.5
  0
CIRCLE
  5
D6E
  8
DETAIL
  6
CONTINUOUS
 62
     5
 10
-69.748711
 20
103.4999999999999
 30
0.0
 40
1.5
  0
CIRCLE
  5
D6F
  8
DETAIL
  6
CONTINUOUS
 62
     5
 10
-66.284610000000001
 20
105.4999999999999
 30
0.0
 40
1.5
  0
CIRCLE
  5
D70
  8
DETAIL
  6
CONTINUOUS
 62
     5
 10
-62.820507999999997
 20
107.4999999999999
 30
0.0
 40
1.5
  0
CIRCLE
  5
D71
  8
DETAIL
  6
CONTINUOUS
 62
     5
 10
-69.748711
 20
107.4999999999999
 30
0.0
 40
1.5
  0
CIRCLE
  5
D72
  8
DETAIL
  6
CONTINUOUS
 62
     5
 10
-69.748711
 20
111.4999999999999
 30
0.0
 40
1.5
  0
CIRCLE
  5
D73
  8
DETAIL
  6
CONTINUOUS
 62
     5
 10
-62.820507999999997
 20
111.4999999999999
 30
0.0
 40
1.5
  0
CIRCLE
  5
D74
  8
DETAIL
  6
CONTINUOUS
 62
     5
 10
-66.284610000000001
 20
109.4999999999999
 30
0.0
 40
1.5
  0
CIRCLE
  5
D75
  8
DETAIL
  6
CONTINUOUS
 62
     5
 10
-80.141015999999993
 20
101.5
 30
0.0
 40
1.5
  0
CIRCLE
  5
D76
  8
DETAIL
  6
CONTINUOUS
 62
     5
 10
-80.141015999999993
 20
105.4999999999999
 30
0.0
 40
1.5
  0
CIRCLE
  5
D77
  8
DETAIL
  6
CONTINUOUS
 62
     5
 10
-80.141015999999993
 20
109.4999999999999
 30
0.0
 40
1.5
  0
CIRCLE
  5
D78
  8
DETAIL
  6
CONTINUOUS
 62
     5
 10
-80.141015999999993
 20
113.5
 30
0.0
 40
1.5
  0
CIRCLE
  5
D79
  8
DETAIL
  6
CONTINUOUS
 62
     5
 10
-48.892305
 20
111.4999999999999
 30
0.0
 40
1.5
  0
CIRCLE
  5
D7A
  8
DETAIL
  6
CONTINUOUS
 62
     5
 10
-48.892305
 20
107.4999999999999
 30
0.0
 40
1.5
  0
CIRCLE
  5
D7B
  8
DETAIL
  6
CONTINUOUS
 62
     5
 10
-48.892305
 20
103.4999999999999
 30
0.0
 40
1.5
  0
CIRCLE
  5
D7C
  8
DETAIL
  6
CONTINUOUS
 62
     5
 10
-52.356405999999993
 20
109.4999999999999
 30
0.0
 40
1.5
  0
CIRCLE
  5
D7D
  8
DETAIL
  6
CONTINUOUS
 62
     5
 10
-52.356405999999993
 20
105.4999999999999
 30
0.0
 40
1.5
  0
CIRCLE
  5
D7E
  8
DETAIL
  6
CONTINUOUS
 62
     5
 10
-52.356405999999993
 20
101.5
 30
0.0
 40
1.5
  0
CIRCLE
  5
D7F
  8
DETAIL
  6
CONTINUOUS
 62
     5
 10
-52.356405999999993
 20
113.5
 30
0.0
 40
1.5
  0
CIRCLE
  5
D80
  8
DETAIL
  6
CONTINUOUS
 62
     5
 10
-55.820507999999997
 20
111.4999999999999
 30
0.0
 40
1.5
  0
CIRCLE
  5
D81
  8
DETAIL
  6
CONTINUOUS
 62
     5
 10
-55.820507999999997
 20
107.4999999999999
 30
0.0
 40
1.5
  0
CIRCLE
  5
D82
  8
DETAIL
  6
CONTINUOUS
 62
     5
 10
-55.820507999999997
 20
103.4999999999999
 30
0.0
 40
1.5
  0
CIRCLE
  5
D83
  8
DETAIL
  6
CONTINUOUS
 62
     5
 10
-45.428203000000003
 20
113.5
 30
0.0
 40
1.5
  0
CIRCLE
  5
D84
  8
DETAIL
  6
CONTINUOUS
 62
     5
 10
-45.428203000000003
 20
101.5
 30
0.0
 40
1.5
  0
CIRCLE
  5
D85
  8
DETAIL
  6
CONTINUOUS
 62
     5
 10
-45.428203000000003
 20
105.4999999999999
 30
0.0
 40
1.5
  0
CIRCLE
  5
D86
  8
DETAIL
  6
CONTINUOUS
 62
     5
 10
-45.428203000000003
 20
109.4999999999999
 30
0.0
 40
1.5
  0
CIRCLE
  5
D87
  8
DETAIL
  6
CONTINUOUS
 62
     5
 10
-31.5
 20
113.5
 30
0.0
 40
1.5
  0
CIRCLE
  5
D88
  8
DETAIL
  6
CONTINUOUS
 62
     5
 10
-31.5
 20
101.5
 30
0.0
 40
1.5
  0
CIRCLE
  5
D89
  8
DETAIL
  6
CONTINUOUS
 62
     5
 10
-31.5
 20
105.4999999999999
 30
0.0
 40
1.5
  0
CIRCLE
  5
D8A
  8
DETAIL
  6
CONTINUOUS
 62
     5
 10
-31.5
 20
109.4999999999999
 30
0.0
 40
1.5
  0
CIRCLE
  5
D8B
  8
DETAIL
  6
CONTINUOUS
 62
     5
 10
-38.428203000000003
 20
101.5
 30
0.0
 40
1.5
  0
CIRCLE
  5
D8C
  8
DETAIL
  6
CONTINUOUS
 62
     5
 10
-34.96410199999999
 20
103.4999999999999
 30
0.0
 40
1.5
  0
CIRCLE
  5
D8D
  8
DETAIL
  6
CONTINUOUS
 62
     5
 10
-38.428203000000003
 20
105.4999999999999
 30
0.0
 40
1.5
  0
CIRCLE
  5
D8E
  8
DETAIL
  6
CONTINUOUS
 62
     5
 10
-34.96410199999999
 20
107.4999999999999
 30
0.0
 40
1.5
  0
CIRCLE
  5
D8F
  8
DETAIL
  6
CONTINUOUS
 62
     5
 10
-34.96410199999999
 20
111.4999999999999
 30
0.0
 40
1.5
  0
CIRCLE
  5
D90
  8
DETAIL
  6
CONTINUOUS
 62
     5
 10
-38.428203000000003
 20
109.4999999999999
 30
0.0
 40
1.5
  0
CIRCLE
  5
D91
  8
DETAIL
  6
CONTINUOUS
 62
     5
 10
-38.428203000000003
 20
113.5
 30
0.0
 40
1.5
  0
CIRCLE
  5
D92
  8
DETAIL
  6
CONTINUOUS
 62
     5
 10
-41.892304999999993
 20
111.4999999999999
 30
0.0
 40
1.5
  0
CIRCLE
  5
D93
  8
DETAIL
  6
CONTINUOUS
 62
     5
 10
-41.892304999999993
 20
107.4999999999999
 30
0.0
 40
1.5
  0
CIRCLE
  5
D94
  8
DETAIL
  6
CONTINUOUS
 62
     5
 10
-41.892304999999993
 20
103.4999999999999
 30
0.0
 40
1.5
  0
CIRCLE
  5
D95
  8
DETAIL
  6
CONTINUOUS
 62
     5
 10
-76.67691499999998
 20
99.500000000000014
 30
0.0
 40
1.5
  0
CIRCLE
  5
D96
  8
DETAIL
  6
CONTINUOUS
 62
     5
 10
-69.748711
 20
99.500000000000014
 30
0.0
 40
1.5
  0
CIRCLE
  5
D97
  8
DETAIL
  6
CONTINUOUS
 62
     5
 10
-62.820507999999997
 20
99.500000000000014
 30
0.0
 40
1.5
  0
CIRCLE
  5
D98
  8
DETAIL
  6
CONTINUOUS
 62
     5
 10
-55.820507999999997
 20
99.500000000000014
 30
0.0
 40
1.5
  0
CIRCLE
  5
D99
  8
DETAIL
  6
CONTINUOUS
 62
     5
 10
-48.892305
 20
99.500000000000014
 30
0.0
 40
1.5
  0
CIRCLE
  5
D9A
  8
DETAIL
  6
CONTINUOUS
 62
     5
 10
-41.892304999999993
 20
99.500000000000014
 30
0.0
 40
1.5
  0
CIRCLE
  5
D9B
  8
DETAIL
  6
CONTINUOUS
 62
     5
 10
-34.96410199999999
 20
99.500000000000014
 30
0.0
 40
1.5
  0
CIRCLE
  5
D9C
  8
DETAIL
  6
CONTINUOUS
 62
     5
 10
-59.356406000000007
 20
-105.3209379999999
 30
0.0
 40
1.5
  0
CIRCLE
  5
D9D
  8
DETAIL
  6
CONTINUOUS
 62
     5
 10
-59.356406000000007
 20
-101.3209379999999
 30
0.0
 40
1.5
  0
CIRCLE
  5
D9E
  8
DETAIL
  6
CONTINUOUS
 62
     5
 10
-59.356406000000007
 20
-97.320938000000012
 30
0.0
 40
1.5
  0
CIRCLE
  5
D9F
  8
DETAIL
  6
CONTINUOUS
 62
     5
 10
-80.141015999999993
 20
-105.3209379999999
 30
0.0
 40
1.5
  0
CIRCLE
  5
DA0
  8
DETAIL
  6
CONTINUOUS
 62
     5
 10
-73.212812999999983
 20
-105.3209379999999
 30
0.0
 40
1.5
  0
CIRCLE
  5
DA1
  8
DETAIL
  6
CONTINUOUS
 62
     5
 10
-66.284610000000001
 20
-105.3209379999999
 30
0.0
 40
1.5
  0
CIRCLE
  5
DA2
  8
DETAIL
  6
CONTINUOUS
 62
     5
 10
-62.820507999999997
 20
-103.3209379999999
 30
0.0
 40
1.5
  0
CIRCLE
  5
DA3
  8
DETAIL
  6
CONTINUOUS
 62
     5
 10
-69.748711
 20
-103.3209379999999
 30
0.0
 40
1.5
  0
CIRCLE
  5
DA4
  8
DETAIL
  6
CONTINUOUS
 62
     5
 10
-76.67691499999998
 20
-103.3209379999999
 30
0.0
 40
1.5
  0
CIRCLE
  5
DA5
  8
DETAIL
  6
CONTINUOUS
 62
     5
 10
-62.820507999999997
 20
-107.3209379999999
 30
0.0
 40
1.5
  0
CIRCLE
  5
DA6
  8
DETAIL
  6
CONTINUOUS
 62
     5
 10
-69.748711
 20
-107.3209379999999
 30
0.0
 40
1.5
  0
CIRCLE
  5
DA7
  8
DETAIL
  6
CONTINUOUS
 62
     5
 10
-76.67691499999998
 20
-107.3209379999999
 30
0.0
 40
1.5
  0
CIRCLE
  5
DA8
  8
DETAIL
  6
CONTINUOUS
 62
     5
 10
-80.141015999999993
 20
-101.3209379999999
 30
0.0
 40
1.5
  0
CIRCLE
  5
DA9
  8
DETAIL
  6
CONTINUOUS
 62
     5
 10
-80.141015999999993
 20
-97.320938000000012
 30
0.0
 40
1.5
  0
CIRCLE
  5
DAA
  8
DETAIL
  6
CONTINUOUS
 62
     5
 10
-62.820507999999997
 20
-99.320937999999998
 30
0.0
 40
1.5
  0
CIRCLE
  5
DAB
  8
DETAIL
  6
CONTINUOUS
 62
     5
 10
-66.284610000000001
 20
-97.320938000000012
 30
0.0
 40
1.5
  0
CIRCLE
  5
DAC
  8
DETAIL
  6
CONTINUOUS
 62
     5
 10
-69.748711
 20
-95.320937999999998
 30
0.0
 40
1.5
  0
CIRCLE
  5
DAD
  8
DETAIL
  6
CONTINUOUS
 62
     5
 10
-62.820507999999997
 20
-95.320937999999998
 30
0.0
 40
1.5
  0
CIRCLE
  5
DAE
  8
DETAIL
  6
CONTINUOUS
 62
     5
 10
-66.284610000000001
 20
-101.3209379999999
 30
0.0
 40
1.5
  0
CIRCLE
  5
DAF
  8
DETAIL
  6
CONTINUOUS
 62
     5
 10
-69.748711
 20
-99.320937999999998
 30
0.0
 40
1.5
  0
CIRCLE
  5
DB0
  8
DETAIL
  6
CONTINUOUS
 62
     5
 10
-76.67691499999998
 20
-99.320937999999998
 30
0.0
 40
1.5
  0
CIRCLE
  5
DB1
  8
DETAIL
  6
CONTINUOUS
 62
     5
 10
-76.67691499999998
 20
-95.320937999999998
 30
0.0
 40
1.5
  0
CIRCLE
  5
DB2
  8
DETAIL
  6
CONTINUOUS
 62
     5
 10
-73.212812999999983
 20
-97.320938000000012
 30
0.0
 40
1.5
  0
CIRCLE
  5
DB3
  8
DETAIL
  6
CONTINUOUS
 62
     5
 10
-73.212812999999983
 20
-101.3209379999999
 30
0.0
 40
1.5
  0
CIRCLE
  5
DB4
  8
DETAIL
  6
CONTINUOUS
 62
     5
 10
-38.428203000000003
 20
-105.3209379999999
 30
0.0
 40
1.5
  0
CIRCLE
  5
DB5
  8
DETAIL
  6
CONTINUOUS
 62
     5
 10
-31.5
 20
-105.3209379999999
 30
0.0
 40
1.5
  0
CIRCLE
  5
DB6
  8
DETAIL
  6
CONTINUOUS
 62
     5
 10
-45.428203000000003
 20
-105.3209379999999
 30
0.0
 40
1.5
  0
CIRCLE
  5
DB7
  8
DETAIL
  6
CONTINUOUS
 62
     5
 10
-41.892304999999993
 20
-103.3209379999999
 30
0.0
 40
1.5
  0
CIRCLE
  5
DB8
  8
DETAIL
  6
CONTINUOUS
 62
     5
 10
-34.96410199999999
 20
-103.3209379999999
 30
0.0
 40
1.5
  0
CIRCLE
  5
DB9
  8
DETAIL
  6
CONTINUOUS
 62
     5
 10
-34.96410199999999
 20
-107.3209379999999
 30
0.0
 40
1.5
  0
CIRCLE
  5
DBA
  8
DETAIL
  6
CONTINUOUS
 62
     5
 10
-41.892304999999993
 20
-107.3209379999999
 30
0.0
 40
1.5
  0
CIRCLE
  5
DBB
  8
DETAIL
  6
CONTINUOUS
 62
     5
 10
-34.96410199999999
 20
-99.320937999999998
 30
0.0
 40
1.5
  0
CIRCLE
  5
DBC
  8
DETAIL
  6
CONTINUOUS
 62
     5
 10
-38.428203000000003
 20
-101.3209379999999
 30
0.0
 40
1.5
  0
CIRCLE
  5
DBD
  8
DETAIL
  6
CONTINUOUS
 62
     5
 10
-41.892304999999993
 20
-99.320937999999998
 30
0.0
 40
1.5
  0
CIRCLE
  5
DBE
  8
DETAIL
  6
CONTINUOUS
 62
     5
 10
-34.96410199999999
 20
-95.320937999999998
 30
0.0
 40
1.5
  0
CIRCLE
  5
DBF
  8
DETAIL
  6
CONTINUOUS
 62
     5
 10
-38.428203000000003
 20
-97.320938000000012
 30
0.0
 40
1.5
  0
CIRCLE
  5
DC0
  8
DETAIL
  6
CONTINUOUS
 62
     5
 10
-41.892304999999993
 20
-95.320937999999998
 30
0.0
 40
1.5
  0
CIRCLE
  5
DC1
  8
DETAIL
  6
CONTINUOUS
 62
     5
 10
-31.5
 20
-97.320938000000012
 30
0.0
 40
1.5
  0
CIRCLE
  5
DC2
  8
DETAIL
  6
CONTINUOUS
 62
     5
 10
-31.5
 20
-101.3209379999999
 30
0.0
 40
1.5
  0
CIRCLE
  5
DC3
  8
DETAIL
  6
CONTINUOUS
 62
     5
 10
-45.428203000000003
 20
-97.320938000000012
 30
0.0
 40
1.5
  0
CIRCLE
  5
DC4
  8
DETAIL
  6
CONTINUOUS
 62
     5
 10
-45.428203000000003
 20
-101.3209379999999
 30
0.0
 40
1.5
  0
CIRCLE
  5
DC5
  8
DETAIL
  6
CONTINUOUS
 62
     5
 10
-55.820507999999997
 20
-103.3209379999999
 30
0.0
 40
1.5
  0
CIRCLE
  5
DC6
  8
DETAIL
  6
CONTINUOUS
 62
     5
 10
-55.820507999999997
 20
-107.3209379999999
 30
0.0
 40
1.5
  0
CIRCLE
  5
DC7
  8
DETAIL
  6
CONTINUOUS
 62
     5
 10
-55.820507999999997
 20
-99.320937999999998
 30
0.0
 40
1.5
  0
CIRCLE
  5
DC8
  8
DETAIL
  6
CONTINUOUS
 62
     5
 10
-55.820507999999997
 20
-95.320937999999998
 30
0.0
 40
1.5
  0
CIRCLE
  5
DC9
  8
DETAIL
  6
CONTINUOUS
 62
     5
 10
-52.356405999999993
 20
-105.3209379999999
 30
0.0
 40
1.5
  0
CIRCLE
  5
DCA
  8
DETAIL
  6
CONTINUOUS
 62
     5
 10
-52.356405999999993
 20
-101.3209379999999
 30
0.0
 40
1.5
  0
CIRCLE
  5
DCB
  8
DETAIL
  6
CONTINUOUS
 62
     5
 10
-52.356405999999993
 20
-97.320938000000012
 30
0.0
 40
1.5
  0
CIRCLE
  5
DCC
  8
DETAIL
  6
CONTINUOUS
 62
     5
 10
-48.892305
 20
-103.3209379999999
 30
0.0
 40
1.5
  0
CIRCLE
  5
DCD
  8
DETAIL
  6
CONTINUOUS
 62
     5
 10
-48.892305
 20
-107.3209379999999
 30
0.0
 40
1.5
  0
CIRCLE
  5
DCE
  8
DETAIL
  6
CONTINUOUS
 62
     5
 10
-48.892305
 20
-95.320937999999998
 30
0.0
 40
1.5
  0
CIRCLE
  5
DCF
  8
DETAIL
  6
CONTINUOUS
 62
     5
 10
-48.892305
 20
-99.320937999999998
 30
0.0
 40
1.5
  0
CIRCLE
  5
DD0
  8
DETAIL
  6
CONTINUOUS
 62
     5
 10
-73.212812999999983
 20
-109.3209379999999
 30
0.0
 40
1.5
  0
CIRCLE
  5
DD1
  8
DETAIL
  6
CONTINUOUS
 62
     5
 10
-80.141015999999993
 20
-109.3209379999999
 30
0.0
 40
1.5
  0
CIRCLE
  5
DD2
  8
DETAIL
  6
CONTINUOUS
 62
     5
 10
-66.284610000000001
 20
-109.3209379999999
 30
0.0
 40
1.5
  0
CIRCLE
  5
DD3
  8
DETAIL
  6
CONTINUOUS
 62
     5
 10
-59.356406000000007
 20
-109.3209379999999
 30
0.0
 40
1.5
  0
CIRCLE
  5
DD4
  8
DETAIL
  6
CONTINUOUS
 62
     5
 10
-52.356405999999993
 20
-109.3209379999999
 30
0.0
 40
1.5
  0
CIRCLE
  5
DD5
  8
DETAIL
  6
CONTINUOUS
 62
     5
 10
-45.428203000000003
 20
-109.3209379999999
 30
0.0
 40
1.5
  0
CIRCLE
  5
DD6
  8
DETAIL
  6
CONTINUOUS
 62
     5
 10
-38.428203000000003
 20
-109.3209379999999
 30
0.0
 40
1.5
  0
CIRCLE
  5
DD7
  8
DETAIL
  6
CONTINUOUS
 62
     5
 10
-31.5
 20
-109.3209379999999
 30
0.0
 40
1.5
  0
CIRCLE
  5
DD8
  8
DETAIL
  6
CONTINUOUS
 62
     5
 10
-59.356406000000007
 20
-85.320937999999998
 30
0.0
 40
1.5
  0
CIRCLE
  5
DD9
  8
DETAIL
  6
CONTINUOUS
 62
     5
 10
-59.356406000000007
 20
-89.320937999999998
 30
0.0
 40
1.5
  0
CIRCLE
  5
DDA
  8
DETAIL
  6
CONTINUOUS
 62
     5
 10
-59.356406000000007
 20
-93.320937999999998
 30
0.0
 40
1.5
  0
CIRCLE
  5
DDB
  8
DETAIL
  6
CONTINUOUS
 62
     5
 10
-73.212812999999983
 20
-89.320937999999998
 30
0.0
 40
1.5
  0
CIRCLE
  5
DDC
  8
DETAIL
  6
CONTINUOUS
 62
     5
 10
-73.212812999999983
 20
-85.320937999999998
 30
0.0
 40
1.5
  0
CIRCLE
  5
DDD
  8
DETAIL
  6
CONTINUOUS
 62
     5
 10
-76.67691499999998
 20
-83.320937999999998
 30
0.0
 40
1.5
  0
CIRCLE
  5
DDE
  8
DETAIL
  6
CONTINUOUS
 62
     5
 10
-76.67691499999998
 20
-87.320937999999984
 30
0.0
 40
1.5
  0
CIRCLE
  5
DDF
  8
DETAIL
  6
CONTINUOUS
 62
     5
 10
-69.748711
 20
-87.320937999999984
 30
0.0
 40
1.5
  0
CIRCLE
  5
DE0
  8
DETAIL
  6
CONTINUOUS
 62
     5
 10
-66.284610000000001
 20
-89.320937999999998
 30
0.0
 40
1.5
  0
CIRCLE
  5
DE1
  8
DETAIL
  6
CONTINUOUS
 62
     5
 10
-62.820507999999997
 20
-83.320937999999998
 30
0.0
 40
1.5
  0
CIRCLE
  5
DE2
  8
DETAIL
  6
CONTINUOUS
 62
     5
 10
-69.748711
 20
-83.320937999999998
 30
0.0
 40
1.5
  0
CIRCLE
  5
DE3
  8
DETAIL
  6
CONTINUOUS
 62
     5
 10
-66.284610000000001
 20
-85.320937999999998
 30
0.0
 40
1.5
  0
CIRCLE
  5
DE4
  8
DETAIL
  6
CONTINUOUS
 62
     5
 10
-62.820507999999997
 20
-87.320937999999984
 30
0.0
 40
1.5
  0
CIRCLE
  5
DE5
  8
DETAIL
  6
CONTINUOUS
 62
     5
 10
-80.141015999999993
 20
-85.320937999999998
 30
0.0
 40
1.5
  0
CIRCLE
  5
DE6
  8
DETAIL
  6
CONTINUOUS
 62
     5
 10
-80.141015999999993
 20
-89.320937999999998
 30
0.0
 40
1.5
  0
CIRCLE
  5
DE7
  8
DETAIL
  6
CONTINUOUS
 62
     5
 10
-76.67691499999998
 20
-91.320937999999984
 30
0.0
 40
1.5
  0
CIRCLE
  5
DE8
  8
DETAIL
  6
CONTINUOUS
 62
     5
 10
-69.748711
 20
-91.320937999999984
 30
0.0
 40
1.5
  0
CIRCLE
  5
DE9
  8
DETAIL
  6
CONTINUOUS
 62
     5
 10
-62.820507999999997
 20
-91.320937999999984
 30
0.0
 40
1.5
  0
CIRCLE
  5
DEA
  8
DETAIL
  6
CONTINUOUS
 62
     5
 10
-66.284610000000001
 20
-93.320937999999998
 30
0.0
 40
1.5
  0
CIRCLE
  5
DEB
  8
DETAIL
  6
CONTINUOUS
 62
     5
 10
-73.212812999999983
 20
-93.320937999999998
 30
0.0
 40
1.5
  0
CIRCLE
  5
DEC
  8
DETAIL
  6
CONTINUOUS
 62
     5
 10
-80.141015999999993
 20
-93.320937999999998
 30
0.0
 40
1.5
  0
CIRCLE
  5
DED
  8
DETAIL
  6
CONTINUOUS
 62
     5
 10
-48.892305
 20
-87.320937999999984
 30
0.0
 40
1.5
  0
CIRCLE
  5
DEE
  8
DETAIL
  6
CONTINUOUS
 62
     5
 10
-48.892305
 20
-83.320937999999998
 30
0.0
 40
1.5
  0
CIRCLE
  5
DEF
  8
DETAIL
  6
CONTINUOUS
 62
     5
 10
-48.892305
 20
-91.320937999999984
 30
0.0
 40
1.5
  0
CIRCLE
  5
DF0
  8
DETAIL
  6
CONTINUOUS
 62
     5
 10
-52.356405999999993
 20
-85.320937999999998
 30
0.0
 40
1.5
  0
CIRCLE
  5
DF1
  8
DETAIL
  6
CONTINUOUS
 62
     5
 10
-52.356405999999993
 20
-89.320937999999998
 30
0.0
 40
1.5
  0
CIRCLE
  5
DF2
  8
DETAIL
  6
CONTINUOUS
 62
     5
 10
-52.356405999999993
 20
-93.320937999999998
 30
0.0
 40
1.5
  0
CIRCLE
  5
DF3
  8
DETAIL
  6
CONTINUOUS
 62
     5
 10
-55.820507999999997
 20
-83.320937999999998
 30
0.0
 40
1.5
  0
CIRCLE
  5
DF4
  8
DETAIL
  6
CONTINUOUS
 62
     5
 10
-55.820507999999997
 20
-87.320937999999984
 30
0.0
 40
1.5
  0
CIRCLE
  5
DF5
  8
DETAIL
  6
CONTINUOUS
 62
     5
 10
-55.820507999999997
 20
-91.320937999999984
 30
0.0
 40
1.5
  0
CIRCLE
  5
DF6
  8
DETAIL
  6
CONTINUOUS
 62
     5
 10
-45.428203000000003
 20
-89.320937999999998
 30
0.0
 40
1.5
  0
CIRCLE
  5
DF7
  8
DETAIL
  6
CONTINUOUS
 62
     5
 10
-45.428203000000003
 20
-85.320937999999998
 30
0.0
 40
1.5
  0
CIRCLE
  5
DF8
  8
DETAIL
  6
CONTINUOUS
 62
     5
 10
-31.5
 20
-89.320937999999998
 30
0.0
 40
1.5
  0
CIRCLE
  5
DF9
  8
DETAIL
  6
CONTINUOUS
 62
     5
 10
-31.5
 20
-85.320937999999998
 30
0.0
 40
1.5
  0
CIRCLE
  5
DFA
  8
DETAIL
  6
CONTINUOUS
 62
     5
 10
-41.892304999999993
 20
-83.320937999999998
 30
0.0
 40
1.5
  0
CIRCLE
  5
DFB
  8
DETAIL
  6
CONTINUOUS
 62
     5
 10
-38.428203000000003
 20
-85.320937999999998
 30
0.0
 40
1.5
  0
CIRCLE
  5
DFC
  8
DETAIL
  6
CONTINUOUS
 62
     5
 10
-34.96410199999999
 20
-83.320937999999998
 30
0.0
 40
1.5
  0
CIRCLE
  5
DFD
  8
DETAIL
  6
CONTINUOUS
 62
     5
 10
-41.892304999999993
 20
-87.320937999999984
 30
0.0
 40
1.5
  0
CIRCLE
  5
DFE
  8
DETAIL
  6
CONTINUOUS
 62
     5
 10
-38.428203000000003
 20
-89.320937999999998
 30
0.0
 40
1.5
  0
CIRCLE
  5
DFF
  8
DETAIL
  6
CONTINUOUS
 62
     5
 10
-34.96410199999999
 20
-87.320937999999984
 30
0.0
 40
1.5
  0
CIRCLE
  5
E00
  8
DETAIL
  6
CONTINUOUS
 62
     5
 10
-34.96410199999999
 20
-91.320937999999984
 30
0.0
 40
1.5
  0
CIRCLE
  5
E01
  8
DETAIL
  6
CONTINUOUS
 62
     5
 10
-41.892304999999993
 20
-91.320937999999984
 30
0.0
 40
1.5
  0
CIRCLE
  5
E02
  8
DETAIL
  6
CONTINUOUS
 62
     5
 10
-45.428203000000003
 20
-93.320937999999998
 30
0.0
 40
1.5
  0
CIRCLE
  5
E03
  8
DETAIL
  6
CONTINUOUS
 62
     5
 10
-31.5
 20
-93.320937999999998
 30
0.0
 40
1.5
  0
CIRCLE
  5
E04
  8
DETAIL
  6
CONTINUOUS
 62
     5
 10
-38.428203000000003
 20
-93.320937999999998
 30
0.0
 40
1.5
  0
CIRCLE
  5
E05
  8
DETAIL
  6
CONTINUOUS
 62
     5
 10
-34.96410199999999
 20
-75.74839799999998
 30
0.0
 40
1.5
  0
CIRCLE
  5
E06
  8
DETAIL
  6
CONTINUOUS
 62
     5
 10
-41.892304999999993
 20
-75.74839799999998
 30
0.0
 40
1.5
  0
CIRCLE
  5
E07
  8
DETAIL
  6
CONTINUOUS
 62
     5
 10
-55.820507999999997
 20
-75.74839799999998
 30
0.0
 40
1.5
  0
CIRCLE
  5
E08
  8
DETAIL
  6
CONTINUOUS
 62
     5
 10
-48.892305
 20
-75.74839799999998
 30
0.0
 40
1.5
  0
CIRCLE
  5
E09
  8
DETAIL
  6
CONTINUOUS
 62
     5
 10
-69.748711
 20
-75.74839799999998
 30
0.0
 40
1.5
  0
CIRCLE
  5
E0A
  8
DETAIL
  6
CONTINUOUS
 62
     5
 10
-62.820507999999997
 20
-75.74839799999998
 30
0.0
 40
1.5
  0
CIRCLE
  5
E0B
  8
DETAIL
  6
CONTINUOUS
 62
     5
 10
-76.67691499999998
 20
-75.74839799999998
 30
0.0
 40
1.5
  0
CIRCLE
  5
E0C
  8
DETAIL
  6
CONTINUOUS
 62
     5
 10
-59.356406000000007
 20
-81.320937999999984
 30
0.0
 40
1.5
  0
CIRCLE
  5
E0D
  8
DETAIL
  6
CONTINUOUS
 62
     5
 10
-59.356406000000007
 20
-77.74839799999998
 30
0.0
 40
1.5
  0
CIRCLE
  5
E0E
  8
DETAIL
  6
CONTINUOUS
 62
     5
 10
-80.141015999999993
 20
-81.320937999999984
 30
0.0
 40
1.5
  0
CIRCLE
  5
E0F
  8
DETAIL
  6
CONTINUOUS
 62
     5
 10
-80.141015999999993
 20
-77.74839799999998
 30
0.0
 40
1.5
  0
CIRCLE
  5
E10
  8
DETAIL
  6
CONTINUOUS
 62
     5
 10
-62.820507999999997
 20
-79.320937999999998
 30
0.0
 40
1.5
  0
CIRCLE
  5
E11
  8
DETAIL
  6
CONTINUOUS
 62
     5
 10
-66.284610000000001
 20
-77.74839799999998
 30
0.0
 40
1.5
  0
CIRCLE
  5
E12
  8
DETAIL
  6
CONTINUOUS
 62
     5
 10
-66.284610000000001
 20
-81.320937999999984
 30
0.0
 40
1.5
  0
CIRCLE
  5
E13
  8
DETAIL
  6
CONTINUOUS
 62
     5
 10
-69.748711
 20
-79.320937999999998
 30
0.0
 40
1.5
  0
CIRCLE
  5
E14
  8
DETAIL
  6
CONTINUOUS
 62
     5
 10
-76.67691499999998
 20
-79.320937999999998
 30
0.0
 40
1.5
  0
CIRCLE
  5
E15
  8
DETAIL
  6
CONTINUOUS
 62
     5
 10
-73.212812999999983
 20
-77.74839799999998
 30
0.0
 40
1.5
  0
CIRCLE
  5
E16
  8
DETAIL
  6
CONTINUOUS
 62
     5
 10
-73.212812999999983
 20
-81.320937999999984
 30
0.0
 40
1.5
  0
CIRCLE
  5
E17
  8
DETAIL
  6
CONTINUOUS
 62
     5
 10
-34.96410199999999
 20
-79.320937999999998
 30
0.0
 40
1.5
  0
CIRCLE
  5
E18
  8
DETAIL
  6
CONTINUOUS
 62
     5
 10
-38.428203000000003
 20
-81.320937999999984
 30
0.0
 40
1.5
  0
CIRCLE
  5
E19
  8
DETAIL
  6
CONTINUOUS
 62
     5
 10
-41.892304999999993
 20
-79.320937999999998
 30
0.0
 40
1.5
  0
CIRCLE
  5
E1A
  8
DETAIL
  6
CONTINUOUS
 62
     5
 10
-38.428203000000003
 20
-77.74839799999998
 30
0.0
 40
1.5
  0
CIRCLE
  5
E1B
  8
DETAIL
  6
CONTINUOUS
 62
     5
 10
-31.5
 20
-77.74839799999998
 30
0.0
 40
1.5
  0
CIRCLE
  5
E1C
  8
DETAIL
  6
CONTINUOUS
 62
     5
 10
-31.5
 20
-81.320937999999984
 30
0.0
 40
1.5
  0
CIRCLE
  5
E1D
  8
DETAIL
  6
CONTINUOUS
 62
     5
 10
-45.428203000000003
 20
-77.74839799999998
 30
0.0
 40
1.5
  0
CIRCLE
  5
E1E
  8
DETAIL
  6
CONTINUOUS
 62
     5
 10
-45.428203000000003
 20
-81.320937999999984
 30
0.0
 40
1.5
  0
CIRCLE
  5
E1F
  8
DETAIL
  6
CONTINUOUS
 62
     5
 10
-55.820507999999997
 20
-79.320937999999998
 30
0.0
 40
1.5
  0
CIRCLE
  5
E20
  8
DETAIL
  6
CONTINUOUS
 62
     5
 10
-52.356405999999993
 20
-81.320937999999984
 30
0.0
 40
1.5
  0
CIRCLE
  5
E21
  8
DETAIL
  6
CONTINUOUS
 62
     5
 10
-52.356405999999993
 20
-77.74839799999998
 30
0.0
 40
1.5
  0
CIRCLE
  5
E22
  8
DETAIL
  6
CONTINUOUS
 62
     5
 10
-48.892305
 20
-79.320937999999998
 30
0.0
 40
1.5
  0
CIRCLE
  5
E23
  8
DETAIL
  6
CONTINUOUS
 62
     5
 10
-80.141015999999993
 20
-74.043756000000002
 30
0.0
 40
1.5
  0
CIRCLE
  5
E24
  8
DETAIL
  6
CONTINUOUS
 62
     5
 10
-76.67691499999998
 20
-72.319671
 30
0.0
 40
1.5
  0
CIRCLE
  5
E25
  8
DETAIL
  6
CONTINUOUS
 62
     5
 10
-69.748711
 20
-72.319671
 30
0.0
 40
1.5
  0
CIRCLE
  5
E26
  8
DETAIL
  6
CONTINUOUS
 62
     5
 10
-62.820507999999997
 20
-72.319671
 30
0.0
 40
1.5
  0
CIRCLE
  5
E27
  8
DETAIL
  6
CONTINUOUS
 62
     5
 10
-55.820507999999997
 20
-72.319671
 30
0.0
 40
1.5
  0
CIRCLE
  5
E28
  8
DETAIL
  6
CONTINUOUS
 62
     5
 10
-48.892305
 20
-72.319671
 30
0.0
 40
1.5
  0
CIRCLE
  5
E29
  8
DETAIL
  6
CONTINUOUS
 62
     5
 10
-41.892304999999993
 20
-72.319671
 30
0.0
 40
1.5
  0
CIRCLE
  5
E2A
  8
DETAIL
  6
CONTINUOUS
 62
     5
 10
-34.96410199999999
 20
-72.319671
 30
0.0
 40
1.5
  0
CIRCLE
  5
E2B
  8
DETAIL
  6
CONTINUOUS
 62
     5
 10
-73.212812999999983
 20
-74.319671
 30
0.0
 40
1.5
  0
CIRCLE
  5
E2C
  8
DETAIL
  6
CONTINUOUS
 62
     5
 10
-66.284610000000001
 20
-74.319671
 30
0.0
 40
1.5
  0
CIRCLE
  5
E2D
  8
DETAIL
  6
CONTINUOUS
 62
     5
 10
-59.356406000000007
 20
-74.319671
 30
0.0
 40
1.5
  0
CIRCLE
  5
E2E
  8
DETAIL
  6
CONTINUOUS
 62
     5
 10
-52.356405999999993
 20
-74.319671
 30
0.0
 40
1.5
  0
CIRCLE
  5
E2F
  8
DETAIL
  6
CONTINUOUS
 62
     5
 10
-45.428203000000003
 20
-74.319671
 30
0.0
 40
1.5
  0
CIRCLE
  5
E30
  8
DETAIL
  6
CONTINUOUS
 62
     5
 10
-38.428203000000003
 20
-74.319671
 30
0.0
 40
1.5
  0
CIRCLE
  5
E31
  8
DETAIL
  6
CONTINUOUS
 62
     5
 10
-31.5
 20
-74.319671
 30
0.0
 40
1.5
  0
LINE
  5
E32
  8
SIZE
  6
CONTINUOUS
 62
    30
 10
0.0
 20
259.5
 30
0.0
 11
0.0
 21
470.24560499999978
 31
0.0
  0
LINE
  5
E33
  8
SIZE
  6
CONTINUOUS
 62
    30
 10
-122.0
 20
229.49999999999989
 30
0.0
 11
-122.0
 21
470.24560499999978
 31
0.0
  0
LINE
  5
E34
  8
SIZE
  6
CONTINUOUS
 62
    30
 10
-12.0
 20
450.24560499999978
 30
0.0
 11
-110.0
 21
450.24560499999978
 31
0.0
  0
LINE
  5
E35
  8
SIZE
  6
CONTINUOUS
 62
    30
 10
-330.25453099999982
 20
450.24560499999978
 30
0.0
 11
-122.0
 21
450.24560499999978
 31
0.0
  0
TEXT
  5
E36
  8
SIZE
  6
CONTINUOUS
 62
    30
 10
-305.25453057142852
 20
475.24560499999978
 30
0.0
 40
64.0
  1
122
 41
0.9
 72
     1
 11
-236.68310199999991
 21
475.24560499999978
 31
0.0
  0
CIRCLE
  5
E37
  8
SIZE
  6
CONTINUOUS
 62
    30
 10
0.0
 20
450.24560499999978
 30
0.0
 40
6.0
  0
LINE
  5
E38
  8
SIZE
  6
CONTINUOUS
 62
    30
 10
0.0
 20
450.24560499999978
 30
0.0
 11
-12.0
 21
450.24560499999978
 31
0.0
  0
CIRCLE
  5
E39
  8
SIZE
  6
CONTINUOUS
 62
    30
 10
-122.0
 20
450.24560499999978
 30
0.0
 40
6.0
  0
LINE
  5
E3A
  8
SIZE
  6
CONTINUOUS
 62
    30
 10
-122.0
 20
450.24560499999978
 30
0.0
 11
-110.0
 21
450.24560499999978
 31
0.0
  0
POINT
  5
E3B
  8
DEFPOINTS
  6
CONTINUOUS
 62
    30
 10
-122.0
 20
450.24560499999978
 30
0.0
  0
LINE
  5
E3C
  8
DETAIL
  6
CONTINUOUS
 62
     5
 10
0.0
 20
239.5
 30
0.0
 11
-92.0
 21
239.5
 31
0.0
  0
LINE
  5
E3D
  8
DETAIL
  6
CONTINUOUS
 62
     5
 10
0.0
 20
-239.5
 30
0.0
 11
-92.547727000000009
 21
-239.5
 31
0.0
  0
LINE
  5
E3E
  8
SIZE
  6
CONTINUOUS
 62
    30
 10
20.0
 20
239.5
 30
0.0
 11
577.411654
 21
239.5
 31
0.0
  0
LINE
  5
E3F
  8
SIZE
  6
CONTINUOUS
 62
    30
 10
20.0
 20
-239.5
 30
0.0
 11
577.411654
 21
-239.5
 31
0.0
  0
LINE
  5
E40
  8
SIZE
  6
CONTINUOUS
 62
    30
 10
557.411654
 20
227.49999999999989
 30
0.0
 11
557.411654
 21
-227.49999999999989
 31
0.0
  0
CIRCLE
  5
E41
  8
SIZE
  6
CONTINUOUS
 62
    30
 10
557.411654
 20
239.5
 30
0.0
 40
6.0
  0
LINE
  5
E42
  8
SIZE
  6
CONTINUOUS
 62
    30
 10
557.411654
 20
239.5
 30
0.0
 11
557.411654
 21
227.49999999999989
 31
0.0
  0
CIRCLE
  5
E43
  8
SIZE
  6
CONTINUOUS
 62
    30
 10
557.411654
 20
-239.5
 30
0.0
 40
6.0
  0
LINE
  5
E44
  8
SIZE
  6
CONTINUOUS
 62
    30
 10
557.411654
 20
-239.5
 30
0.0
 11
557.411654
 21
-227.49999999999989
 31
0.0
  0
TEXT
  5
E45
  8
SIZE
  6
CONTINUOUS
 62
    30
 10
532.411654
 20
-72.685714285714283
 30
0.0
 40
64.0
  1
479
 50
90.0
 41
0.9
 72
     1
 11
532.411654
 21
0.0
 31
0.0
  0
POINT
  5
E46
  8
DEFPOINTS
  6
CONTINUOUS
 62
    30
 10
557.411654
 20
-239.5
 30
0.0
  0
LINE
  5
E47
  8
DETAIL
  6
CONTINUOUS
 62
     5
 10
155.0
 20
197.5
 30
0.0
 11
0.0
 21
197.5
 31
0.0
  0
LINE
  5
E48
  8
DETAIL
  6
CONTINUOUS
 62
     5
 10
155.0
 20
-197.5
 30
0.0
 11
0.0
 21
-197.5
 31
0.0
  0
LINE
  5
E49
  8
SIZE
  6
CONTINUOUS
 62
    30
 10
175.0
 20
197.5
 30
0.0
 11
345.89590600000002
 21
197.5
 31
0.0
  0
LINE
  5
E4A
  8
SIZE
  6
CONTINUOUS
 62
    30
 10
175.0
 20
-197.5
 30
0.0
 11
345.89590600000002
 21
-197.5
 31
0.0
  0
LINE
  5
E4B
  8
SIZE
  6
CONTINUOUS
 62
    30
 10
325.89590600000002
 20
185.5
 30
0.0
 11
325.89590600000002
 21
-185.5
 31
0.0
  0
CIRCLE
  5
E4C
  8
SIZE
  6
CONTINUOUS
 62
    30
 10
325.89590600000002
 20
197.5
 30
0.0
 40
6.0
  0
LINE
  5
E4D
  8
SIZE
  6
CONTINUOUS
 62
    30
 10
325.89590600000002
 20
197.5
 30
0.0
 11
325.89590600000002
 21
185.5
 31
0.0
  0
CIRCLE
  5
E4E
  8
SIZE
  6
CONTINUOUS
 62
    30
 10
325.89590600000002
 20
-197.5
 30
0.0
 40
6.0
  0
LINE
  5
E4F
  8
SIZE
  6
CONTINUOUS
 62
    30
 10
325.89590600000002
 20
-197.5
 30
0.0
 11
325.89590600000002
 21
-185.5
 31
0.0
  0
TEXT
  5
E50
  8
SIZE
  6
CONTINUOUS
 62
    30
 10
300.89590600000002
 20
-110.5371428571428
 30
0.0
 40
64.0
  1
□395
 50
90.0
 41
0.9
 72
     1
 11
300.89590600000002
 21
0.0
 31
0.0
  0
POINT
  5
E51
  8
DEFPOINTS
  6
CONTINUOUS
 62
    30
 10
325.89590600000002
 20
-197.5
 30
0.0
  0
LINE
  5
E52
  8
SIZE
  6
CONTINUOUS
 62
    30
 10
40.0
 20
217.5
 30
0.0
 11
464.345821
 21
217.5
 31
0.0
  0
LINE
  5
E53
  8
SIZE
  6
CONTINUOUS
 62
    30
 10
40.0
 20
-217.5
 30
0.0
 11
464.345821
 21
-217.5
 31
0.0
  0
LINE
  5
E54
  8
SIZE
  6
CONTINUOUS
 62
    30
 10
444.345821
 20
205.5
 30
0.0
 11
444.345821
 21
-205.5
 31
0.0
  0
CIRCLE
  5
E55
  8
SIZE
  6
CONTINUOUS
 62
    30
 10
444.345821
 20
217.5
 30
0.0
 40
6.0
  0
LINE
  5
E56
  8
SIZE
  6
CONTINUOUS
 62
    30
 10
444.345821
 20
217.5
 30
0.0
 11
444.345821
 21
205.5
 31
0.0
  0
CIRCLE
  5
E57
  8
SIZE
  6
CONTINUOUS
 62
    30
 10
444.345821
 20
-217.5
 30
0.0
 40
6.0
  0
LINE
  5
E58
  8
SIZE
  6
CONTINUOUS
 62
    30
 10
444.345821
 20
-217.5
 30
0.0
 11
444.345821
 21
-205.5
 31
0.0
  0
TEXT
  5
E59
  8
SIZE
  6
CONTINUOUS
 62
    30
 10
419.345821
 20
-74.05714285714285
 30
0.0
 40
64.0
  1
435
 50
90.0
 41
0.9
 72
     1
 11
419.345821
 21
0.0
 31
0.0
  0
POINT
  5
E5A
  8
DEFPOINTS
  6
CONTINUOUS
 62
    30
 10
444.345821
 20
-217.5
 30
0.0
  0
LINE
  5
E5B
  8
DETAIL
  6
CONTINUOUS
 62
     5
 10
-8.0
 20
-278.5
 30
0.0
 11
-68.966087999999999
 21
-278.5
 31
0.0
  0
LINE
  5
E5C
  8
SIZE
  6
CONTINUOUS
 62
    30
 10
20.0
 20
-239.5
 30
0.0
 11
577.411654
 21
-239.5
 31
0.0
  0
LINE
  5
E5D
  8
SIZE
  6
CONTINUOUS
 62
    30
 10
12.0
 20
-278.5
 30
0.0
 11
577.411654
 21
-278.5
 31
0.0
  0
LINE
  5
E5E
  8
SIZE
  6
CONTINUOUS
 62
    30
 10
557.411654
 20
-227.49999999999989
 30
0.0
 11
557.411654
 21
-215.5
 31
0.0
  0
LINE
  5
E5F
  8
SIZE
  6
CONTINUOUS
 62
    30
 10
557.411654
 20
-290.5
 30
0.0
 11
557.411654
 21
-302.49999999999989
 31
0.0
  0
LINE
  5
E60
  8
SIZE
  6
CONTINUOUS
 62
    30
 10
557.411654
 20
-445.20049400000011
 30
0.0
 11
557.411654
 21
-278.5
 31
0.0
  0
TEXT
  5
E61
  8
SIZE
  6
CONTINUOUS
 62
    30
 10
532.411654
 20
-420.20049485714293
 30
0.0
 40
64.0
  1
39
 50
90.0
 41
0.9
 72
     1
 11
532.411654
 21
-374.943352
 31
0.0
  0
LINE
  5
E62
  8
SIZE
  6
CONTINUOUS
 62
    30
 10
557.411654
 20
-239.5
 30
0.0
 11
557.411654
 21
-278.5
 31
0.0
  0
LINE
  5
E63
  8
SIZE
  6
CONTINUOUS
 62
    30
 10
557.411654
 20
-239.5
 30
0.0
 11
557.411654
 21
-278.5
 31
0.0
  0
CIRCLE
  5
E64
  8
SIZE
  6
CONTINUOUS
 62
    30
 10
557.411654
 20
-239.5
 30
0.0
 40
6.0
  0
LINE
  5
E65
  8
SIZE
  6
CONTINUOUS
 62
    30
 10
557.411654
 20
-239.5
 30
0.0
 11
557.411654
 21
-227.49999999999989
 31
0.0
  0
CIRCLE
  5
E66
  8
SIZE
  6
CONTINUOUS
 62
    30
 10
557.411654
 20
-278.5
 30
0.0
 40
6.0
  0
LINE
  5
E67
  8
SIZE
  6
CONTINUOUS
 62
    30
 10
557.411654
 20
-278.5
 30
0.0
 11
557.411654
 21
-290.5
 31
0.0
  0
POINT
  5
E68
  8
DEFPOINTS
  6
CONTINUOUS
 62
    30
 10
557.411654
 20
-278.5
 30
0.0
  0
LINE
  5
E69
  8
OUTLINE
  6
CONTINUOUS
 62
     3
 10
155.0
 20
-197.5
 30
0.0
 11
0.0
 21
-197.5
 31
0.0
  0
LINE
  5
E6A
  8
OUTLINE
  6
CONTINUOUS
 62
     3
 10
155.0
 20
197.5
 30
0.0
 11
0.0
 21
197.5
 31
0.0
  0
ARC
  5
E6B
  8
OUTLINE
  6
CONTINUOUS
 62
     3
 10
-8.0
 20
-270.5
 30
0.0
 40
8.0
 50
270.0
 51
0.0
  0
LINE
  5
E6C
  8
OUTLINE
  6
CONTINUOUS
 62
     3
 10
0.0
 20
239.5
 30
0.0
 11
0.0
 21
-239.50500099999991
 31
0.0
  0
LINE
  5
E6D
  8
OUTLINE
  6
CONTINUOUS
 62
     3
 10
0.0
 20
-244.50500099999991
 30
0.0
 11
0.0
 21
-270.5
 31
0.0
  0
LINE
  5
E6E
  8
OUTLINE
  6
CONTINUOUS
 62
     3
 10
-8.0
 20
-278.5
 30
0.0
 11
-68.966087999999999
 21
-278.5
 31
0.0
  0
LINE
  5
E6F
  8
OUTLINE
  6
CONTINUOUS
 62
     3
 10
0.0
 20
-239.5
 30
0.0
 11
-92.547727000000009
 21
-239.5
 31
0.0
  0
LINE
  5
E70
  8
OUTLINE
  6
CONTINUOUS
 62
     3
 10
0.0
 20
-244.50500099999991
 30
0.0
 11
-92.0
 21
-244.50500099999991
 31
0.0
  0
LINE
  5
E71
  8
OUTLINE
  6
CONTINUOUS
 62
     3
 10
0.0
 20
-239.50500099999991
 30
0.0
 11
0.0
 21
-244.50500099999991
 31
0.0
  0
LINE
  5
E72
  8
OUTLINE
  6
CONTINUOUS
 62
     3
 10
0.0
 20
239.5
 30
0.0
 11
-92.0
 21
239.5
 31
0.0
  0
LINE
  5
E73
  8
OUTLINE
  6
CONTINUOUS
 62
     3
 10
155.0
 20
197.5
 30
0.0
 11
155.0
 21
-197.5
 31
0.0
  0
LINE
  5
E74
  8
OUTLINE
  6
CONTINUOUS
 62
     3
 10
-122.0
 20
212.5
 30
0.0
 11
-122.0
 21
-209.50500099999999
 31
0.0
  0
ARC
  5
E75
  8
OUTLINE
  6
CONTINUOUS
 62
     3
 10
-92.0
 20
-209.50500099999999
 30
0.0
 40
30.0
 50
180.0
 51
270.0
  0
LINE
  5
E76
  8
OUTLINE
  6
CONTINUOUS
 62
     3
 10
-92.0
 20
-244.50500099999991
 30
0.0
 11
-92.0
 21
-239.50500099999991
 31
0.0
  0
ARC
  5
E77
  8
OUTLINE
  6
CONTINUOUS
 62
     3
 10
-92.0
 20
209.5
 30
0.0
 40
30.0
 50
90.0
 51
180.0
  0
LINE
  5
E78
  8
OUTLINE
  6
CONTINUOUS
 62
     3
 10
-92.0
 20
-244.50500099999991
 30
0.0
 11
-81.780647999999985
 21
-271.29660499999989
 31
0.0
  0
ARC
  5
E79
  8
OUTLINE
  6
CONTINUOUS
 62
     3
 10
-68.966087999999999
 20
-263.5
 30
0.0
 40
15.0
 50
211.317072
 51
270.0
  0
TEXT
  5
E7A
  8
ETC
  6
CONTINUOUS
 62
    61
 10
723.28952246639369
 20
327.48933609263082
 30
0.0
 40
50.0
  1
EFC-35FSA
 41
0.9
  0
TEXT
  5
E7B
  8
ETC
  6
CONTINUOUS
 62
    61
 10
575.57827250401454
 20
518.66098859339093
 30
0.0
 40
64.0
  1
EFC-35FSA_4
 41
0.9
  0
TEXT
  5
E7C
  8
ETC
  6
CONTINUOUS
 62
    61
 10
578.99486650401445
 20
412.3168615933908
 30
0.0
 40
64.0
  1
産業扇
 41
0.9
  0
ENDSEC
  0
EOF
