  0
SECTION
  2
HEADER
  9
$ACADVER
  1
AC1009
  9
$INSBASE
 10
0.0
 20
0.0
 30
0.0
  9
$EXTMIN
 10
-650.69642499999998
 20
-492.26190399999979
 30
0.0
  9
$EXTMAX
 10
1220.511840020469
 20
656.47904600000004
 30
50.0
  9
$LIMMIN
 10
-2970.0
 20
-2100.0
  9
$LIMMAX
 10
2970.0
 20
2100.0
  9
$ORTHOMODE
 70
     1
  9
$REGENMODE
 70
     0
  9
$FILLMODE
 70
     1
  9
$QTEXTMODE
 70
     0
  9
$MIRRTEXT
 70
     0
  9
$DRAGMODE
 70
     2
  9
$LTSCALE
 40
20.0
  9
$OSMODE
 70
   169
  9
$ATTMODE
 70
     1
  9
$TEXTSIZE
 40
64.0
  9
$TRACEWID
 40
0.05
  9
$TEXTSTYLE
  7
STANDARD
  9
$CLAYER
  8
FIX
  9
$CELTYPE
  6
CONTINUOUS
  9
$CECOLOR
 62
    11
  9
$DIMSCALE
 40
1.0
  9
$DIMASZ
 40
12.0
  9
$DIMEXO
 40
20.0
  9
$DIMDLI
 40
200.0
  9
$DIMRND
 40
0.0
  9
$DIMDLE
 40
0.0
  9
$DIMEXE
 40
20.0
  9
$DIMTP
 40
0.0
  9
$DIMTM
 40
0.0
  9
$DIMTXT
 40
64.0
  9
$DIMCEN
 40
0.09
  9
$DIMTSZ
 40
0.0
  9
$DIMTOL
 70
     0
  9
$DIMLIM
 70
     0
  9
$DIMTIH
 70
     0
  9
$DIMTOH
 70
     0
  9
$DIMSE1
 70
     0
  9
$DIMSE2
 70
     0
  9
$DIMTAD
 70
     1
  9
$DIMZIN
 70
     8
  9
$DIMBLK
  1
DOT1
  9
$DIMASO
 70
     1
  9
$DIMSHO
 70
     0
  9
$DIMPOST
  1

  9
$DIMAPOST
  1

  9
$DIMALT
 70
     0
  9
$DIMALTD
 70
     2
  9
$DIMALTF
 40
25.399999999999999
  9
$DIMLFAC
 40
1.0
  9
$DIMTOFL
 70
     1
  9
$DIMTVP
 40
0.0
  9
$DIMTIX
 70
     1
  9
$DIMSOXD
 70
     0
  9
$DIMSAH
 70
     1
  9
$DIMBLK1
  1
ORIGIN
  9
$DIMBLK2
  1
ORIGIN
  9
$DIMSTYLE
  2
STANDARD
  9
$DIMCLRD
 70
     0
  9
$DIMCLRE
 70
     0
  9
$DIMCLRT
 70
     0
  9
$DIMTFAC
 40
1.0
  9
$DIMGAP
 40
0.09
  9
$LUNITS
 70
     2
  9
$LUPREC
 70
     4
  9
$SKETCHINC
 40
0.1
  9
$FILLETRAD
 40
4.0
  9
$AUNITS
 70
     1
  9
$AUPREC
 70
     3
  9
$MENU
  1
ACAD
  9
$ELEVATION
 40
0.0
  9
$PELEVATION
 40
0.0
  9
$THICKNESS
 40
50.0
  9
$LIMCHECK
 70
     0
  9
$BLIPMODE
 70
     0
  9
$CHAMFERA
 40
0.0
  9
$CHAMFERB
 40
0.0
  9
$SKPOLY
 70
     0
  9
$TDCREATE
 40
2451453.4938508091
  9
$TDUPDATE
 40
2453474.895005242
  9
$TDINDWG
 40
0.6669787847000001
  9
$TDUSRTIMER
 40
0.6669787847000001
  9
$USRTIMER
 70
     1
  9
$ANGBASE
 50
0.0
  9
$ANGDIR
 70
     0
  9
$PDMODE
 70
     3
  9
$PDSIZE
 40
-2.0
  9
$PLINEWID
 40
0.0
  9
$COORDS
 70
     2
  9
$SPLFRAME
 70
     0
  9
$SPLINETYPE
 70
     6
  9
$SPLINESEGS
 70
     8
  9
$ATTDIA
 70
     0
  9
$ATTREQ
 70
     1
  9
$HANDLING
 70
 22529
  9
$HANDSEED
  5
28A
  9
$SURFTAB1
 70
     6
  9
$SURFTAB2
 70
     6
  9
$SURFTYPE
 70
     6
  9
$SURFU
 70
     6
  9
$SURFV
 70
     6
  9
$UCSNAME
  2

  9
$UCSORG
 10
0.0
 20
0.0
 30
0.0
  9
$UCSXDIR
 10
1.0
 20
0.0
 30
0.0
  9
$UCSYDIR
 10
0.0
 20
1.0
 30
0.0
  9
$PUCSNAME
  2

  9
$PUCSORG
 10
0.0
 20
0.0
 30
0.0
  9
$PUCSXDIR
 10
1.0
 20
0.0
 30
0.0
  9
$PUCSYDIR
 10
0.0
 20
1.0
 30
0.0
  9
$USERI1
 70
     0
  9
$USERI2
 70
     0
  9
$USERI3
 70
     0
  9
$USERI4
 70
     0
  9
$USERI5
 70
     0
  9
$USERR1
 40
20.0
  9
$USERR2
 40
0.0
  9
$USERR3
 40
0.0
  9
$USERR4
 40
0.0
  9
$USERR5
 40
0.0
  9
$WORLDVIEW
 70
     1
  9
$SHADEDGE
 70
     3
  9
$SHADEDIF
 70
    70
  9
$TILEMODE
 70
     1
  9
$MAXACTVP
 70
    64
  9
$PLIMCHECK
 70
     0
  9
$PEXTMIN
 10
1.0000000000000000E+020
 20
1.0000000000000000E+020
 30
1.0000000000000000E+020
  9
$PEXTMAX
 10
-1.0000000000000000E+020
 20
-1.0000000000000000E+020
 30
-1.0000000000000000E+020
  9
$PLIMMIN
 10
0.0
 20
0.0
  9
$PLIMMAX
 10
12.0
 20
9.0
  9
$UNITMODE
 70
     0
  9
$VISRETAIN
 70
     1
  9
$PLINEGEN
 70
     0
  9
$PSLTSCALE
 70
     1
  0
ENDSEC
  0
SECTION
  2
TABLES
  0
TABLE
  2
VPORT
 70
     3
  0
VPORT
  2
*ACTIVE
 70
     0
 10
0.0
 20
0.0
 11
1.0
 21
1.0
 12
109.67893436380081
 22
-24.679692667940571
 13
0.0
 23
0.0
 14
1.0
 24
1.0
 15
0.0
 25
0.0
 16
0.0
 26
0.0
 36
1.0
 17
0.0
 27
0.0
 37
0.0
 40
1595.239292035518
 41
1.4423558897243101
 42
50.0
 43
0.0
 44
0.0
 50
0.0
 51
0.0
 71
     0
 72
   100
 73
     1
 74
     0
 75
     0
 76
     0
 77
     0
 78
     0
  0
ENDTAB
  0
TABLE
  2
LTYPE
 70
     2
  0
LTYPE
  2
CONTINUOUS
 70
     0
  3
実線
 72
    65
 73
     0
 40
0.0
  0
LTYPE
  2
DASHDOT
 70
     0
  3
____ _ ____ _ ____ _ ____ _ ____ _ ____ _ ____
 72
    65
 73
     4
 40
5.5
 49
4.0
 49
-0.6
 49
0.3
 49
-0.6
  0
ENDTAB
  0
TABLE
  2
LAYER
 70
    12
  0
LAYER
  2
0
 70
     0
 62
     7
  6
CONTINUOUS
  0
LAYER
  2
FIX
 70
     0
 62
    11
  6
CONTINUOUS
  0
LAYER
  2
SIZE
 70
     0
 62
    30
  6
CONTINUOUS
  0
LAYER
  2
BASIS
 70
     0
 62
     6
  6
DASHDOT
  0
LAYER
  2
OUTLINE
 70
     0
 62
     3
  6
CONTINUOUS
  0
LAYER
  2
DETAIL
 70
     0
 62
     5
  6
CONTINUOUS
  0
LAYER
  2
ARRANGE
 70
     0
 62
     1
  6
CONTINUOUS
  0
LAYER
  2
DEFPOINTS
 70
     0
 62
     7
  6
CONTINUOUS
  0
LAYER
  2
ETC
 70
     0
 62
    61
  6
CONTINUOUS
  0
LAYER
  2
NOTE
 70
     0
 62
     4
  6
CONTINUOUS
  0
LAYER
  2
SERVICESPACE
 70
     0
 62
     2
  6
DASHDOT
  0
LAYER
  2
SYMBOLLINE
 70
     0
 62
    15
  6
CONTINUOUS
  0
ENDTAB
  0
TABLE
  2
STYLE
 70
     1
  0
STYLE
  2
STANDARD
 70
     0
 40
64.0
 41
0.9
 50
0.0
 71
     0
 42
64.0
  3
SIMPLEX.shx
  4
BIGFONT.shx
  0
ENDTAB
  0
TABLE
  2
VIEW
 70
     1
  0
VIEW
  2
ALL
 70
     0
 40
4282.6198079999976
 10
0.0
 20
41.309903999999989
 41
5940.0
 11
0.0
 21
0.0
 31
1.0
 12
0.0
 22
0.0
 32
0.0
 42
50.0
 43
0.0
 44
0.0
 50
0.0
 71
     0
  0
ENDTAB
  0
TABLE
  2
UCS
 70
     0
  0
ENDTAB
  0
TABLE
  2
APPID
 70
     1
  0
APPID
  2
ACAD
 70
     0
  0
ENDTAB
  0
TABLE
  2
DIMSTYLE
 70
     1
  0
DIMSTYLE
  2
STANDARD
 70
     0
  3

  4

  5

  6

  7

 40
1.0
 41
0.18
 42
0.0625
 43
0.38
 44
0.18
 45
0.0
 46
0.0
 47
0.0
 48
0.0
140
0.18
141
0.09
142
0.0
143
25.399999999999999
144
1.0
145
0.0
146
1.0
147
0.09
 71
     0
 72
     0
 73
     1
 74
     1
 75
     0
 76
     0
 77
     0
 78
     0
170
     0
171
     2
172
     0
173
     0
174
     0
175
     0
176
     0
177
     0
178
     0
  0
ENDTAB
  0
ENDSEC
  0
SECTION
  2
BLOCKS
  0
BLOCK
  8
0
  2
$MODEL_SPACE
 70
     0
 10
0.0
 20
0.0
 30
0.0
  3
$MODEL_SPACE
  1

  0
ENDBLK
  5
16F
  8
0
  0
BLOCK
 67
     1
  8
0
  2
$PAPER_SPACE
 70
     0
 10
0.0
 20
0.0
 30
0.0
  3
$PAPER_SPACE
  1

  0
ENDBLK
  5
16B
 67
     1
  8
0
  0
BLOCK
  8
0
  2
DOT1
 70
     0
 10
0.0
 20
0.0
 30
0.0
  3
DOT1
  1

  0
CIRCLE
  5
18A
  8
SIZE
  6
CONTINUOUS
 62
     7
 10
0.0
 20
0.0
 30
0.0
 40
3.0
  0
ENDBLK
  5
18B
  8
0
  0
BLOCK
  8
0
  2
_ORIGIN
 70
     0
 10
0.0
 20
0.0
 30
0.0
  3
_ORIGIN
  1

  0
CIRCLE
  5
18E
  8
0
  6
CONTINUOUS
 62
     7
 10
0.0
 20
0.0
 30
0.0
 40
0.5
  0
LINE
  5
18F
  8
0
  6
CONTINUOUS
 62
     7
 10
0.0
 20
0.0
 30
0.0
 11
-1.0
 21
0.0
 31
0.0
  0
ENDBLK
  5
190
  8
0
  0
ENDSEC
  0
SECTION
  2
ENTITIES
  0
LINE
  5
191
  8
BASIS
  6
DASHDOT
 62
     6
 10
0.0
 20
306.55146999999999
 30
0.0
 11
0.0
 21
-343.584474
 31
0.0
  0
POINT
  5
192
  8
ARRANGE
  6
CONTINUOUS
 62
     1
 10
0.0
 20
0.0
 30
0.0
  0
CIRCLE
  5
193
  8
ARRANGE
  6
CONTINUOUS
 62
     1
 10
0.0
 20
0.0
 30
0.0
 40
54.482759999999992
  0
LINE
  5
194
  8
BASIS
  6
DASHDOT
 62
     6
 10
-322.89668
 20
0.0
 30
0.0
 11
323.19376199999999
 21
0.0
 31
0.0
  0
LINE
  5
195
  8
SIZE
  6
CONTINUOUS
 62
    30
 10
242.0
 20
258.0
 30
0.0
 11
242.0
 21
587.47904600000004
 31
0.0
  0
LINE
  5
196
  8
SIZE
  6
CONTINUOUS
 62
    30
 10
-242.0
 20
257.0
 30
0.0
 11
-242.0
 21
587.47904600000004
 31
0.0
  0
LINE
  5
197
  8
SIZE
  6
CONTINUOUS
 62
    30
 10
230.0
 20
567.47904600000004
 30
0.0
 11
-230.0
 21
567.47904600000004
 31
0.0
  0
CIRCLE
  5
198
  8
SIZE
  6
CONTINUOUS
 62
    30
 10
242.0
 20
567.47904600000004
 30
0.0
 40
6.0
  0
LINE
  5
199
  8
SIZE
  6
CONTINUOUS
 62
    30
 10
242.0
 20
567.47904600000004
 30
0.0
 11
230.0
 21
567.47904600000004
 31
0.0
  0
CIRCLE
  5
19A
  8
SIZE
  6
CONTINUOUS
 62
    30
 10
-242.0
 20
567.47904600000004
 30
0.0
 40
6.0
  0
LINE
  5
19B
  8
SIZE
  6
CONTINUOUS
 62
    30
 10
-242.0
 20
567.47904600000004
 30
0.0
 11
-230.0
 21
567.47904600000004
 31
0.0
  0
TEXT
  5
19C
  8
SIZE
  6
CONTINUOUS
 62
    30
 10
-75.428571428571416
 20
592.47904600000004
 30
0.0
 40
64.0
  1
484
 41
0.9
 72
     1
 11
0.0
 21
592.47904600000004
 31
0.0
  0
POINT
  5
19D
  8
DEFPOINTS
  6
CONTINUOUS
 62
    30
 10
-242.0
 20
567.47904600000004
 30
0.0
  0
LINE
  5
19E
  8
SIZE
  6
CONTINUOUS
 62
    30
 10
258.0
 20
239.5
 30
0.0
 11
622.40956900000003
 21
239.5
 31
0.0
  0
LINE
  5
19F
  8
SIZE
  6
CONTINUOUS
 62
    30
 10
258.0
 20
-239.5
 30
0.0
 11
622.40956900000003
 21
-239.5
 31
0.0
  0
LINE
  5
1A0
  8
SIZE
  6
CONTINUOUS
 62
    30
 10
602.40956900000003
 20
227.49999999999989
 30
0.0
 11
602.40956900000003
 21
-227.49999999999989
 31
0.0
  0
CIRCLE
  5
1A1
  8
SIZE
  6
CONTINUOUS
 62
    30
 10
602.40956900000003
 20
239.5
 30
0.0
 40
6.0
  0
LINE
  5
1A2
  8
SIZE
  6
CONTINUOUS
 62
    30
 10
602.40956900000003
 20
239.5
 30
0.0
 11
602.40956900000003
 21
227.49999999999989
 31
0.0
  0
CIRCLE
  5
1A3
  8
SIZE
  6
CONTINUOUS
 62
    30
 10
602.40956900000003
 20
-239.5
 30
0.0
 40
6.0
  0
LINE
  5
1A4
  8
SIZE
  6
CONTINUOUS
 62
    30
 10
602.40956900000003
 20
-239.5
 30
0.0
 11
602.40956900000003
 21
-227.49999999999989
 31
0.0
  0
TEXT
  5
1A5
  8
SIZE
  6
CONTINUOUS
 62
    30
 10
577.40956900000003
 20
-72.685714285714283
 30
0.0
 40
64.0
  1
479
 50
90.0
 41
0.9
 72
     1
 11
577.40956900000003
 21
0.0
 31
0.0
  0
POINT
  5
1A6
  8
DEFPOINTS
  6
CONTINUOUS
 62
    30
 10
602.40956900000003
 20
-239.5
 30
0.0
  0
LINE
  5
1A7
  8
DETAIL
  6
CONTINUOUS
 62
     5
 10
-189.4999999999998
 20
-278.5
 30
0.0
 11
189.4999999999998
 21
-278.5
 31
0.0
  0
LINE
  5
1A8
  8
DETAIL
  6
CONTINUOUS
 62
     5
 10
-204.49999999999989
 20
-244.50500099999991
 30
0.0
 11
-204.49999999999989
 21
-263.5
 31
0.0
  0
LINE
  5
1A9
  8
DETAIL
  6
CONTINUOUS
 62
     5
 10
204.49999999999989
 20
-244.50500099999991
 30
0.0
 11
204.49999999999989
 21
-263.5
 31
0.0
  0
LINE
  5
1AA
  8
DETAIL
  6
CONTINUOUS
 62
     5
 10
-220.0
 20
-239.5
 30
0.0
 11
-220.0
 21
-244.50500099999991
 31
0.0
  0
LINE
  5
1AB
  8
DETAIL
  6
CONTINUOUS
 62
     5
 10
220.0
 20
-239.5
 30
0.0
 11
220.0
 21
-244.50500099999991
 31
0.0
  0
LINE
  5
1AC
  8
DETAIL
  6
CONTINUOUS
 62
     5
 10
-220.0
 20
-244.50500099999991
 30
0.0
 11
220.0
 21
-244.50500099999991
 31
0.0
  0
ARC
  5
1AD
  8
DETAIL
  6
CONTINUOUS
 62
     5
 10
-189.4999999999998
 20
-263.5
 30
0.0
 40
15.0
 50
180.0
 51
270.0
  0
ARC
  5
1AE
  8
DETAIL
  6
CONTINUOUS
 62
     5
 10
189.4999999999998
 20
-263.5
 30
0.0
 40
15.0
 50
270.0
 51
0.0
  0
LINE
  5
1AF
  8
SIZE
  6
CONTINUOUS
 62
    30
 10
258.0
 20
-239.5
 30
0.0
 11
622.40956900000003
 21
-239.5
 31
0.0
  0
LINE
  5
1B0
  8
SIZE
  6
CONTINUOUS
 62
    30
 10
209.5
 20
-278.5
 30
0.0
 11
622.40956900000003
 21
-278.5
 31
0.0
  0
LINE
  5
1B1
  8
SIZE
  6
CONTINUOUS
 62
    30
 10
602.40956900000003
 20
-227.49999999999989
 30
0.0
 11
602.40956900000003
 21
-215.5
 31
0.0
  0
LINE
  5
1B2
  8
SIZE
  6
CONTINUOUS
 62
    30
 10
602.40956900000003
 20
-290.5
 30
0.0
 11
602.40956900000003
 21
-302.49999999999989
 31
0.0
  0
LINE
  5
1B3
  8
SIZE
  6
CONTINUOUS
 62
    30
 10
602.40956900000003
 20
-458.240679
 30
0.0
 11
602.40956900000003
 21
-278.5
 31
0.0
  0
TEXT
  5
1B4
  8
SIZE
  6
CONTINUOUS
 62
    30
 10
577.40956900000003
 20
-433.24067885714288
 30
0.0
 40
64.0
  1
39
 50
90.0
 41
0.9
 72
     1
 11
577.40956900000003
 21
-387.98353600000002
 31
0.0
  0
LINE
  5
1B5
  8
SIZE
  6
CONTINUOUS
 62
    30
 10
602.40956900000003
 20
-239.5
 30
0.0
 11
602.40956900000003
 21
-278.5
 31
0.0
  0
LINE
  5
1B6
  8
SIZE
  6
CONTINUOUS
 62
    30
 10
602.40956900000003
 20
-239.5
 30
0.0
 11
602.40956900000003
 21
-278.5
 31
0.0
  0
CIRCLE
  5
1B7
  8
SIZE
  6
CONTINUOUS
 62
    30
 10
602.40956900000003
 20
-239.5
 30
0.0
 40
6.0
  0
LINE
  5
1B8
  8
SIZE
  6
CONTINUOUS
 62
    30
 10
602.40956900000003
 20
-239.5
 30
0.0
 11
602.40956900000003
 21
-227.49999999999989
 31
0.0
  0
CIRCLE
  5
1B9
  8
SIZE
  6
CONTINUOUS
 62
    30
 10
602.40956900000003
 20
-278.5
 30
0.0
 40
6.0
  0
LINE
  5
1BA
  8
SIZE
  6
CONTINUOUS
 62
    30
 10
602.40956900000003
 20
-278.5
 30
0.0
 11
602.40956900000003
 21
-290.5
 31
0.0
  0
POINT
  5
1BB
  8
DEFPOINTS
  6
CONTINUOUS
 62
    30
 10
602.40956900000003
 20
-278.5
 30
0.0
  0
LINE
  5
1BC
  8
SIZE
  6
CONTINUOUS
 62
    30
 10
204.49999999999989
 20
-283.49999999999989
 30
0.0
 11
204.49999999999989
 21
-492.26190399999979
 31
0.0
  0
LINE
  5
1BD
  8
SIZE
  6
CONTINUOUS
 62
    30
 10
-204.49999999999989
 20
-287.00500099999988
 30
0.0
 11
-204.49999999999989
 21
-492.26190399999979
 31
0.0
  0
LINE
  5
1BE
  8
SIZE
  6
CONTINUOUS
 62
    30
 10
192.5
 20
-472.26190400000002
 30
0.0
 11
-192.5
 21
-472.26190400000002
 31
0.0
  0
CIRCLE
  5
1BF
  8
SIZE
  6
CONTINUOUS
 62
    30
 10
204.49999999999989
 20
-472.26190400000002
 30
0.0
 40
6.0
  0
LINE
  5
1C0
  8
SIZE
  6
CONTINUOUS
 62
    30
 10
204.49999999999989
 20
-472.26190400000002
 30
0.0
 11
192.5
 21
-472.26190400000002
 31
0.0
  0
CIRCLE
  5
1C1
  8
SIZE
  6
CONTINUOUS
 62
    30
 10
-204.49999999999989
 20
-472.26190400000002
 30
0.0
 40
6.0
  0
LINE
  5
1C2
  8
SIZE
  6
CONTINUOUS
 62
    30
 10
-204.49999999999989
 20
-472.26190400000002
 30
0.0
 11
-192.5
 21
-472.26190400000002
 31
0.0
  0
TEXT
  5
1C3
  8
SIZE
  6
CONTINUOUS
 62
    30
 10
-72.685714285714283
 20
-447.26190400000002
 30
0.0
 40
64.0
  1
409
 41
0.9
 72
     1
 11
0.0
 21
-447.26190400000002
 31
0.0
  0
POINT
  5
1C4
  8
DEFPOINTS
  6
CONTINUOUS
 62
    30
 10
-204.49999999999989
 20
-472.26190400000002
 30
0.0
  0
LINE
  5
1C5
  8
DETAIL
  6
CONTINUOUS
 62
     5
 10
-238.0
 20
239.5
 30
0.0
 11
238.0
 21
239.5
 31
0.0
  0
LINE
  5
1C6
  8
DETAIL
  6
CONTINUOUS
 62
     5
 10
-242.0
 20
235.49999999999989
 30
0.0
 11
-242.0
 21
-235.49999999999989
 31
0.0
  0
LINE
  5
1C7
  8
DETAIL
  6
CONTINUOUS
 62
     5
 10
242.0
 20
235.49999999999989
 30
0.0
 11
242.0
 21
-235.49999999999989
 31
0.0
  0
ARC
  5
1C8
  8
DETAIL
  6
CONTINUOUS
 62
     5
 10
-238.0
 20
235.49999999999989
 30
0.0
 40
4.0
 50
90.0
 51
180.0
  0
ARC
  5
1C9
  8
DETAIL
  6
CONTINUOUS
 62
     5
 10
238.0
 20
235.49999999999989
 30
0.0
 40
4.0
 50
0.0
 51
90.0
  0
LINE
  5
1CA
  8
DETAIL
  6
CONTINUOUS
 62
     5
 10
-238.0
 20
-239.5
 30
0.0
 11
238.0
 21
-239.5
 31
0.0
  0
ARC
  5
1CB
  8
DETAIL
  6
CONTINUOUS
 62
     5
 10
-238.0
 20
-235.49999999999989
 30
0.0
 40
4.0
 50
180.0
 51
270.0
  0
ARC
  5
1CC
  8
DETAIL
  6
CONTINUOUS
 62
     5
 10
238.0
 20
-235.49999999999989
 30
0.0
 40
4.0
 50
270.0
 51
0.0
  0
LINE
  5
1CD
  8
OUTLINE
  6
CONTINUOUS
 62
     3
 10
-189.4999999999998
 20
-278.5
 30
0.0
 11
189.4999999999998
 21
-278.5
 31
0.0
  0
LINE
  5
1CE
  8
OUTLINE
  6
CONTINUOUS
 62
     3
 10
-238.0
 20
-239.5
 30
0.0
 11
238.0
 21
-239.5
 31
0.0
  0
LINE
  5
1CF
  8
OUTLINE
  6
CONTINUOUS
 62
     3
 10
-220.0
 20
-244.50500099999991
 30
0.0
 11
220.0
 21
-244.50500099999991
 31
0.0
  0
LINE
  5
1D0
  8
OUTLINE
  6
CONTINUOUS
 62
     3
 10
-238.0
 20
239.5
 30
0.0
 11
238.0
 21
239.5
 31
0.0
  0
LINE
  5
1D1
  8
OUTLINE
  6
CONTINUOUS
 62
     3
 10
-242.0
 20
235.49999999999989
 30
0.0
 11
-242.0
 21
-235.49999999999989
 31
0.0
  0
ARC
  5
1D2
  8
OUTLINE
  6
CONTINUOUS
 62
     3
 10
-238.0
 20
-235.49999999999989
 30
0.0
 40
4.0
 50
180.0
 51
270.0
  0
LINE
  5
1D3
  8
OUTLINE
  6
CONTINUOUS
 62
     3
 10
-204.49999999999989
 20
-244.50500099999991
 30
0.0
 11
-204.49999999999989
 21
-263.5
 31
0.0
  0
ARC
  5
1D4
  8
OUTLINE
  6
CONTINUOUS
 62
     3
 10
-189.4999999999998
 20
-263.5
 30
0.0
 40
15.0
 50
180.0
 51
270.0
  0
LINE
  5
1D5
  8
OUTLINE
  6
CONTINUOUS
 62
     3
 10
-220.0
 20
-239.5
 30
0.0
 11
-220.0
 21
-244.50500099999991
 31
0.0
  0
ARC
  5
1D6
  8
OUTLINE
  6
CONTINUOUS
 62
     3
 10
-238.0
 20
235.49999999999989
 30
0.0
 40
4.0
 50
90.0
 51
180.0
  0
LINE
  5
1D7
  8
OUTLINE
  6
CONTINUOUS
 62
     3
 10
242.0
 20
235.49999999999989
 30
0.0
 11
242.0
 21
-235.49999999999989
 31
0.0
  0
LINE
  5
1D8
  8
OUTLINE
  6
CONTINUOUS
 62
     3
 10
204.49999999999989
 20
-244.50500099999991
 30
0.0
 11
204.49999999999989
 21
-263.5
 31
0.0
  0
ARC
  5
1D9
  8
OUTLINE
  6
CONTINUOUS
 62
     3
 10
189.4999999999998
 20
-263.5
 30
0.0
 40
15.0
 50
270.0
 51
0.0
  0
LINE
  5
1DA
  8
OUTLINE
  6
CONTINUOUS
 62
     3
 10
220.0
 20
-239.5
 30
0.0
 11
220.0
 21
-244.50500099999991
 31
0.0
  0
ARC
  5
1DB
  8
OUTLINE
  6
CONTINUOUS
 62
     3
 10
238.0
 20
-235.49999999999989
 30
0.0
 40
4.0
 50
270.0
 51
0.0
  0
ARC
  5
1DC
  8
OUTLINE
  6
CONTINUOUS
 62
     3
 10
238.0
 20
235.49999999999989
 30
0.0
 40
4.0
 50
0.0
 51
90.0
  0
LINE
  5
1DD
  8
DETAIL
  6
CONTINUOUS
 62
     5
 10
-197.5
 20
197.5
 30
0.0
 11
197.5
 21
197.5
 31
0.0
  0
LINE
  5
1DE
  8
DETAIL
  6
CONTINUOUS
 62
     5
 10
-197.5
 20
-197.5
 30
0.0
 11
197.5
 21
-197.5
 31
0.0
  0
LINE
  5
1DF
  8
DETAIL
  6
CONTINUOUS
 62
     5
 10
-197.5
 20
197.5
 30
0.0
 11
-197.5
 21
-197.5
 31
0.0
  0
LINE
  5
1E0
  8
DETAIL
  6
CONTINUOUS
 62
     5
 10
197.5
 20
197.5
 30
0.0
 11
197.5
 21
-197.5
 31
0.0
  0
ARC
  5
1E1
  8
DETAIL
  6
CONTINUOUS
 62
     5
 10
0.0
 20
0.122334
 30
0.0
 40
57.768749999999997
 50
270.0
 51
90.0
  0
ARC
  5
1E2
  8
DETAIL
  6
CONTINUOUS
 62
     5
 10
0.0
 20
0.122334
 30
0.0
 40
57.768749999999997
 50
90.0
 51
270.0
  0
ARC
  5
1E3
  8
DETAIL
  6
CONTINUOUS
 62
     5
 10
-52.198215999999988
 20
105.165857
 30
0.0
 40
142.72279299999991
 50
212.483071
 51
273.29643700000003
  0
ARC
  5
1E4
  8
DETAIL
  6
CONTINUOUS
 62
     5
 10
0.0
 20
0.122334
 30
0.0
 40
176.70441099999999
 50
299.36458699999991
 51
49.129080000000002
  0
ARC
  5
1E5
  8
DETAIL
  6
CONTINUOUS
 62
     5
 10
-1.7933680000000001
 20
131.1843019999998
 30
0.0
 40
205.22609700000001
 50
217.67533999999989
 51
248.20323099999999
  0
ARC
  5
1E6
  8
DETAIL
  6
CONTINUOUS
 62
     5
 10
0.0
 20
0.122334
 30
0.0
 40
176.70441099999999
 50
179.3645869999998
 51
270.0
  0
CIRCLE
  5
1E7
  8
DETAIL
  6
CONTINUOUS
 62
     5
 10
0.0
 20
0.0
 30
0.0
 40
182.14147
  0
ARC
  5
1E8
  8
DETAIL
  6
CONTINUOUS
 62
     5
 10
25.985582999999998
 20
-68.161606000000006
 30
0.0
 40
44.040176000000002
 50
29.169761999999999
 51
58.589796
  0
ARC
  5
1E9
  8
DETAIL
  6
CONTINUOUS
 62
     5
 10
65.021690000000007
 20
-24.438811000000001
 30
0.0
 40
12.233382000000001
 50
45.093691999999997
 51
155.67926499999999
  0
ARC
  5
1EA
  8
DETAIL
  6
CONTINUOUS
 62
     5
 10
0.612629
 20
4.671059999999998
 30
0.0
 40
58.448381999999981
 50
334.25139200000001
 51
335.62413800000002
  0
ARC
  5
1EB
  8
DETAIL
  6
CONTINUOUS
 62
     5
 10
0.0
 20
0.122334
 30
0.0
 40
176.70441099999999
 50
270.0
 51
289.12907999999987
  0
ARC
  5
1EC
  8
DETAIL
  6
CONTINUOUS
 62
     5
 10
-43.520857999999997
 20
-50.629435000000001
 30
0.0
 40
9.5148530000000004
 50
21.977142999999991
 51
57.865797000000001
  0
ARC
  5
1ED
  8
DETAIL
  6
CONTINUOUS
 62
     5
 10
-45.362349999999999
 20
-53.271892000000001
 30
0.0
 40
12.233382000000001
 50
272.81944299999992
 51
23.405017000000001
  0
ARC
  5
1EE
  8
DETAIL
  6
CONTINUOUS
 62
     5
 10
19.503707999999989
 20
-25.195098999999999
 30
0.0
 40
58.448381999999981
 50
201.97714300000001
 51
203.34988999999999
  0
ARC
  5
1EF
  8
DETAIL
  6
CONTINUOUS
 62
     5
 10
-48.518163999999999
 20
10.80773999999999
 30
0.0
 40
76.390675999999999
 50
265.92361399999982
 51
272.81944299999992
  0
ARC
  5
1F0
  8
DETAIL
  6
CONTINUOUS
 62
     5
 10
-40.269740999999989
 20
40.295128999999989
 30
0.0
 40
106.5663519999999
 50
249.26624200000001
 51
262.62522100000001
  0
ARC
  5
1F1
  8
DETAIL
  6
CONTINUOUS
 62
     5
 10
-36.794744999999992
 20
-100.410566
 30
0.0
 40
114.7219409999999
 50
2.200695999999998
 51
17.978909999999999
  0
ARC
  5
1F2
  8
DETAIL
  6
CONTINUOUS
 62
     5
 10
-66.729416999999984
 20
-72.985354000000001
 30
0.0
 40
160.93693999999999
 50
333.45117399999992
 51
7.952980000000001
  0
ARC
  5
1F3
  8
DETAIL
  6
CONTINUOUS
 62
     5
 10
55.678449000000001
 20
-160.4038899999999
 30
0.0
 40
6.7963229999999992
 50
289.12907999999987
 51
332.483071
  0
ARC
  5
1F4
  8
DETAIL
  6
CONTINUOUS
 62
     5
 10
83.317012000000005
 20
-147.95546200000001
 30
0.0
 40
6.7963229999999992
 50
153.45117400000001
 51
299.36458699999991
  0
ARC
  5
1F5
  8
DETAIL
  6
CONTINUOUS
 62
     5
 10
-64.871251999999998
 20
-97.604408999999976
 30
0.0
 40
142.72279299999991
 50
332.483071
 51
0.6419930000000002
  0
ARC
  5
1F6
  8
DETAIL
  6
CONTINUOUS
 62
     5
 10
-21.03170299999999
 20
-94.366731000000001
 30
0.0
 40
97.867058
 50
17.461845999999991
 51
29.149623999999999
  0
ARC
  5
1F7
  8
DETAIL
  6
CONTINUOUS
 62
     5
 10
-7.6373800000000003
 20
-83.611285999999978
 30
0.0
 40
106.5663519999999
 50
21.540490999999989
 51
34.899470000000001
  0
ARC
  5
1F8
  8
DETAIL
  6
CONTINUOUS
 62
     5
 10
19.729876999999998
 20
-69.878992000000011
 30
0.0
 40
76.390675999999999
 50
38.197862999999998
 51
45.093691999999997
  0
ARC
  5
1F9
  8
DETAIL
  6
CONTINUOUS
 62
     5
 10
78.842887000000005
 20
-49.475183999999992
 30
0.0
 40
13.592646999999991
 50
6.9156289999999991
 51
21.540490999999989
  0
ARC
  5
1FA
  8
DETAIL
  6
CONTINUOUS
 62
     5
 10
-67.429407999999995
 20
-67.216562999999994
 30
0.0
 40
160.93693999999999
 50
5.8840339999999989
 51
6.9156289999999991
  0
ARC
  5
1FB
  8
DETAIL
  6
CONTINUOUS
 62
     5
 10
117.0694679999999
 20
-7.1944470000000003
 30
0.0
 40
142.72279299999991
 50
92.48307100000001
 51
120.641993
  0
ARC
  5
1FC
  8
DETAIL
  6
CONTINUOUS
 62
     5
 10
0.0
 20
0.122334
 30
0.0
 40
176.70441099999999
 50
59.364587000000007
 51
90.0
  0
ARC
  5
1FD
  8
DETAIL
  6
CONTINUOUS
 62
     5
 10
96.677824000000001
 20
-21.113192000000002
 30
0.0
 40
160.93693999999999
 50
93.451173999999995
 51
126.921385
  0
ARC
  5
1FE
  8
DETAIL
  6
CONTINUOUS
 62
     5
 10
0.0
 20
0.122334
 30
0.0
 40
176.70441099999999
 50
90.0
 51
169.1290799999999
  0
ARC
  5
1FF
  8
DETAIL
  6
CONTINUOUS
 62
     5
 10
-169.897639
 20
2.006583
 30
0.0
 40
6.7963229999999992
 50
33.451174000000002
 51
179.3645869999998
  0
ARC
  5
200
  8
DETAIL
  6
CONTINUOUS
 62
     5
 10
-166.85901200000001
 20
32.166494
 30
0.0
 40
6.7963229999999992
 50
169.1290799999999
 51
212.483071
  0
ARC
  5
201
  8
DETAIL
  6
CONTINUOUS
 62
     5
 10
105.461417
 20
18.523599000000001
 30
0.0
 40
114.7219409999999
 50
122.20069599999979
 51
137.97891000000001
  0
ARC
  5
202
  8
DETAIL
  6
CONTINUOUS
 62
     5
 10
79.89676
 20
38.571559000000001
 30
0.0
 40
106.5663519999999
 50
142.577842
 51
155.93682100000001
  0
ARC
  5
203
  8
DETAIL
  6
CONTINUOUS
 62
     5
 10
92.345781999999986
 20
29.152877
 30
0.0
 40
97.867058
 50
137.46184600000001
 51
149.1496239999999
  0
ARC
  5
204
  8
DETAIL
  6
CONTINUOUS
 62
     5
 10
-8.2668520000000001
 20
70.318993000000006
 30
0.0
 40
12.233382000000001
 50
166.13104300000001
 51
276.71661699999993
  0
ARC
  5
205
  8
DETAIL
  6
CONTINUOUS
 62
     5
 10
54.020031999999993
 20
54.940356999999992
 30
0.0
 40
76.390675999999999
 50
159.23521400000001
 51
166.13104300000001
  0
ARC
  5
206
  8
DETAIL
  6
CONTINUOUS
 62
     5
 10
0.0
 20
0.122334
 30
0.0
 40
58.448381999999981
 50
95.288743000000025
 51
96.661490000000001
  0
ARC
  5
207
  8
DETAIL
  6
CONTINUOUS
 62
     5
 10
-6.2645090000000003
 20
67.796237000000005
 30
0.0
 40
9.5148530000000004
 50
311.17739699999993
 51
348.11696000000001
  0
ARC
  5
208
  8
DETAIL
  6
CONTINUOUS
 62
     5
 10
46.142834999999991
 20
56.768479000000013
 30
0.0
 40
44.040176000000002
 50
149.16976199999991
 51
168.11696000000001
  0
ARC
  5
209
  8
DETAIL
  6
CONTINUOUS
 62
     5
 10
-6.2645090000000003
 20
67.796237000000005
 30
0.0
 40
9.5148530000000004
 50
275.28874300000001
 51
311.17739699999993
  0
ARC
  5
20A
  8
DETAIL
  6
CONTINUOUS
 62
     5
 10
6.0589329999999988
 20
95.070100999999994
 30
0.0
 40
13.592646999999991
 50
127.95298
 51
142.577842
  0
ARC
  5
20B
  8
DETAIL
  6
CONTINUOUS
 62
     5
 10
96.677824000000001
 20
-21.113192000000002
 30
0.0
 40
160.93693999999999
 50
126.921385
 51
127.95298
  0
ARC
  5
20C
  8
DETAIL
  6
CONTINUOUS
 62
     5
 10
111.18056299999991
 20
128.60439700000001
 30
0.0
 40
6.7963229999999992
 50
49.129080000000002
 51
92.48307100000001
  0
ARC
  5
20D
  8
DETAIL
  6
CONTINUOUS
 62
     5
 10
86.580628000000004
 20
146.31587999999991
 30
0.0
 40
6.7963229999999992
 50
273.45117399999992
 51
59.364587000000007
  0
LINE
  5
20E
  8
SIZE
  6
CONTINUOUS
 62
    30
 10
197.5
 20
217.5
 30
0.0
 11
197.5
 21
356.14119499999998
 31
0.0
  0
LINE
  5
20F
  8
SIZE
  6
CONTINUOUS
 62
    30
 10
-197.5
 20
217.5
 30
0.0
 11
-197.5
 21
356.14119499999998
 31
0.0
  0
LINE
  5
210
  8
SIZE
  6
CONTINUOUS
 62
    30
 10
185.5
 20
336.14119499999993
 30
0.0
 11
-185.5
 21
336.14119499999993
 31
0.0
  0
CIRCLE
  5
211
  8
SIZE
  6
CONTINUOUS
 62
    30
 10
197.5
 20
336.14119499999993
 30
0.0
 40
6.0
  0
LINE
  5
212
  8
SIZE
  6
CONTINUOUS
 62
    30
 10
197.5
 20
336.14119499999993
 30
0.0
 11
185.5
 21
336.14119499999993
 31
0.0
  0
CIRCLE
  5
213
  8
SIZE
  6
CONTINUOUS
 62
    30
 10
-197.5
 20
336.14119499999993
 30
0.0
 40
6.0
  0
LINE
  5
214
  8
SIZE
  6
CONTINUOUS
 62
    30
 10
-197.5
 20
336.14119499999993
 30
0.0
 11
-185.5
 21
336.14119499999993
 31
0.0
  0
TEXT
  5
215
  8
SIZE
  6
CONTINUOUS
 62
    30
 10
-110.5371428571428
 20
361.14119499999993
 30
0.0
 40
64.0
  1
□395
 41
0.9
 72
     1
 11
0.0
 21
361.14119499999993
 31
0.0
  0
POINT
  5
216
  8
DEFPOINTS
  6
CONTINUOUS
 62
    30
 10
-197.5
 20
336.14119499999993
 30
0.0
  0
CIRCLE
  5
217
  8
DETAIL
  6
CONTINUOUS
 62
     5
 10
-217.5
 20
217.5
 30
0.0
 40
5.0
  0
LINE
  5
218
  8
NOTE
  6
CONTINUOUS
 62
     4
 10
-217.5
 20
197.5
 30
0.0
 11
-217.5
 21
237.5
 31
0.0
  0
LINE
  5
219
  8
NOTE
  6
CONTINUOUS
 62
     4
 10
-237.5
 20
217.5
 30
0.0
 11
-197.5
 21
217.5
 31
0.0
  0
CIRCLE
  5
21A
  8
DETAIL
  6
CONTINUOUS
 62
     5
 10
217.5
 20
217.5
 30
0.0
 40
5.0
  0
LINE
  5
21B
  8
NOTE
  6
CONTINUOUS
 62
     4
 10
217.5
 20
197.5
 30
0.0
 11
217.5
 21
237.5
 31
0.0
  0
LINE
  5
21C
  8
NOTE
  6
CONTINUOUS
 62
     4
 10
237.5
 20
217.5
 30
0.0
 11
197.5
 21
217.5
 31
0.0
  0
CIRCLE
  5
21D
  8
DETAIL
  6
CONTINUOUS
 62
     5
 10
-217.5
 20
-217.5
 30
0.0
 40
5.0
  0
CIRCLE
  5
21E
  8
DETAIL
  6
CONTINUOUS
 62
     5
 10
217.5
 20
-217.5
 30
0.0
 40
5.0
  0
LINE
  5
21F
  8
NOTE
  6
CONTINUOUS
 62
     4
 10
217.5
 20
-197.5
 30
0.0
 11
217.5
 21
-237.5
 31
0.0
  0
LINE
  5
220
  8
NOTE
  6
CONTINUOUS
 62
     4
 10
237.5
 20
-217.5
 30
0.0
 11
197.5
 21
-217.5
 31
0.0
  0
LINE
  5
221
  8
NOTE
  6
CONTINUOUS
 62
     4
 10
-217.5
 20
-197.5
 30
0.0
 11
-217.5
 21
-237.5
 31
0.0
  0
LINE
  5
222
  8
NOTE
  6
CONTINUOUS
 62
     4
 10
-237.5
 20
-217.5
 30
0.0
 11
-197.5
 21
-217.5
 31
0.0
  0
LINE
  5
223
  8
SIZE
  6
CONTINUOUS
 62
    30
 10
217.5
 20
257.5
 30
0.0
 11
217.5
 21
469.12014599999998
 31
0.0
  0
LINE
  5
224
  8
SIZE
  6
CONTINUOUS
 62
    30
 10
-217.5
 20
257.5
 30
0.0
 11
-217.5
 21
469.12014599999998
 31
0.0
  0
LINE
  5
225
  8
SIZE
  6
CONTINUOUS
 62
    30
 10
205.5
 20
449.12014599999998
 30
0.0
 11
-205.5
 21
449.12014599999998
 31
0.0
  0
CIRCLE
  5
226
  8
SIZE
  6
CONTINUOUS
 62
    30
 10
217.5
 20
449.12014599999998
 30
0.0
 40
6.0
  0
LINE
  5
227
  8
SIZE
  6
CONTINUOUS
 62
    30
 10
217.5
 20
449.12014599999998
 30
0.0
 11
205.5
 21
449.12014599999998
 31
0.0
  0
CIRCLE
  5
228
  8
SIZE
  6
CONTINUOUS
 62
    30
 10
-217.5
 20
449.12014599999998
 30
0.0
 40
6.0
  0
LINE
  5
229
  8
SIZE
  6
CONTINUOUS
 62
    30
 10
-217.5
 20
449.12014599999998
 30
0.0
 11
-205.5
 21
449.12014599999998
 31
0.0
  0
TEXT
  5
22A
  8
SIZE
  6
CONTINUOUS
 62
    30
 10
-74.05714285714285
 20
474.12014599999998
 30
0.0
 40
64.0
  1
435
 41
0.9
 72
     1
 11
0.0
 21
474.12014599999998
 31
0.0
  0
POINT
  5
22B
  8
DEFPOINTS
  6
CONTINUOUS
 62
    30
 10
-217.5
 20
449.12014599999998
 30
0.0
  0
LINE
  5
22C
  8
SIZE
  6
CONTINUOUS
 62
    30
 10
257.5
 20
217.5
 30
0.0
 11
499.34238699999992
 21
217.5
 31
0.0
  0
LINE
  5
22D
  8
SIZE
  6
CONTINUOUS
 62
    30
 10
257.5
 20
-217.5
 30
0.0
 11
499.34238699999992
 21
-217.5
 31
0.0
  0
LINE
  5
22E
  8
SIZE
  6
CONTINUOUS
 62
    30
 10
479.34238699999992
 20
205.5
 30
0.0
 11
479.34238699999992
 21
-205.5
 31
0.0
  0
CIRCLE
  5
22F
  8
SIZE
  6
CONTINUOUS
 62
    30
 10
479.34238699999992
 20
217.5
 30
0.0
 40
6.0
  0
LINE
  5
230
  8
SIZE
  6
CONTINUOUS
 62
    30
 10
479.34238699999992
 20
217.5
 30
0.0
 11
479.34238699999992
 21
205.5
 31
0.0
  0
CIRCLE
  5
231
  8
SIZE
  6
CONTINUOUS
 62
    30
 10
479.34238699999992
 20
-217.5
 30
0.0
 40
6.0
  0
LINE
  5
232
  8
SIZE
  6
CONTINUOUS
 62
    30
 10
479.34238699999992
 20
-217.5
 30
0.0
 11
479.34238699999992
 21
-205.5
 31
0.0
  0
TEXT
  5
233
  8
SIZE
  6
CONTINUOUS
 62
    30
 10
454.34238699999992
 20
-74.05714285714285
 30
0.0
 40
64.0
  1
435
 50
90.0
 41
0.9
 72
     1
 11
454.34238699999992
 21
0.0
 31
0.0
  0
POINT
  5
234
  8
DEFPOINTS
  6
CONTINUOUS
 62
    30
 10
479.34238699999992
 20
-217.5
 30
0.0
  0
LINE
  5
235
  8
NOTE
  6
CONTINUOUS
 62
     4
 10
185.71399700000001
 20
-191.71251799999999
 30
0.0
 11
162.0
 21
-159.4999999999998
 31
0.0
  0
LINE
  5
236
  8
NOTE
  6
CONTINUOUS
 62
     4
 10
162.0
 20
-159.4999999999998
 30
0.0
 11
166.430665
 21
-199.25385800000001
 31
0.0
  0
LINE
  5
237
  8
NOTE
  6
CONTINUOUS
 62
     4
 10
162.0
 20
-159.4999999999998
 30
0.0
 11
286.261124
 21
-477.23778899999991
 31
0.0
  0
LINE
  5
238
  8
NOTE
  6
CONTINUOUS
 62
     4
 10
162.0
 20
-179.4999999999998
 30
0.0
 11
162.0
 21
-139.5
 31
0.0
  0
LINE
  5
239
  8
NOTE
  6
CONTINUOUS
 62
     4
 10
182.0
 20
-159.4999999999998
 30
0.0
 11
142.0
 21
-159.4999999999998
 31
0.0
  0
TEXT
  5
23A
  8
NOTE
  6
CONTINUOUS
 62
     4
 10
307.61124100000001
 20
-452.79082299999999
 30
0.0
 40
64.0
  1
EL
 41
0.9
  0
LINE
  5
23B
  8
NOTE
  6
CONTINUOUS
 62
     4
 10
286.261124
 20
-477.23778899999991
 30
0.0
 11
409.08021500000001
 21
-477.23778899999991
 31
0.0
  0
LINE
  5
23C
  8
NOTE
  6
CONTINUOUS
 62
     4
 10
-334.93148600000001
 20
-395.07758299999989
 30
0.0
 11
-650.69642499999998
 21
-395.07758299999989
 31
0.0
  0
TEXT
  5
23D
  8
NOTE
  6
CONTINUOUS
 62
     4
 10
-634.91775399999995
 20
-370.63061699999992
 30
0.0
 40
64.0
  1
4-φ10
 41
0.9
  0
LINE
  5
23E
  8
NOTE
  6
CONTINUOUS
 62
     4
 10
-217.5
 20
-217.5
 30
0.0
 11
-334.93148600000001
 21
-395.07758299999989
 31
0.0
  0
LINE
  5
23F
  8
NOTE
  6
CONTINUOUS
 62
     4
 10
-247.447372
 20
-244.01706799999999
 30
0.0
 11
-217.5
 21
-217.5
 31
0.0
  0
LINE
  5
240
  8
NOTE
  6
CONTINUOUS
 62
     4
 10
-217.5
 20
-217.5
 30
0.0
 11
-230.17665099999991
 21
-255.43814099999989
 31
0.0
  0
TEXT
  5
241
  8
ETC
  6
CONTINUOUS
 62
    61
 10
742.85166141141985
 20
347.61714622832471
 30
0.0
 40
50.0
  1
EFC-35MSA
 41
0.9
  0
TEXT
  5
242
  8
ETC
  6
CONTINUOUS
 62
    61
 10
595.14041144904081
 20
538.78879872908465
 30
0.0
 40
64.0
  1
EFC-35MSA_3
 41
0.9
  0
TEXT
  5
243
  8
ETC
  6
CONTINUOUS
 62
    61
 10
598.55700544904073
 20
432.4446717290848
 30
0.0
 40
64.0
  1
産業扇
 41
0.9
  0
CIRCLE
  5
244
  8
FIX
  6
CONTINUOUS
 62
    11
 39
50.0
 10
-217.5
 20
217.5
 30
0.0
 40
5.0
  0
CIRCLE
  5
245
  8
FIX
  6
CONTINUOUS
 62
    11
 39
50.0
 10
217.5
 20
217.5
 30
0.0
 40
5.0
  0
CIRCLE
  5
246
  8
FIX
  6
CONTINUOUS
 62
    11
 39
50.0
 10
217.5
 20
-217.5
 30
0.0
 40
5.0
  0
CIRCLE
  5
247
  8
FIX
  6
CONTINUOUS
 62
    11
 39
50.0
 10
-217.5
 20
-217.5
 30
0.0
 40
5.0
  0
ENDSEC
  0
EOF
