  0
SECTION
  2
HEADER
  9
$ACADVER
  1
AC1009
  9
$INSBASE
 10
0.0
 20
0.0
 30
0.0
  9
$EXTMIN
 10
-377.7550779999998
 20
-229.57575800000001
 30
0.0
  9
$EXTMAX
 10
1047.175053880012
 20
497.82332610991648
 30
50.0
  9
$LIMMIN
 10
-2970.0
 20
-2100.0
  9
$LIMMAX
 10
2970.0
 20
2100.0
  9
$ORTHOMODE
 70
     0
  9
$REGENMODE
 70
     0
  9
$FILLMODE
 70
     1
  9
$QTEXTMODE
 70
     0
  9
$MIRRTEXT
 70
     0
  9
$DRAGMODE
 70
     2
  9
$LTSCALE
 40
20.0
  9
$OSMODE
 70
   165
  9
$ATTMODE
 70
     1
  9
$TEXTSIZE
 40
64.0
  9
$TRACEWID
 40
0.05
  9
$TEXTSTYLE
  7
STANDARD
  9
$CLAYER
  8
SIZE
  9
$CELTYPE
  6
CONTINUOUS
  9
$CECOLOR
 62
    30
  9
$DIMSCALE
 40
1.0
  9
$DIMASZ
 40
12.0
  9
$DIMEXO
 40
20.0
  9
$DIMDLI
 40
200.0
  9
$DIMRND
 40
0.0
  9
$DIMDLE
 40
0.0
  9
$DIMEXE
 40
20.0
  9
$DIMTP
 40
0.0
  9
$DIMTM
 40
0.0
  9
$DIMTXT
 40
64.0
  9
$DIMCEN
 40
0.09
  9
$DIMTSZ
 40
0.0
  9
$DIMTOL
 70
     0
  9
$DIMLIM
 70
     0
  9
$DIMTIH
 70
     0
  9
$DIMTOH
 70
     0
  9
$DIMSE1
 70
     0
  9
$DIMSE2
 70
     0
  9
$DIMTAD
 70
     1
  9
$DIMZIN
 70
     8
  9
$DIMBLK
  1
DOT1
  9
$DIMASO
 70
     1
  9
$DIMSHO
 70
     0
  9
$DIMPOST
  1

  9
$DIMAPOST
  1

  9
$DIMALT
 70
     0
  9
$DIMALTD
 70
     2
  9
$DIMALTF
 40
25.399999999999999
  9
$DIMLFAC
 40
1.0
  9
$DIMTOFL
 70
     1
  9
$DIMTVP
 40
0.0
  9
$DIMTIX
 70
     1
  9
$DIMSOXD
 70
     0
  9
$DIMSAH
 70
     1
  9
$DIMBLK1
  1
ORIGIN
  9
$DIMBLK2
  1
ORIGIN
  9
$DIMSTYLE
  2
STANDARD
  9
$DIMCLRD
 70
     0
  9
$DIMCLRE
 70
     0
  9
$DIMCLRT
 70
     0
  9
$DIMTFAC
 40
1.0
  9
$DIMGAP
 40
0.09
  9
$LUNITS
 70
     2
  9
$LUPREC
 70
     4
  9
$SKETCHINC
 40
0.1
  9
$FILLETRAD
 40
19.0
  9
$AUNITS
 70
     1
  9
$AUPREC
 70
     3
  9
$MENU
  1
ACAD
  9
$ELEVATION
 40
0.0
  9
$PELEVATION
 40
0.0
  9
$THICKNESS
 40
50.0
  9
$LIMCHECK
 70
     0
  9
$BLIPMODE
 70
     0
  9
$CHAMFERA
 40
0.0
  9
$CHAMFERB
 40
0.0
  9
$SKPOLY
 70
     0
  9
$TDCREATE
 40
2452321.3961996529
  9
$TDUPDATE
 40
2454203.3876627539
  9
$TDINDWG
 40
0.2738654398
  9
$TDUSRTIMER
 40
0.2738654398
  9
$USRTIMER
 70
     1
  9
$ANGBASE
 50
0.0
  9
$ANGDIR
 70
     0
  9
$PDMODE
 70
     3
  9
$PDSIZE
 40
-2.0
  9
$PLINEWID
 40
0.0
  9
$COORDS
 70
     2
  9
$SPLFRAME
 70
     0
  9
$SPLINETYPE
 70
     6
  9
$SPLINESEGS
 70
     8
  9
$ATTDIA
 70
     0
  9
$ATTREQ
 70
     1
  9
$HANDLING
 70
 22529
  9
$HANDSEED
  5
8CC
  9
$SURFTAB1
 70
     6
  9
$SURFTAB2
 70
     6
  9
$SURFTYPE
 70
     6
  9
$SURFU
 70
     6
  9
$SURFV
 70
     6
  9
$UCSNAME
  2

  9
$UCSORG
 10
0.0
 20
0.0
 30
0.0
  9
$UCSXDIR
 10
1.0
 20
0.0
 30
0.0
  9
$UCSYDIR
 10
0.0
 20
1.0
 30
0.0
  9
$PUCSNAME
  2

  9
$PUCSORG
 10
0.0
 20
0.0
 30
0.0
  9
$PUCSXDIR
 10
1.0
 20
0.0
 30
0.0
  9
$PUCSYDIR
 10
0.0
 20
1.0
 30
0.0
  9
$USERI1
 70
     0
  9
$USERI2
 70
     0
  9
$USERI3
 70
     0
  9
$USERI4
 70
     0
  9
$USERI5
 70
     0
  9
$USERR1
 40
20.0
  9
$USERR2
 40
0.0
  9
$USERR3
 40
0.0
  9
$USERR4
 40
0.0
  9
$USERR5
 40
0.0
  9
$WORLDVIEW
 70
     1
  9
$SHADEDGE
 70
     3
  9
$SHADEDIF
 70
    70
  9
$TILEMODE
 70
     1
  9
$MAXACTVP
 70
    64
  9
$PLIMCHECK
 70
     0
  9
$PEXTMIN
 10
1.0000000000000000E+020
 20
1.0000000000000000E+020
 30
1.0000000000000000E+020
  9
$PEXTMAX
 10
-1.0000000000000000E+020
 20
-1.0000000000000000E+020
 30
-1.0000000000000000E+020
  9
$PLIMMIN
 10
0.0
 20
0.0
  9
$PLIMMAX
 10
12.0
 20
9.0
  9
$UNITMODE
 70
     0
  9
$VISRETAIN
 70
     1
  9
$PLINEGEN
 70
     0
  9
$PSLTSCALE
 70
     1
  0
ENDSEC
  0
SECTION
  2
TABLES
  0
TABLE
  2
VPORT
 70
     3
  0
VPORT
  2
*ACTIVE
 70
     0
 10
0.0
 20
0.0
 11
1.0
 21
1.0
 12
291.64824961332261
 22
134.58260458402319
 13
0.0
 23
0.0
 14
1.0
 24
1.0
 15
0.0
 25
0.0
 16
0.0
 26
0.0
 36
1.0
 17
0.0
 27
0.0
 37
0.0
 40
1289.9006615906451
 41
1.672794117647058
 42
50.0
 43
0.0
 44
0.0
 50
0.0
 51
0.0
 71
     0
 72
   100
 73
     1
 74
     0
 75
     0
 76
     0
 77
     0
 78
     0
  0
ENDTAB
  0
TABLE
  2
LTYPE
 70
     3
  0
LTYPE
  2
CONTINUOUS
 70
     0
  3
実線
 72
    65
 73
     0
 40
0.0
  0
LTYPE
  2
DASHDOT
 70
     0
  3
____ _ ____ _ ____ _ ____ _ ____ _ ____ _ ____
 72
    65
 73
     4
 40
5.5
 49
4.0
 49
-0.6
 49
0.3
 49
-0.6
  0
LTYPE
  2
DASHED
 70
     0
  3
-- -- -- -- -- -- -- -- -- -- -- -- -- -- --
 72
    65
 73
     2
 40
0.75
 49
0.5
 49
-0.25
  0
ENDTAB
  0
TABLE
  2
LAYER
 70
    12
  0
LAYER
  2
0
 70
     0
 62
     7
  6
CONTINUOUS
  0
LAYER
  2
SIZE
 70
     0
 62
    30
  6
CONTINUOUS
  0
LAYER
  2
BASIS
 70
     0
 62
     6
  6
DASHDOT
  0
LAYER
  2
OUTLINE
 70
     0
 62
     3
  6
CONTINUOUS
  0
LAYER
  2
DETAIL
 70
     0
 62
     5
  6
CONTINUOUS
  0
LAYER
  2
ARRANGE
 70
     0
 62
     1
  6
CONTINUOUS
  0
LAYER
  2
DEFPOINTS
 70
     0
 62
     7
  6
CONTINUOUS
  0
LAYER
  2
ETC
 70
     0
 62
    61
  6
CONTINUOUS
  0
LAYER
  2
NOTE
 70
     0
 62
     4
  6
CONTINUOUS
  0
LAYER
  2
FIX
 70
     0
 62
    11
  6
CONTINUOUS
  0
LAYER
  2
SERVICESPACE
 70
     0
 62
     2
  6
DASHDOT
  0
LAYER
  2
SYMBOLLINE
 70
     0
 62
    15
  6
CONTINUOUS
  0
ENDTAB
  0
TABLE
  2
STYLE
 70
     1
  0
STYLE
  2
STANDARD
 70
     0
 40
64.0
 41
0.9
 50
0.0
 71
     0
 42
64.0
  3
SIMPLEX.shx
  4
BIGFONT.shx
  0
ENDTAB
  0
TABLE
  2
VIEW
 70
     1
  0
VIEW
  2
ALL
 70
     0
 40
4282.6198079999976
 10
0.0
 20
41.309903999999989
 41
5940.0
 11
0.0
 21
0.0
 31
1.0
 12
0.0
 22
0.0
 32
0.0
 42
50.0
 43
0.0
 44
0.0
 50
0.0
 71
     0
  0
ENDTAB
  0
TABLE
  2
UCS
 70
     0
  0
ENDTAB
  0
TABLE
  2
APPID
 70
     1
  0
APPID
  2
ACAD
 70
     0
  0
ENDTAB
  0
TABLE
  2
DIMSTYLE
 70
     1
  0
DIMSTYLE
  2
STANDARD
 70
     0
  3

  4

  5

  6

  7

 40
1.0
 41
0.18
 42
0.0625
 43
0.38
 44
0.18
 45
0.0
 46
0.0
 47
0.0
 48
0.0
140
0.18
141
0.09
142
0.0
143
25.399999999999999
144
1.0
145
0.0
146
1.0
147
0.09
 71
     0
 72
     0
 73
     1
 74
     1
 75
     0
 76
     0
 77
     0
 78
     0
170
     0
171
     2
172
     0
173
     0
174
     0
175
     0
176
     0
177
     0
178
     0
  0
ENDTAB
  0
ENDSEC
  0
SECTION
  2
BLOCKS
  0
BLOCK
  8
0
  2
$MODEL_SPACE
 70
     0
 10
0.0
 20
0.0
 30
0.0
  3
$MODEL_SPACE
  1

  0
ENDBLK
  5
487
  8
0
  0
BLOCK
 67
     1
  8
0
  2
$PAPER_SPACE
 70
     0
 10
0.0
 20
0.0
 30
0.0
  3
$PAPER_SPACE
  1

  0
ENDBLK
  5
483
 67
     1
  8
0
  0
BLOCK
  8
0
  2
DOT1
 70
     0
 10
0.0
 20
0.0
 30
0.0
  3
DOT1
  1

  0
CIRCLE
  5
4A3
  8
SIZE
  6
CONTINUOUS
 62
     7
 10
0.0
 20
0.0
 30
0.0
 40
3.0
  0
ENDBLK
  5
4A4
  8
0
  0
BLOCK
  8
0
  2
_ORIGIN
 70
     0
 10
0.0
 20
0.0
 30
0.0
  3
_ORIGIN
  1

  0
CIRCLE
  5
4A7
  8
0
  6
CONTINUOUS
 62
     7
 10
0.0
 20
0.0
 30
0.0
 40
0.5
  0
LINE
  5
4A8
  8
0
  6
CONTINUOUS
 62
     7
 10
0.0
 20
0.0
 30
0.0
 11
-1.0
 21
0.0
 31
0.0
  0
ENDBLK
  5
4A9
  8
0
  0
ENDSEC
  0
SECTION
  2
ENTITIES
  0
LINE
  5
4AA
  8
BASIS
  6
DASHDOT
 62
     6
 39
50.0
 10
-215.998524
 20
0.0
 30
0.0
 11
216.25254200000001
 21
0.0
 31
0.0
  0
LINE
  5
4AB
  8
BASIS
  6
DASHDOT
 62
     6
 39
50.0
 10
0.0
 20
220.99379599999989
 30
0.0
 11
0.0
 21
-229.57575800000001
 31
0.0
  0
LINE
  5
4AC
  8
DETAIL
  6
CONTINUOUS
 62
     5
 39
50.0
 10
-142.0
 20
161.0
 30
0.0
 11
142.0
 21
161.0
 31
0.0
  0
LINE
  5
4AD
  8
DETAIL
  6
CONTINUOUS
 62
     5
 39
50.0
 10
-142.0
 20
-161.0
 30
0.0
 11
142.0
 21
-161.0
 31
0.0
  0
LINE
  5
4AE
  8
DETAIL
  6
CONTINUOUS
 62
     5
 39
50.0
 10
-161.0
 20
142.0
 30
0.0
 11
-161.0
 21
-142.0
 31
0.0
  0
LINE
  5
4AF
  8
DETAIL
  6
CONTINUOUS
 62
     5
 39
50.0
 10
161.0
 20
142.0
 30
0.0
 11
161.0
 21
-142.0
 31
0.0
  0
ARC
  5
4B0
  8
DETAIL
  6
CONTINUOUS
 62
     5
 39
50.0
 10
-142.0
 20
142.0
 30
0.0
 40
19.0
 50
90.0
 51
180.0
  0
ARC
  5
4B1
  8
DETAIL
  6
CONTINUOUS
 62
     5
 39
50.0
 10
-142.0
 20
-142.0
 30
0.0
 40
19.0
 50
180.0
 51
270.0
  0
ARC
  5
4B2
  8
DETAIL
  6
CONTINUOUS
 62
     5
 39
50.0
 10
142.0
 20
-142.0
 30
0.0
 40
19.0
 50
270.0
 51
0.0
  0
ARC
  5
4B3
  8
DETAIL
  6
CONTINUOUS
 62
     5
 39
50.0
 10
142.0
 20
142.0
 30
0.0
 40
19.0
 50
0.0
 51
90.0
  0
CIRCLE
  5
4B4
  8
ARRANGE
  6
CONTINUOUS
 62
     1
 39
50.0
 10
0.0
 20
0.0
 30
0.0
 40
40.0
  0
POINT
  5
4B5
  8
ARRANGE
  6
CONTINUOUS
 62
     1
 10
0.0
 20
0.0
 30
0.0
 39
50.0
  0
ARC
  5
4B6
  8
DETAIL
  6
CONTINUOUS
 62
     5
 39
50.0
 10
-30.434898999999991
 20
-23.239594
 30
0.0
 40
18.457681000000001
 50
107.29445200000001
 51
128.7228919999998
  0
ARC
  5
4B7
  8
DETAIL
  6
CONTINUOUS
 62
     5
 39
50.0
 10
0.0
 20
0.0
 30
0.0
 40
112.526882
 50
108.616411
 51
110.833904
  0
ARC
  5
4B8
  8
DETAIL
  6
CONTINUOUS
 62
     5
 39
50.0
 10
0.0
 20
0.0
 30
0.0
 40
112.526882
 50
114.2811709999999
 51
116.743684
  0
ARC
  5
4B9
  8
DETAIL
  6
CONTINUOUS
 62
     5
 39
50.0
 10
0.0
 20
0.0
 30
0.0
 40
115.989248
 50
112.60205000000001
 51
114.9445429999999
  0
ARC
  5
4BA
  8
DETAIL
  6
CONTINUOUS
 62
     5
 39
50.0
 10
0.0
 20
0.0
 30
0.0
 40
115.989248
 50
117.8310179999999
 51
120.7433959999999
  0
ARC
  5
4BB
  8
DETAIL
  6
CONTINUOUS
 62
     5
 39
50.0
 10
0.0
 20
0.0
 30
0.0
 40
112.526882
 50
118.234212
 51
121.7977939999999
  0
ARC
  5
4BC
  8
DETAIL
  6
CONTINUOUS
 62
     5
 39
50.0
 10
0.0
 20
0.0
 30
0.0
 40
112.526882
 50
141.33105900000001
 51
146.5758109999999
  0
ARC
  5
4BD
  8
DETAIL
  6
CONTINUOUS
 62
     5
 39
50.0
 10
0.0
 20
0.0
 30
0.0
 40
112.526882
 50
149.05845400000001
 51
155.718829
  0
ARC
  5
4BE
  8
DETAIL
  6
CONTINUOUS
 62
     5
 39
50.0
 10
0.0
 20
0.0
 30
0.0
 40
112.526882
 50
159.16609600000001
 51
171.28775499999981
  0
ARC
  5
4BF
  8
DETAIL
  6
CONTINUOUS
 62
     5
 39
50.0
 10
0.0
 20
0.0
 30
0.0
 40
115.989248
 50
122.247803
 51
125.86100399999999
  0
ARC
  5
4C0
  8
DETAIL
  6
CONTINUOUS
 62
     5
 39
50.0
 10
0.0
 20
0.0
 30
0.0
 40
115.989248
 50
127.460111
 51
131.33403100000001
  0
ARC
  5
4C1
  8
DETAIL
  6
CONTINUOUS
 62
     5
 39
50.0
 10
0.0
 20
0.0
 30
0.0
 40
115.989248
 50
133.06564399999999
 51
137.31352199999981
  0
ARC
  5
4C2
  8
DETAIL
  6
CONTINUOUS
 62
     5
 39
50.0
 10
0.0
 20
0.0
 30
0.0
 40
115.989248
 50
139.2410219999999
 51
144.066777
  0
ARC
  5
4C3
  8
DETAIL
  6
CONTINUOUS
 62
     5
 39
50.0
 10
0.0
 20
0.0
 30
0.0
 40
115.989248
 50
146.31398799999991
 51
152.1689819999998
  0
ARC
  5
4C4
  8
DETAIL
  6
CONTINUOUS
 62
     5
 39
50.0
 10
0.0
 20
0.0
 30
0.0
 40
115.989248
 50
155.0554569999999
 51
163.5273549999998
  0
ARC
  5
4C5
  8
DETAIL
  6
CONTINUOUS
 62
     5
 39
50.0
 10
0.0
 20
0.0
 30
0.0
 40
115.989248
 50
168.915075
 51
191.08492499999991
  0
ARC
  5
4C6
  8
DETAIL
  6
CONTINUOUS
 62
     5
 39
50.0
 10
0.0
 20
0.0
 30
0.0
 40
141.09139799999991
 50
128.51352700000001
 51
131.731763
  0
ARC
  5
4C7
  8
DETAIL
  6
CONTINUOUS
 62
     5
 39
50.0
 10
0.0
 20
0.0
 30
0.0
 40
141.09139799999991
 50
124.1491899999999
 51
127.17809
  0
ARC
  5
4C8
  8
DETAIL
  6
CONTINUOUS
 62
     5
 39
50.0
 10
0.0
 20
0.0
 30
0.0
 40
141.09139799999991
 50
133.16086799999991
 51
136.6349679999999
  0
ARC
  5
4C9
  8
DETAIL
  6
CONTINUOUS
 62
     5
 39
50.0
 10
0.0
 20
0.0
 30
0.0
 40
141.09139799999991
 50
138.19336200000001
 51
142.03098299999991
  0
ARC
  5
4CA
  8
DETAIL
  6
CONTINUOUS
 62
     5
 39
50.0
 10
0.0
 20
0.0
 30
0.0
 40
141.09139799999991
 50
143.77945299999979
 51
148.17832099999981
  0
ARC
  5
4CB
  8
DETAIL
  6
CONTINUOUS
 62
     5
 39
50.0
 10
0.0
 20
0.0
 30
0.0
 40
141.09139799999991
 50
90.527269000000004
 51
92.989172999999965
  0
LINE
  5
4CC
  8
DETAIL
  6
CONTINUOUS
 62
     5
 39
50.0
 10
-6.0591400000000002
 20
-149.743075
 30
0.0
 11
-2.596773999999999
 21
-149.743075
 31
0.0
  0
LINE
  5
4CD
  8
DETAIL
  6
CONTINUOUS
 62
     5
 39
50.0
 10
-6.0591400000000002
 20
-148.4366669999998
 30
0.0
 11
-2.596773999999999
 21
-148.4366669999998
 31
0.0
  0
LINE
  5
4CE
  8
DETAIL
  6
CONTINUOUS
 62
     5
 39
50.0
 10
-1.298387
 20
-105.169355
 30
0.0
 11
-7.3575270000000002
 21
-105.169355
 31
0.0
  0
LINE
  5
4CF
  8
DETAIL
  6
CONTINUOUS
 62
     5
 39
50.0
 10
-7.3575270000000002
 20
-102.5725809999999
 30
0.0
 11
-1.269096999999999
 21
-102.5725809999999
 31
0.0
  0
ARC
  5
4D0
  8
DETAIL
  6
CONTINUOUS
 62
     5
 39
50.0
 10
0.0
 20
0.0
 30
0.0
 40
141.09139799999991
 50
267.01082700000001
 51
269.47273100000001
  0
ARC
  5
4D1
  8
DETAIL
  6
CONTINUOUS
 62
     5
 39
50.0
 10
0.0
 20
0.0
 30
0.0
 40
115.989248
 50
266.36312400000003
 51
269.35861599999993
  0
ARC
  5
4D2
  8
DETAIL
  6
CONTINUOUS
 62
     5
 39
50.0
 10
0.0
 20
0.0
 30
0.0
 40
112.526882
 50
266.25106299999982
 51
269.3388799999999
  0
LINE
  5
4D3
  8
DETAIL
  6
CONTINUOUS
 62
     5
 39
50.0
 10
-7.3575270000000002
 20
-142.82258100000001
 30
0.0
 11
-1.298387
 21
-142.82258100000001
 31
0.0
  0
ARC
  5
4D4
  8
DETAIL
  6
CONTINUOUS
 62
     5
 39
50.0
 10
25.967742000000001
 20
0.0
 30
0.0
 40
47.607526999999997
 50
229.43970200000001
 51
235.05937299999991
  0
ARC
  5
4D5
  8
DETAIL
  6
CONTINUOUS
 62
     5
 39
50.0
 10
0.0
 20
0.0
 30
0.0
 40
36.78763499999998
 50
258.46304099999992
 51
267.97737599999982
  0
ARC
  5
4D6
  8
DETAIL
  6
CONTINUOUS
 62
     5
 39
50.0
 10
0.0
 20
0.0
 30
0.0
 40
36.354838999999998
 50
258.32377500000001
 51
267.95328699999999
  0
ARC
  5
4D7
  8
DETAIL
  6
CONTINUOUS
 62
     5
 39
50.0
 10
0.0
 20
0.0
 30
0.0
 40
35.28667699999999
 50
257.96511400000003
 51
267.89130299999988
  0
ARC
  5
4D8
  8
DETAIL
  6
CONTINUOUS
 62
     5
 39
50.0
 10
0.0
 20
0.0
 30
0.0
 40
32.881081999999992
 50
257.06992699999989
 51
267.73695299999991
  0
ARC
  5
4D9
  8
DETAIL
  6
CONTINUOUS
 62
     5
 39
50.0
 10
-61.565266000000001
 20
-13.522964999999999
 30
0.0
 40
102.48602199999991
 50
53.981266000000012
 51
58.066938999999991
  0
ARC
  5
4DA
  8
DETAIL
  6
CONTINUOUS
 62
     5
 39
50.0
 10
-29.384153000000001
 20
36.072749999999999
 30
0.0
 40
28.045161
 50
11.883039999999999
 51
30.830238000000001
  0
ARC
  5
4DB
  8
DETAIL
  6
CONTINUOUS
 62
     5
 39
50.0
 10
0.0
 20
0.0
 30
0.0
 40
36.78763499999998
 50
92.022623999999979
 51
101.5369589999999
  0
ARC
  5
4DC
  8
DETAIL
  6
CONTINUOUS
 62
     5
 39
50.0
 10
0.0
 20
0.0
 30
0.0
 40
36.354838999999998
 50
92.046712999999997
 51
101.6762249999999
  0
ARC
  5
4DD
  8
DETAIL
  6
CONTINUOUS
 62
     5
 39
50.0
 10
0.0
 20
0.0
 30
0.0
 40
35.28667699999999
 50
92.108697000000006
 51
102.0348859999999
  0
ARC
  5
4DE
  8
DETAIL
  6
CONTINUOUS
 62
     5
 39
50.0
 10
0.0
 20
0.0
 30
0.0
 40
32.881081999999992
 50
92.263047000000014
 51
102.93007299999999
  0
LINE
  5
4DF
  8
DETAIL
  6
CONTINUOUS
 62
     5
 39
50.0
 10
-7.3575270000000002
 20
102.5725809999999
 30
0.0
 11
-1.269096999999999
 21
102.5725809999999
 31
0.0
  0
LINE
  5
4E0
  8
DETAIL
  6
CONTINUOUS
 62
     5
 39
50.0
 10
-1.298387
 20
105.169355
 30
0.0
 11
-7.3575270000000002
 21
105.169355
 31
0.0
  0
ARC
  5
4E1
  8
DETAIL
  6
CONTINUOUS
 62
     5
 39
50.0
 10
0.0
 20
0.0
 30
0.0
 40
115.989248
 50
90.641384000000002
 51
93.636876000000001
  0
ARC
  5
4E2
  8
DETAIL
  6
CONTINUOUS
 62
     5
 39
50.0
 10
0.0
 20
0.0
 30
0.0
 40
112.526882
 50
90.661119999999983
 51
93.748936999999984
  0
LINE
  5
4E3
  8
DETAIL
  6
CONTINUOUS
 62
     5
 39
50.0
 10
-128.540323
 20
160.13440899999981
 30
0.0
 11
128.540323
 21
160.13440899999981
 31
0.0
  0
LINE
  5
4E4
  8
DETAIL
  6
CONTINUOUS
 62
     5
 39
50.0
 10
-7.3575270000000002
 20
151.47849500000001
 30
0.0
 11
-1.298387
 21
151.47849500000001
 31
0.0
  0
LINE
  5
4E5
  8
DETAIL
  6
CONTINUOUS
 62
     5
 39
50.0
 10
-7.3575270000000002
 20
142.82258100000001
 30
0.0
 11
-1.298387
 21
142.82258100000001
 31
0.0
  0
LINE
  5
4E6
  8
DETAIL
  6
CONTINUOUS
 62
     5
 39
50.0
 10
-128.540323
 20
160.13440899999981
 30
0.0
 11
-128.540323
 21
-85.106155000000001
 31
0.0
  0
LINE
  5
4E7
  8
DETAIL
  6
CONTINUOUS
 62
     5
 39
50.0
 10
-44.577956999999998
 20
159.4852149999999
 30
0.0
 11
-44.577956999999998
 21
-148.4446879999999
 31
0.0
  0
LINE
  5
4E8
  8
DETAIL
  6
CONTINUOUS
 62
     5
 39
50.0
 10
-41.981182999999987
 20
159.4852149999999
 30
0.0
 11
-41.981182999999987
 21
-148.4446879999999
 31
0.0
  0
LINE
  5
4E9
  8
DETAIL
  6
CONTINUOUS
 62
     5
 39
50.0
 10
-50.637096999999997
 20
159.4852149999999
 30
0.0
 11
-50.637096999999997
 21
-148.4446879999999
 31
0.0
  0
LINE
  5
4EA
  8
DETAIL
  6
CONTINUOUS
 62
     5
 39
50.0
 10
-33.325268999999992
 20
159.4852149999999
 30
0.0
 11
-33.325268999999992
 21
-148.4446879999999
 31
0.0
  0
LINE
  5
4EB
  8
DETAIL
  6
CONTINUOUS
 62
     5
 39
50.0
 10
-35.922043000000002
 20
159.4852149999999
 30
0.0
 11
-35.922043000000002
 21
-148.4446879999999
 31
0.0
  0
LINE
  5
4EC
  8
DETAIL
  6
CONTINUOUS
 62
     5
 39
50.0
 10
-53.233871000000001
 20
159.4852149999999
 30
0.0
 11
-53.233871000000001
 21
-148.4446879999999
 31
0.0
  0
LINE
  5
4ED
  8
DETAIL
  6
CONTINUOUS
 62
     5
 39
50.0
 10
-59.293010999999993
 20
159.4852149999999
 30
0.0
 11
-59.293010999999993
 21
-148.4446879999999
 31
0.0
  0
LINE
  5
4EE
  8
DETAIL
  6
CONTINUOUS
 62
     5
 39
50.0
 10
-61.88978500000001
 20
159.4852149999999
 30
0.0
 11
-61.88978500000001
 21
-148.4446879999999
 31
0.0
  0
LINE
  5
4EF
  8
DETAIL
  6
CONTINUOUS
 62
     5
 39
50.0
 10
-67.948925000000003
 20
159.4852149999999
 30
0.0
 11
-67.948925000000003
 21
-148.4446879999999
 31
0.0
  0
LINE
  5
4F0
  8
DETAIL
  6
CONTINUOUS
 62
     5
 39
50.0
 10
-70.545698999999999
 20
159.4852149999999
 30
0.0
 11
-70.545698999999999
 21
-148.4446879999999
 31
0.0
  0
LINE
  5
4F1
  8
DETAIL
  6
CONTINUOUS
 62
     5
 39
50.0
 10
-76.604838999999998
 20
159.4852149999999
 30
0.0
 11
-76.604838999999998
 21
-148.4446879999999
 31
0.0
  0
LINE
  5
4F2
  8
DETAIL
  6
CONTINUOUS
 62
     5
 39
50.0
 10
-79.201612999999981
 20
159.4852149999999
 30
0.0
 11
-79.201612999999981
 21
-148.4446879999999
 31
0.0
  0
LINE
  5
4F3
  8
DETAIL
  6
CONTINUOUS
 62
     5
 39
50.0
 10
-85.26075299999998
 20
159.4852149999999
 30
0.0
 11
-85.26075299999998
 21
-148.4446879999999
 31
0.0
  0
LINE
  5
4F4
  8
DETAIL
  6
CONTINUOUS
 62
     5
 39
50.0
 10
-87.857527000000005
 20
159.4852149999999
 30
0.0
 11
-87.857527000000005
 21
-148.4446879999999
 31
0.0
  0
LINE
  5
4F5
  8
DETAIL
  6
CONTINUOUS
 62
     5
 39
50.0
 10
-93.916667000000004
 20
159.4852149999999
 30
0.0
 11
-93.916667000000004
 21
-148.4446879999999
 31
0.0
  0
LINE
  5
4F6
  8
DETAIL
  6
CONTINUOUS
 62
     5
 39
50.0
 10
-96.513441000000014
 20
159.4852149999999
 30
0.0
 11
-96.513441000000014
 21
-148.4446879999999
 31
0.0
  0
LINE
  5
4F7
  8
DETAIL
  6
CONTINUOUS
 62
     5
 39
50.0
 10
-102.5725809999999
 20
159.4852149999999
 30
0.0
 11
-102.5725809999999
 21
-148.4446879999999
 31
0.0
  0
LINE
  5
4F8
  8
DETAIL
  6
CONTINUOUS
 62
     5
 39
50.0
 10
-105.169355
 20
159.4852149999999
 30
0.0
 11
-105.169355
 21
-148.4446879999999
 31
0.0
  0
LINE
  5
4F9
  8
DETAIL
  6
CONTINUOUS
 62
     5
 39
50.0
 10
-111.228495
 20
159.4852149999999
 30
0.0
 11
-111.228495
 21
-148.4446879999999
 31
0.0
  0
LINE
  5
4FA
  8
DETAIL
  6
CONTINUOUS
 62
     5
 39
50.0
 10
-113.82526899999991
 20
159.4852149999999
 30
0.0
 11
-113.82526899999991
 21
-148.4446879999999
 31
0.0
  0
LINE
  5
4FB
  8
DETAIL
  6
CONTINUOUS
 62
     5
 39
50.0
 10
-122.4811829999999
 20
159.4852149999999
 30
0.0
 11
-122.4811829999999
 21
-87.494997999999981
 31
0.0
  0
LINE
  5
4FC
  8
DETAIL
  6
CONTINUOUS
 62
     5
 39
50.0
 10
-122.4811829999999
 20
159.4852149999999
 30
0.0
 11
-122.4811829999999
 21
-95.813282999999998
 31
0.0
  0
LINE
  5
4FD
  8
DETAIL
  6
CONTINUOUS
 62
     5
 39
50.0
 10
-119.88440900000001
 20
159.4852149999999
 30
0.0
 11
-119.88440900000001
 21
-93.216508999999988
 31
0.0
  0
LINE
  5
4FE
  8
DETAIL
  6
CONTINUOUS
 62
     5
 39
50.0
 10
-27.266128999999999
 20
159.4852149999999
 30
0.0
 11
-27.266128999999999
 21
-148.4446879999999
 31
0.0
  0
LINE
  5
4FF
  8
DETAIL
  6
CONTINUOUS
 62
     5
 39
50.0
 10
-27.266128999999999
 20
159.4852149999999
 30
0.0
 11
-27.266128999999999
 21
-148.4446879999999
 31
0.0
  0
LINE
  5
500
  8
DETAIL
  6
CONTINUOUS
 62
     5
 39
50.0
 10
-24.669354999999989
 20
159.4852149999999
 30
0.0
 11
-24.669354999999989
 21
-148.4446879999999
 31
0.0
  0
LINE
  5
501
  8
DETAIL
  6
CONTINUOUS
 62
     5
 39
50.0
 10
-18.610215
 20
159.4852149999999
 30
0.0
 11
-18.610215
 21
-148.4446879999999
 31
0.0
  0
LINE
  5
502
  8
DETAIL
  6
CONTINUOUS
 62
     5
 39
50.0
 10
-18.610215
 20
159.4852149999999
 30
0.0
 11
-18.610215
 21
-148.4446879999999
 31
0.0
  0
LINE
  5
503
  8
DETAIL
  6
CONTINUOUS
 62
     5
 39
50.0
 10
-16.013441
 20
159.4852149999999
 30
0.0
 11
-16.013441
 21
-148.4446879999999
 31
0.0
  0
LINE
  5
504
  8
DETAIL
  6
CONTINUOUS
 62
     5
 39
50.0
 10
-9.9543009999999992
 20
159.4852149999999
 30
0.0
 11
-9.9543009999999992
 21
-148.4446879999999
 31
0.0
  0
LINE
  5
505
  8
DETAIL
  6
CONTINUOUS
 62
     5
 39
50.0
 10
-9.9543009999999992
 20
159.4852149999999
 30
0.0
 11
-9.9543009999999992
 21
-148.4446879999999
 31
0.0
  0
LINE
  5
506
  8
DETAIL
  6
CONTINUOUS
 62
     5
 39
50.0
 10
-7.3575270000000002
 20
159.4852149999999
 30
0.0
 11
-7.3575270000000002
 21
-148.4446879999999
 31
0.0
  0
ARC
  5
507
  8
DETAIL
  6
CONTINUOUS
 62
     5
 39
50.0
 10
10.819892999999981
 20
18.740604000000001
 30
0.0
 40
39.817203999999997
 50
137.65739500000001
 51
153.03761099999991
  0
LINE
  5
508
  8
DETAIL
  6
CONTINUOUS
 62
     5
 39
50.0
 10
-119.88440900000001
 20
-93.216508999999988
 30
0.0
 11
-119.88440900000001
 21
-148.4446879999999
 31
0.0
  0
LINE
  5
509
  8
DETAIL
  6
CONTINUOUS
 62
     5
 39
50.0
 10
-122.4811829999999
 20
-95.813282999999998
 30
0.0
 11
-122.4811829999999
 21
-148.4446879999999
 31
0.0
  0
LINE
  5
50A
  8
DETAIL
  6
CONTINUOUS
 62
     5
 39
50.0
 10
-128.540323
 20
-85.106155000000001
 30
0.0
 11
-128.540323
 21
-148.4446879999999
 31
0.0
  0
ARC
  5
50B
  8
DETAIL
  6
CONTINUOUS
 62
     5
 39
50.0
 10
-115.123656
 20
-148.4446879999999
 30
0.0
 40
1.298387
 50
270.0
 51
0.0
  0
ARC
  5
50C
  8
DETAIL
  6
CONTINUOUS
 62
     5
 39
50.0
 10
-115.123656
 20
-147.13828000000001
 30
0.0
 40
1.298387
 50
270.0
 51
0.0
  0
ARC
  5
50D
  8
DETAIL
  6
CONTINUOUS
 62
     5
 39
50.0
 10
-127.241936
 20
-148.4446879999999
 30
0.0
 40
1.298387
 50
180.0
 51
270.0
  0
LINE
  5
50E
  8
DETAIL
  6
CONTINUOUS
 62
     5
 39
50.0
 10
-127.241936
 20
-149.743075
 30
0.0
 11
-123.77956999999979
 21
-149.743075
 31
0.0
  0
ARC
  5
50F
  8
DETAIL
  6
CONTINUOUS
 62
     5
 39
50.0
 10
-127.241936
 20
-147.13828000000001
 30
0.0
 40
1.298387
 50
180.0
 51
270.0
  0
LINE
  5
510
  8
DETAIL
  6
CONTINUOUS
 62
     5
 39
50.0
 10
-127.241936
 20
-148.4366669999998
 30
0.0
 11
-123.77956999999979
 21
-148.4366669999998
 31
0.0
  0
ARC
  5
511
  8
DETAIL
  6
CONTINUOUS
 62
     5
 39
50.0
 10
-123.77956999999979
 20
-148.4446879999999
 30
0.0
 40
1.298387
 50
270.0
 51
0.0
  0
ARC
  5
512
  8
DETAIL
  6
CONTINUOUS
 62
     5
 39
50.0
 10
-123.77956999999979
 20
-147.13828000000001
 30
0.0
 40
1.298387
 50
270.0
 51
0.0
  0
ARC
  5
513
  8
DETAIL
  6
CONTINUOUS
 62
     5
 39
50.0
 10
-118.586022
 20
-148.4446879999999
 30
0.0
 40
1.298387
 50
180.0
 51
270.0
  0
LINE
  5
514
  8
DETAIL
  6
CONTINUOUS
 62
     5
 39
50.0
 10
-118.586022
 20
-149.743075
 30
0.0
 11
-115.123656
 21
-149.743075
 31
0.0
  0
ARC
  5
515
  8
DETAIL
  6
CONTINUOUS
 62
     5
 39
50.0
 10
-118.586022
 20
-147.13828000000001
 30
0.0
 40
1.298387
 50
180.0
 51
270.0
  0
LINE
  5
516
  8
DETAIL
  6
CONTINUOUS
 62
     5
 39
50.0
 10
-118.586022
 20
-148.4366669999998
 30
0.0
 11
-115.123656
 21
-148.4366669999998
 31
0.0
  0
ARC
  5
517
  8
DETAIL
  6
CONTINUOUS
 62
     5
 39
50.0
 10
-109.930108
 20
-148.4446879999999
 30
0.0
 40
1.298387
 50
180.0
 51
270.0
  0
LINE
  5
518
  8
DETAIL
  6
CONTINUOUS
 62
     5
 39
50.0
 10
-109.930108
 20
-149.743075
 30
0.0
 11
-106.4677419999999
 21
-149.743075
 31
0.0
  0
ARC
  5
519
  8
DETAIL
  6
CONTINUOUS
 62
     5
 39
50.0
 10
-109.930108
 20
-147.13828000000001
 30
0.0
 40
1.298387
 50
180.0
 51
270.0
  0
LINE
  5
51A
  8
DETAIL
  6
CONTINUOUS
 62
     5
 39
50.0
 10
-109.930108
 20
-148.4366669999998
 30
0.0
 11
-106.4677419999999
 21
-148.4366669999998
 31
0.0
  0
ARC
  5
51B
  8
DETAIL
  6
CONTINUOUS
 62
     5
 39
50.0
 10
-106.4677419999999
 20
-148.4446879999999
 30
0.0
 40
1.298387
 50
270.0
 51
0.0
  0
ARC
  5
51C
  8
DETAIL
  6
CONTINUOUS
 62
     5
 39
50.0
 10
-106.4677419999999
 20
-147.13828000000001
 30
0.0
 40
1.298387
 50
270.0
 51
0.0
  0
LINE
  5
51D
  8
DETAIL
  6
CONTINUOUS
 62
     5
 39
50.0
 10
-113.82526899999991
 20
-105.169355
 30
0.0
 11
-119.88440900000001
 21
-105.169355
 31
0.0
  0
LINE
  5
51E
  8
DETAIL
  6
CONTINUOUS
 62
     5
 39
50.0
 10
-122.4811829999999
 20
-105.169355
 30
0.0
 11
-128.540323
 21
-105.169355
 31
0.0
  0
LINE
  5
51F
  8
DETAIL
  6
CONTINUOUS
 62
     5
 39
50.0
 10
-105.169355
 20
-105.169355
 30
0.0
 11
-111.228495
 21
-105.169355
 31
0.0
  0
LINE
  5
520
  8
DETAIL
  6
CONTINUOUS
 62
     5
 39
50.0
 10
-111.228495
 20
-142.82258100000001
 30
0.0
 11
-105.169355
 21
-142.82258100000001
 31
0.0
  0
ARC
  5
521
  8
DETAIL
  6
CONTINUOUS
 62
     5
 39
50.0
 10
-54.532257999999999
 20
-148.4446879999999
 30
0.0
 40
1.298387
 50
270.0
 51
0.0
  0
ARC
  5
522
  8
DETAIL
  6
CONTINUOUS
 62
     5
 39
50.0
 10
-54.532257999999999
 20
-147.13828000000001
 30
0.0
 40
1.298387
 50
270.0
 51
0.0
  0
LINE
  5
523
  8
DETAIL
  6
CONTINUOUS
 62
     5
 39
50.0
 10
-53.233871000000001
 20
-105.169355
 30
0.0
 11
-59.293010999999993
 21
-105.169355
 31
0.0
  0
ARC
  5
524
  8
DETAIL
  6
CONTINUOUS
 62
     5
 39
50.0
 10
0.0
 20
0.0
 30
0.0
 40
141.09139799999991
 50
245.1499179999999
 51
247.83342400000001
  0
LINE
  5
525
  8
DETAIL
  6
CONTINUOUS
 62
     5
 39
50.0
 10
-59.293010999999993
 20
-142.82258100000001
 30
0.0
 11
-53.233871000000001
 21
-142.82258100000001
 31
0.0
  0
LINE
  5
526
  8
DETAIL
  6
CONTINUOUS
 62
     5
 39
50.0
 10
-66.650537999999983
 20
-149.743075
 30
0.0
 11
-63.18817199999998
 21
-149.743075
 31
0.0
  0
LINE
  5
527
  8
DETAIL
  6
CONTINUOUS
 62
     5
 39
50.0
 10
-66.650537999999983
 20
-148.4366669999998
 30
0.0
 11
-63.18817199999998
 21
-148.4366669999998
 31
0.0
  0
ARC
  5
528
  8
DETAIL
  6
CONTINUOUS
 62
     5
 39
50.0
 10
-64.91935500000001
 20
-149.74731199999991
 30
0.0
 40
1.947581
 50
42.29598399999999
 51
137.70401599999991
  0
ARC
  5
529
  8
DETAIL
  6
CONTINUOUS
 62
     5
 39
50.0
 10
-101.2741939999998
 20
-148.4446879999999
 30
0.0
 40
1.298387
 50
180.0
 51
270.0
  0
LINE
  5
52A
  8
DETAIL
  6
CONTINUOUS
 62
     5
 39
50.0
 10
-101.2741939999998
 20
-149.743075
 30
0.0
 11
-97.811828000000006
 21
-149.743075
 31
0.0
  0
ARC
  5
52B
  8
DETAIL
  6
CONTINUOUS
 62
     5
 39
50.0
 10
-101.2741939999998
 20
-147.13828000000001
 30
0.0
 40
1.298387
 50
180.0
 51
270.0
  0
LINE
  5
52C
  8
DETAIL
  6
CONTINUOUS
 62
     5
 39
50.0
 10
-101.2741939999998
 20
-148.4366669999998
 30
0.0
 11
-97.811828000000006
 21
-148.4366669999998
 31
0.0
  0
ARC
  5
52D
  8
DETAIL
  6
CONTINUOUS
 62
     5
 39
50.0
 10
-97.811828000000006
 20
-148.4446879999999
 30
0.0
 40
1.298387
 50
270.0
 51
0.0
  0
ARC
  5
52E
  8
DETAIL
  6
CONTINUOUS
 62
     5
 39
50.0
 10
-97.811828000000006
 20
-147.13828000000001
 30
0.0
 40
1.298387
 50
270.0
 51
0.0
  0
ARC
  5
52F
  8
DETAIL
  6
CONTINUOUS
 62
     5
 39
50.0
 10
-92.618279999999984
 20
-148.4446879999999
 30
0.0
 40
1.298387
 50
180.0
 51
270.0
  0
LINE
  5
530
  8
DETAIL
  6
CONTINUOUS
 62
     5
 39
50.0
 10
-92.618279999999984
 20
-149.743075
 30
0.0
 11
-89.155913999999981
 21
-149.743075
 31
0.0
  0
ARC
  5
531
  8
DETAIL
  6
CONTINUOUS
 62
     5
 39
50.0
 10
-92.618279999999984
 20
-147.13828000000001
 30
0.0
 40
1.298387
 50
180.0
 51
270.0
  0
LINE
  5
532
  8
DETAIL
  6
CONTINUOUS
 62
     5
 39
50.0
 10
-92.618279999999984
 20
-148.4366669999998
 30
0.0
 11
-89.155913999999981
 21
-148.4366669999998
 31
0.0
  0
ARC
  5
533
  8
DETAIL
  6
CONTINUOUS
 62
     5
 39
50.0
 10
-89.155913999999981
 20
-148.4446879999999
 30
0.0
 40
1.298387
 50
270.0
 51
0.0
  0
ARC
  5
534
  8
DETAIL
  6
CONTINUOUS
 62
     5
 39
50.0
 10
-89.155913999999981
 20
-147.13828000000001
 30
0.0
 40
1.298387
 50
270.0
 51
0.0
  0
ARC
  5
535
  8
DETAIL
  6
CONTINUOUS
 62
     5
 39
50.0
 10
-83.962365999999989
 20
-148.4446879999999
 30
0.0
 40
1.298387
 50
180.0
 51
270.0
  0
LINE
  5
536
  8
DETAIL
  6
CONTINUOUS
 62
     5
 39
50.0
 10
-83.962365999999989
 20
-149.743075
 30
0.0
 11
-80.5
 21
-149.743075
 31
0.0
  0
ARC
  5
537
  8
DETAIL
  6
CONTINUOUS
 62
     5
 39
50.0
 10
-83.962365999999989
 20
-147.13828000000001
 30
0.0
 40
1.298387
 50
180.0
 51
270.0
  0
LINE
  5
538
  8
DETAIL
  6
CONTINUOUS
 62
     5
 39
50.0
 10
-83.962365999999989
 20
-148.4366669999998
 30
0.0
 11
-80.5
 21
-148.4366669999998
 31
0.0
  0
ARC
  5
539
  8
DETAIL
  6
CONTINUOUS
 62
     5
 39
50.0
 10
-80.5
 20
-148.4446879999999
 30
0.0
 40
1.298387
 50
270.0
 51
0.0
  0
ARC
  5
53A
  8
DETAIL
  6
CONTINUOUS
 62
     5
 39
50.0
 10
-80.5
 20
-147.13828000000001
 30
0.0
 40
1.298387
 50
270.0
 51
0.0
  0
ARC
  5
53B
  8
DETAIL
  6
CONTINUOUS
 62
     5
 39
50.0
 10
-75.306451999999993
 20
-148.4446879999999
 30
0.0
 40
1.298387
 50
180.0
 51
270.0
  0
LINE
  5
53C
  8
DETAIL
  6
CONTINUOUS
 62
     5
 39
50.0
 10
-75.306451999999993
 20
-149.743075
 30
0.0
 11
-71.844086000000004
 21
-149.743075
 31
0.0
  0
ARC
  5
53D
  8
DETAIL
  6
CONTINUOUS
 62
     5
 39
50.0
 10
-75.306451999999993
 20
-147.13828000000001
 30
0.0
 40
1.298387
 50
180.0
 51
270.0
  0
LINE
  5
53E
  8
DETAIL
  6
CONTINUOUS
 62
     5
 39
50.0
 10
-75.306451999999993
 20
-148.4366669999998
 30
0.0
 11
-71.844086000000004
 21
-148.4366669999998
 31
0.0
  0
ARC
  5
53F
  8
DETAIL
  6
CONTINUOUS
 62
     5
 39
50.0
 10
-71.844086000000004
 20
-148.4446879999999
 30
0.0
 40
1.298387
 50
270.0
 51
0.0
  0
ARC
  5
540
  8
DETAIL
  6
CONTINUOUS
 62
     5
 39
50.0
 10
-71.844086000000004
 20
-147.13828000000001
 30
0.0
 40
1.298387
 50
270.0
 51
0.0
  0
ARC
  5
541
  8
DETAIL
  6
CONTINUOUS
 62
     5
 39
50.0
 10
-66.650537999999983
 20
-148.4446879999999
 30
0.0
 40
1.298387
 50
180.0
 51
270.0
  0
ARC
  5
542
  8
DETAIL
  6
CONTINUOUS
 62
     5
 39
50.0
 10
-66.650537999999983
 20
-147.13828000000001
 30
0.0
 40
1.298387
 50
180.0
 51
270.0
  0
LINE
  5
543
  8
DETAIL
  6
CONTINUOUS
 62
     5
 39
50.0
 10
-93.137635000000003
 20
-147.58333400000001
 30
0.0
 11
-93.137635000000003
 21
-148.328271
 31
0.0
  0
LINE
  5
544
  8
DETAIL
  6
CONTINUOUS
 62
     5
 39
50.0
 10
-88.636558999999977
 20
-147.58333400000001
 30
0.0
 11
-88.636558999999977
 21
-148.328271
 31
0.0
  0
LINE
  5
545
  8
DETAIL
  6
CONTINUOUS
 62
     5
 39
50.0
 10
-93.137635000000003
 20
-147.58333400000001
 30
0.0
 11
-88.636558999999977
 21
-147.58333400000001
 31
0.0
  0
ARC
  5
546
  8
DETAIL
  6
CONTINUOUS
 62
     5
 39
50.0
 10
-63.18817199999998
 20
-148.4446879999999
 30
0.0
 40
1.298387
 50
270.0
 51
0.0
  0
ARC
  5
547
  8
DETAIL
  6
CONTINUOUS
 62
     5
 39
50.0
 10
-63.18817199999998
 20
-147.13828000000001
 30
0.0
 40
1.298387
 50
270.0
 51
0.0
  0
ARC
  5
548
  8
DETAIL
  6
CONTINUOUS
 62
     5
 39
50.0
 10
-57.994624000000002
 20
-148.4446879999999
 30
0.0
 40
1.298387
 50
180.0
 51
270.0
  0
LINE
  5
549
  8
DETAIL
  6
CONTINUOUS
 62
     5
 39
50.0
 10
-57.994624000000002
 20
-149.743075
 30
0.0
 11
-54.532257999999999
 21
-149.743075
 31
0.0
  0
ARC
  5
54A
  8
DETAIL
  6
CONTINUOUS
 62
     5
 39
50.0
 10
-57.994624000000002
 20
-147.13828000000001
 30
0.0
 40
1.298387
 50
180.0
 51
270.0
  0
LINE
  5
54B
  8
DETAIL
  6
CONTINUOUS
 62
     5
 39
50.0
 10
-57.994624000000002
 20
-148.4366669999998
 30
0.0
 11
-54.532257999999999
 21
-148.4366669999998
 31
0.0
  0
LINE
  5
54C
  8
DETAIL
  6
CONTINUOUS
 62
     5
 39
50.0
 10
-61.88978500000001
 20
-105.169355
 30
0.0
 11
-67.948925000000003
 21
-105.169355
 31
0.0
  0
ARC
  5
54D
  8
DETAIL
  6
CONTINUOUS
 62
     5
 39
50.0
 10
0.0
 20
0.0
 30
0.0
 40
141.09139799999991
 50
241.2103679999999
 51
243.98220299999991
  0
LINE
  5
54E
  8
DETAIL
  6
CONTINUOUS
 62
     5
 39
50.0
 10
-67.948925000000003
 20
-142.82258100000001
 30
0.0
 11
-61.88978500000001
 21
-142.82258100000001
 31
0.0
  0
LINE
  5
54F
  8
DETAIL
  6
CONTINUOUS
 62
     5
 39
50.0
 10
-96.513441000000014
 20
-105.169355
 30
0.0
 11
-102.5725809999999
 21
-105.169355
 31
0.0
  0
LINE
  5
550
  8
DETAIL
  6
CONTINUOUS
 62
     5
 39
50.0
 10
-87.857527000000005
 20
-105.169355
 30
0.0
 11
-93.916667000000004
 21
-105.169355
 31
0.0
  0
LINE
  5
551
  8
DETAIL
  6
CONTINUOUS
 62
     5
 39
50.0
 10
-79.201612999999981
 20
-105.169355
 30
0.0
 11
-85.26075299999998
 21
-105.169355
 31
0.0
  0
LINE
  5
552
  8
DETAIL
  6
CONTINUOUS
 62
     5
 39
50.0
 10
-70.545698999999999
 20
-105.169355
 30
0.0
 11
-76.604838999999998
 21
-105.169355
 31
0.0
  0
ARC
  5
553
  8
DETAIL
  6
CONTINUOUS
 62
     5
 39
50.0
 10
0.0
 20
0.0
 30
0.0
 40
141.09139799999991
 50
237.11567099999999
 51
239.99999999999989
  0
ARC
  5
554
  8
DETAIL
  6
CONTINUOUS
 62
     5
 39
50.0
 10
0.0
 20
0.0
 30
0.0
 40
141.09139799999991
 50
232.82191
 51
235.85080999999991
  0
ARC
  5
555
  8
DETAIL
  6
CONTINUOUS
 62
     5
 39
50.0
 10
0.0
 20
0.0
 30
0.0
 40
141.09139799999991
 50
228.19336200000001
 51
231.4864729999999
  0
LINE
  5
556
  8
DETAIL
  6
CONTINUOUS
 62
     5
 39
50.0
 10
-102.5725809999999
 20
-142.82258100000001
 30
0.0
 11
-96.513441000000014
 21
-142.82258100000001
 31
0.0
  0
LINE
  5
557
  8
DETAIL
  6
CONTINUOUS
 62
     5
 39
50.0
 10
-93.916667000000004
 20
-142.82258100000001
 30
0.0
 11
-87.857527000000005
 21
-142.82258100000001
 31
0.0
  0
LINE
  5
558
  8
DETAIL
  6
CONTINUOUS
 62
     5
 39
50.0
 10
-85.26075299999998
 20
-142.82258100000001
 30
0.0
 11
-79.201612999999981
 21
-142.82258100000001
 31
0.0
  0
LINE
  5
559
  8
DETAIL
  6
CONTINUOUS
 62
     5
 39
50.0
 10
-76.604838999999998
 20
-142.82258100000001
 30
0.0
 11
-70.545698999999999
 21
-142.82258100000001
 31
0.0
  0
LINE
  5
55A
  8
DETAIL
  6
CONTINUOUS
 62
     5
 39
50.0
 10
-14.715054
 20
-149.743075
 30
0.0
 11
-11.25268799999999
 21
-149.743075
 31
0.0
  0
LINE
  5
55B
  8
DETAIL
  6
CONTINUOUS
 62
     5
 39
50.0
 10
-14.715054
 20
-148.4366669999998
 30
0.0
 11
-11.25268799999999
 21
-148.4366669999998
 31
0.0
  0
ARC
  5
55C
  8
DETAIL
  6
CONTINUOUS
 62
     5
 39
50.0
 10
-49.338709999999992
 20
-148.4446879999999
 30
0.0
 40
1.298387
 50
180.0
 51
270.0
  0
LINE
  5
55D
  8
DETAIL
  6
CONTINUOUS
 62
     5
 39
50.0
 10
-49.338709999999992
 20
-149.743075
 30
0.0
 11
-45.876344000000003
 21
-149.743075
 31
0.0
  0
ARC
  5
55E
  8
DETAIL
  6
CONTINUOUS
 62
     5
 39
50.0
 10
-49.338709999999992
 20
-147.13828000000001
 30
0.0
 40
1.298387
 50
180.0
 51
270.0
  0
LINE
  5
55F
  8
DETAIL
  6
CONTINUOUS
 62
     5
 39
50.0
 10
-49.338709999999992
 20
-148.4366669999998
 30
0.0
 11
-45.876344000000003
 21
-148.4366669999998
 31
0.0
  0
ARC
  5
560
  8
DETAIL
  6
CONTINUOUS
 62
     5
 39
50.0
 10
-45.876344000000003
 20
-148.4446879999999
 30
0.0
 40
1.298387
 50
270.0
 51
0.0
  0
ARC
  5
561
  8
DETAIL
  6
CONTINUOUS
 62
     5
 39
50.0
 10
-45.876344000000003
 20
-147.13828000000001
 30
0.0
 40
1.298387
 50
270.0
 51
0.0
  0
ARC
  5
562
  8
DETAIL
  6
CONTINUOUS
 62
     5
 39
50.0
 10
-40.682796000000003
 20
-148.4446879999999
 30
0.0
 40
1.298387
 50
180.0
 51
270.0
  0
LINE
  5
563
  8
DETAIL
  6
CONTINUOUS
 62
     5
 39
50.0
 10
-40.682796000000003
 20
-149.743075
 30
0.0
 11
-37.22043
 21
-149.743075
 31
0.0
  0
ARC
  5
564
  8
DETAIL
  6
CONTINUOUS
 62
     5
 39
50.0
 10
-40.682796000000003
 20
-147.13828000000001
 30
0.0
 40
1.298387
 50
180.0
 51
270.0
  0
LINE
  5
565
  8
DETAIL
  6
CONTINUOUS
 62
     5
 39
50.0
 10
-40.682796000000003
 20
-148.4366669999998
 30
0.0
 11
-37.22043
 21
-148.4366669999998
 31
0.0
  0
ARC
  5
566
  8
DETAIL
  6
CONTINUOUS
 62
     5
 39
50.0
 10
-37.22043
 20
-148.4446879999999
 30
0.0
 40
1.298387
 50
270.0
 51
0.0
  0
ARC
  5
567
  8
DETAIL
  6
CONTINUOUS
 62
     5
 39
50.0
 10
-37.22043
 20
-147.13828000000001
 30
0.0
 40
1.298387
 50
270.0
 51
0.0
  0
ARC
  5
568
  8
DETAIL
  6
CONTINUOUS
 62
     5
 39
50.0
 10
-32.026882000000001
 20
-148.4446879999999
 30
0.0
 40
1.298387
 50
180.0
 51
270.0
  0
LINE
  5
569
  8
DETAIL
  6
CONTINUOUS
 62
     5
 39
50.0
 10
-32.026882000000001
 20
-149.743075
 30
0.0
 11
-28.56451599999999
 21
-149.743075
 31
0.0
  0
ARC
  5
56A
  8
DETAIL
  6
CONTINUOUS
 62
     5
 39
50.0
 10
-32.026882000000001
 20
-147.13828000000001
 30
0.0
 40
1.298387
 50
180.0
 51
270.0
  0
LINE
  5
56B
  8
DETAIL
  6
CONTINUOUS
 62
     5
 39
50.0
 10
-32.026882000000001
 20
-148.4366669999998
 30
0.0
 11
-28.56451599999999
 21
-148.4366669999998
 31
0.0
  0
ARC
  5
56C
  8
DETAIL
  6
CONTINUOUS
 62
     5
 39
50.0
 10
-28.56451599999999
 20
-148.4446879999999
 30
0.0
 40
1.298387
 50
270.0
 51
0.0
  0
ARC
  5
56D
  8
DETAIL
  6
CONTINUOUS
 62
     5
 39
50.0
 10
-28.56451599999999
 20
-147.13828000000001
 30
0.0
 40
1.298387
 50
270.0
 51
0.0
  0
ARC
  5
56E
  8
DETAIL
  6
CONTINUOUS
 62
     5
 39
50.0
 10
-23.37096799999998
 20
-148.4446879999999
 30
0.0
 40
1.298387
 50
180.0
 51
270.0
  0
LINE
  5
56F
  8
DETAIL
  6
CONTINUOUS
 62
     5
 39
50.0
 10
-23.37096799999998
 20
-149.743075
 30
0.0
 11
-19.908601999999998
 21
-149.743075
 31
0.0
  0
ARC
  5
570
  8
DETAIL
  6
CONTINUOUS
 62
     5
 39
50.0
 10
-23.37096799999998
 20
-147.13828000000001
 30
0.0
 40
1.298387
 50
180.0
 51
270.0
  0
LINE
  5
571
  8
DETAIL
  6
CONTINUOUS
 62
     5
 39
50.0
 10
-23.37096799999998
 20
-148.4366669999998
 30
0.0
 11
-19.908601999999998
 21
-148.4366669999998
 31
0.0
  0
ARC
  5
572
  8
DETAIL
  6
CONTINUOUS
 62
     5
 39
50.0
 10
-19.908601999999998
 20
-148.4446879999999
 30
0.0
 40
1.298387
 50
270.0
 51
0.0
  0
ARC
  5
573
  8
DETAIL
  6
CONTINUOUS
 62
     5
 39
50.0
 10
-19.908601999999998
 20
-147.13828000000001
 30
0.0
 40
1.298387
 50
270.0
 51
0.0
  0
ARC
  5
574
  8
DETAIL
  6
CONTINUOUS
 62
     5
 39
50.0
 10
-14.715054
 20
-148.4446879999999
 30
0.0
 40
1.298387
 50
180.0
 51
270.0
  0
ARC
  5
575
  8
DETAIL
  6
CONTINUOUS
 62
     5
 39
50.0
 10
-14.715054
 20
-147.13828000000001
 30
0.0
 40
1.298387
 50
180.0
 51
270.0
  0
ARC
  5
576
  8
DETAIL
  6
CONTINUOUS
 62
     5
 39
50.0
 10
-11.25268799999999
 20
-148.4446879999999
 30
0.0
 40
1.298387
 50
270.0
 51
0.0
  0
ARC
  5
577
  8
DETAIL
  6
CONTINUOUS
 62
     5
 39
50.0
 10
-11.25268799999999
 20
-147.13828000000001
 30
0.0
 40
1.298387
 50
270.0
 51
0.0
  0
ARC
  5
578
  8
DETAIL
  6
CONTINUOUS
 62
     5
 39
50.0
 10
-6.0591400000000002
 20
-148.4446879999999
 30
0.0
 40
1.298387
 50
180.0
 51
270.0
  0
ARC
  5
579
  8
DETAIL
  6
CONTINUOUS
 62
     5
 39
50.0
 10
-6.0591400000000002
 20
-147.13828000000001
 30
0.0
 40
1.298387
 50
180.0
 51
270.0
  0
LINE
  5
57A
  8
DETAIL
  6
CONTINUOUS
 62
     5
 39
50.0
 10
-9.9543009999999992
 20
-105.169355
 30
0.0
 11
-16.013441
 21
-105.169355
 31
0.0
  0
ARC
  5
57B
  8
DETAIL
  6
CONTINUOUS
 62
     5
 39
50.0
 10
0.0
 20
0.0
 30
0.0
 40
141.09139799999991
 50
263.48306200000002
 51
265.95429899999988
  0
ARC
  5
57C
  8
DETAIL
  6
CONTINUOUS
 62
     5
 39
50.0
 10
0.0
 20
0.0
 30
0.0
 40
115.989248
 50
262.06441499999988
 51
265.07676900000001
  0
ARC
  5
57D
  8
DETAIL
  6
CONTINUOUS
 62
     5
 39
50.0
 10
0.0
 20
0.0
 30
0.0
 40
112.526882
 50
261.81859500000002
 51
264.924893
  0
LINE
  5
57E
  8
DETAIL
  6
CONTINUOUS
 62
     5
 39
50.0
 10
-16.013441
 20
-142.82258100000001
 30
0.0
 11
-9.9543009999999992
 21
-142.82258100000001
 31
0.0
  0
LINE
  5
57F
  8
DETAIL
  6
CONTINUOUS
 62
     5
 39
50.0
 10
-44.577956999999998
 20
-105.169355
 30
0.0
 11
-50.637096999999997
 21
-105.169355
 31
0.0
  0
LINE
  5
580
  8
DETAIL
  6
CONTINUOUS
 62
     5
 39
50.0
 10
-35.922043000000002
 20
-105.169355
 30
0.0
 11
-41.981182999999987
 21
-105.169355
 31
0.0
  0
LINE
  5
581
  8
DETAIL
  6
CONTINUOUS
 62
     5
 39
50.0
 10
-27.266128999999999
 20
-105.169355
 30
0.0
 11
-33.325268999999992
 21
-105.169355
 31
0.0
  0
LINE
  5
582
  8
DETAIL
  6
CONTINUOUS
 62
     5
 39
50.0
 10
-18.610215
 20
-105.169355
 30
0.0
 11
-24.669354999999989
 21
-105.169355
 31
0.0
  0
ARC
  5
583
  8
DETAIL
  6
CONTINUOUS
 62
     5
 39
50.0
 10
0.0
 20
0.0
 30
0.0
 40
141.09139799999991
 50
259.93026700000001
 51
262.42049400000002
  0
ARC
  5
584
  8
DETAIL
  6
CONTINUOUS
 62
     5
 39
50.0
 10
0.0
 20
0.0
 30
0.0
 40
141.09139799999991
 50
256.33784800000001
 51
258.85739899999987
  0
ARC
  5
585
  8
DETAIL
  6
CONTINUOUS
 62
     5
 39
50.0
 10
0.0
 20
0.0
 30
0.0
 40
141.09139799999991
 50
252.68972999999991
 51
255.25004300000001
  0
ARC
  5
586
  8
DETAIL
  6
CONTINUOUS
 62
     5
 39
50.0
 10
0.0
 20
0.0
 30
0.0
 40
141.09139799999991
 50
248.96760699999999
 51
251.58176999999989
  0
ARC
  5
587
  8
DETAIL
  6
CONTINUOUS
 62
     5
 39
50.0
 10
0.0
 20
0.0
 30
0.0
 40
115.989248
 50
245.0554569999999
 51
247.39794999999989
  0
ARC
  5
588
  8
DETAIL
  6
CONTINUOUS
 62
     5
 39
50.0
 10
0.0
 20
0.0
 30
0.0
 40
115.989248
 50
248.780596
 51
251.95875799999999
  0
ARC
  5
589
  8
DETAIL
  6
CONTINUOUS
 62
     5
 39
50.0
 10
0.0
 20
0.0
 30
0.0
 40
115.989248
 50
253.30281699999981
 51
256.40397799999982
  0
ARC
  5
58A
  8
DETAIL
  6
CONTINUOUS
 62
     5
 39
50.0
 10
0.0
 20
0.0
 30
0.0
 40
115.989248
 50
257.72016099999991
 51
260.76711299999988
  0
ARC
  5
58B
  8
DETAIL
  6
CONTINUOUS
 62
     5
 39
50.0
 10
0.0
 20
0.0
 30
0.0
 40
112.526882
 50
252.77325999999999
 51
255.97721799999991
  0
ARC
  5
58C
  8
DETAIL
  6
CONTINUOUS
 62
     5
 39
50.0
 10
0.0
 20
0.0
 30
0.0
 40
112.526882
 50
257.33614399999982
 51
260.48042199999992
  0
ARC
  5
58D
  8
DETAIL
  6
CONTINUOUS
 62
     5
 39
50.0
 10
-35.456513000000001
 20
-102.224474
 30
0.0
 40
4.3279569999999987
 50
222.87742600000001
 51
250.8709199999999
  0
ARC
  5
58E
  8
DETAIL
  6
CONTINUOUS
 62
     5
 39
50.0
 10
0.0
 20
0.0
 30
0.0
 40
112.526882
 50
250.8709199999999
 51
251.383589
  0
LINE
  5
58F
  8
DETAIL
  6
CONTINUOUS
 62
     5
 39
50.0
 10
-45.010725999999991
 20
-105.169355
 30
0.0
 11
-45.010725999999991
 21
-106.89967300000001
 31
0.0
  0
LINE
  5
590
  8
DETAIL
  6
CONTINUOUS
 62
     5
 39
50.0
 10
-36.354812000000003
 20
-106.4923789999999
 30
0.0
 11
-36.354812000000003
 21
-110.1446009999998
 31
0.0
  0
LINE
  5
591
  8
DETAIL
  6
CONTINUOUS
 62
     5
 39
50.0
 10
-50.637096999999997
 20
-142.82258100000001
 30
0.0
 11
-44.577956999999998
 21
-142.82258100000001
 31
0.0
  0
LINE
  5
592
  8
DETAIL
  6
CONTINUOUS
 62
     5
 39
50.0
 10
-41.981182999999987
 20
-142.82258100000001
 30
0.0
 11
-35.922043000000002
 21
-142.82258100000001
 31
0.0
  0
LINE
  5
593
  8
DETAIL
  6
CONTINUOUS
 62
     5
 39
50.0
 10
-33.325268999999992
 20
-142.82258100000001
 30
0.0
 11
-27.266128999999999
 21
-142.82258100000001
 31
0.0
  0
LINE
  5
594
  8
DETAIL
  6
CONTINUOUS
 62
     5
 39
50.0
 10
-24.669354999999989
 20
-142.82258100000001
 30
0.0
 11
-18.610215
 21
-142.82258100000001
 31
0.0
  0
ARC
  5
595
  8
DETAIL
  6
CONTINUOUS
 62
     5
 39
50.0
 10
0.0
 20
0.0
 30
0.0
 40
115.989248
 50
196.472645
 51
204.94454300000001
  0
ARC
  5
596
  8
DETAIL
  6
CONTINUOUS
 62
     5
 39
50.0
 10
0.0
 20
0.0
 30
0.0
 40
112.526882
 50
188.712245
 51
200.83390399999999
  0
LINE
  5
597
  8
DETAIL
  6
CONTINUOUS
 62
     5
 39
50.0
 10
-119.88440900000001
 20
-102.5725809999999
 30
0.0
 11
-113.795979
 21
-102.5725809999999
 31
0.0
  0
ARC
  5
598
  8
DETAIL
  6
CONTINUOUS
 62
     5
 39
50.0
 10
0.0
 20
0.0
 30
0.0
 40
141.09139799999991
 50
211.82167899999999
 51
216.2205469999999
  0
LINE
  5
599
  8
DETAIL
  6
CONTINUOUS
 62
     5
 39
50.0
 10
-128.540323
 20
-102.5725809999999
 30
0.0
 11
-122.451893
 21
-102.5725809999999
 31
0.0
  0
ARC
  5
59A
  8
DETAIL
  6
CONTINUOUS
 62
     5
 39
50.0
 10
0.0
 20
0.0
 30
0.0
 40
141.09139799999991
 50
204.3501209999998
 51
209.76161999999991
  0
LINE
  5
59B
  8
DETAIL
  6
CONTINUOUS
 62
     5
 39
50.0
 10
-111.228495
 20
-102.5725809999999
 30
0.0
 11
-105.14006499999979
 21
-102.5725809999999
 31
0.0
  0
ARC
  5
59C
  8
DETAIL
  6
CONTINUOUS
 62
     5
 39
50.0
 10
0.0
 20
0.0
 30
0.0
 40
141.09139799999991
 50
217.96901699999981
 51
221.80663799999999
  0
ARC
  5
59D
  8
DETAIL
  6
CONTINUOUS
 62
     5
 39
50.0
 10
0.0
 20
0.0
 30
0.0
 40
36.354838999999998
 50
243.86573199999989
 51
254.10891799999999
  0
ARC
  5
59E
  8
DETAIL
  6
CONTINUOUS
 62
     5
 39
50.0
 10
0.0
 20
0.0
 30
0.0
 40
35.28667699999999
 50
243.011617
 51
253.61453999999981
  0
ARC
  5
59F
  8
DETAIL
  6
CONTINUOUS
 62
     5
 39
50.0
 10
42.493864000000002
 20
-46.555602
 30
0.0
 40
102.48602199999991
 50
172.04702
 51
173.30367200000001
  0
ARC
  5
5A0
  8
DETAIL
  6
CONTINUOUS
 62
     5
 39
50.0
 10
42.493864000000002
 20
-46.555602
 30
0.0
 40
102.48602199999991
 50
186.69632799999991
 51
200.923753
  0
LINE
  5
5A1
  8
DETAIL
  6
CONTINUOUS
 62
     5
 39
50.0
 10
-59.293010999999993
 20
-102.5725809999999
 30
0.0
 11
-53.20458099999999
 21
-102.5725809999999
 31
0.0
  0
ARC
  5
5A2
  8
DETAIL
  6
CONTINUOUS
 62
     5
 39
50.0
 10
-53.056986000000002
 20
-94.297208999999995
 30
0.0
 40
4.3279569999999987
 50
240.63541299999989
 51
267.65765399999992
  0
ARC
  5
5A3
  8
DETAIL
  6
CONTINUOUS
 62
     5
 39
50.0
 10
0.0
 20
0.0
 30
0.0
 40
115.989248
 50
215.933223
 51
220.7589779999999
  0
LINE
  5
5A4
  8
DETAIL
  6
CONTINUOUS
 62
     5
 39
50.0
 10
-67.948925000000003
 20
-102.5725809999999
 30
0.0
 11
-61.860494999999993
 21
-102.5725809999999
 31
0.0
  0
ARC
  5
5A5
  8
DETAIL
  6
CONTINUOUS
 62
     5
 39
50.0
 10
0.0
 20
0.0
 30
0.0
 40
115.989248
 50
234.13899599999991
 51
237.752197
  0
ARC
  5
5A6
  8
DETAIL
  6
CONTINUOUS
 62
     5
 39
50.0
 10
0.0
 20
0.0
 30
0.0
 40
112.526882
 50
232.854142
 51
236.63298700000001
  0
LINE
  5
5A7
  8
DETAIL
  6
CONTINUOUS
 62
     5
 39
50.0
 10
-102.5725809999999
 20
-102.5725809999999
 30
0.0
 11
-96.484151000000011
 21
-102.5725809999999
 31
0.0
  0
LINE
  5
5A8
  8
DETAIL
  6
CONTINUOUS
 62
     5
 39
50.0
 10
-93.916667000000004
 20
-102.5725809999999
 30
0.0
 11
-87.828236999999987
 21
-102.5725809999999
 31
0.0
  0
LINE
  5
5A9
  8
DETAIL
  6
CONTINUOUS
 62
     5
 39
50.0
 10
-85.26075299999998
 20
-102.5725809999999
 30
0.0
 11
-79.172322999999977
 21
-102.5725809999999
 31
0.0
  0
LINE
  5
5AA
  8
DETAIL
  6
CONTINUOUS
 62
     5
 39
50.0
 10
-76.604838999999998
 20
-102.5725809999999
 30
0.0
 11
-70.516408999999996
 21
-102.5725809999999
 31
0.0
  0
ARC
  5
5AB
  8
DETAIL
  6
CONTINUOUS
 62
     5
 39
50.0
 10
0.0
 20
0.0
 30
0.0
 40
141.09139799999991
 50
223.3650319999999
 51
226.6349679999999
  0
ARC
  5
5AC
  8
DETAIL
  6
CONTINUOUS
 62
     5
 39
50.0
 10
0.0
 20
0.0
 30
0.0
 40
115.989248
 50
222.68647799999991
 51
226.93435600000001
  0
ARC
  5
5AD
  8
DETAIL
  6
CONTINUOUS
 62
     5
 39
50.0
 10
0.0
 20
0.0
 30
0.0
 40
115.989248
 50
228.66596899999999
 51
232.5398889999999
  0
ARC
  5
5AE
  8
DETAIL
  6
CONTINUOUS
 62
     5
 39
50.0
 10
0.0
 20
0.0
 30
0.0
 40
112.526882
 50
220.738823
 51
225.26359799999989
  0
ARC
  5
5AF
  8
DETAIL
  6
CONTINUOUS
 62
     5
 39
50.0
 10
0.0
 20
0.0
 30
0.0
 40
112.526882
 50
227.096217
 51
231.176524
  0
ARC
  5
5B0
  8
DETAIL
  6
CONTINUOUS
 62
     5
 39
50.0
 10
0.0
 20
0.0
 30
0.0
 40
115.989248
 50
239.25660400000001
 51
242.168982
  0
ARC
  5
5B1
  8
DETAIL
  6
CONTINUOUS
 62
     5
 39
50.0
 10
0.0
 20
0.0
 30
0.0
 40
112.526882
 50
238.20220599999999
 51
240.63541299999989
  0
ARC
  5
5B2
  8
DETAIL
  6
CONTINUOUS
 62
     5
 39
50.0
 10
0.0
 20
0.0
 30
0.0
 40
115.989248
 50
207.83101799999989
 51
213.68601200000001
  0
ARC
  5
5B3
  8
DETAIL
  6
CONTINUOUS
 62
     5
 39
50.0
 10
0.0
 20
0.0
 30
0.0
 40
112.526882
 50
204.281171
 51
210.94154599999999
  0
ARC
  5
5B4
  8
DETAIL
  6
CONTINUOUS
 62
     5
 39
50.0
 10
0.0
 20
0.0
 30
0.0
 40
112.526882
 50
213.42418899999981
 51
218.66894099999999
  0
LINE
  5
5B5
  8
DETAIL
  6
CONTINUOUS
 62
     5
 39
50.0
 10
-16.013441
 20
-102.5725809999999
 30
0.0
 11
-9.9250109999999996
 21
-102.5725809999999
 31
0.0
  0
ARC
  5
5B6
  8
DETAIL
  6
CONTINUOUS
 62
     5
 39
50.0
 10
-21.639785
 20
0.0
 30
0.0
 40
39.817203999999997
 50
278.12332999999978
 51
287.06630999999982
  0
ARC
  5
5B7
  8
DETAIL
  6
CONTINUOUS
 62
     5
 39
50.0
 10
0.0
 20
0.0
 30
0.0
 40
36.78763499999998
 50
244.195989
 51
254.30072699999991
  0
ARC
  5
5B8
  8
DETAIL
  6
CONTINUOUS
 62
     5
 39
50.0
 10
41.310568999999987
 20
-62.233226999999999
 30
0.0
 40
90.887096999999997
 50
179.3580069999999
 51
199.09062999999981
  0
LINE
  5
5B9
  8
DETAIL
  6
CONTINUOUS
 62
     5
 39
50.0
 10
-50.637096999999997
 20
-102.5725809999999
 30
0.0
 11
-44.548667000000002
 21
-102.5725809999999
 31
0.0
  0
LINE
  5
5BA
  8
DETAIL
  6
CONTINUOUS
 62
     5
 39
50.0
 10
-41.981182999999987
 20
-102.5725809999999
 30
0.0
 11
-35.892752999999999
 21
-102.5725809999999
 31
0.0
  0
LINE
  5
5BB
  8
DETAIL
  6
CONTINUOUS
 62
     5
 39
50.0
 10
-33.325268999999992
 20
-102.5725809999999
 30
0.0
 11
-27.236839
 21
-102.5725809999999
 31
0.0
  0
LINE
  5
5BC
  8
DETAIL
  6
CONTINUOUS
 62
     5
 39
50.0
 10
-24.669354999999989
 20
-102.5725809999999
 30
0.0
 11
-18.580925000000001
 21
-102.5725809999999
 31
0.0
  0
ARC
  5
5BD
  8
DETAIL
  6
CONTINUOUS
 62
     5
 39
50.0
 10
42.493864000000002
 20
-46.555602
 30
0.0
 40
102.48602199999991
 50
204.67112299999999
 51
206.54882599999991
  0
ARC
  5
5BE
  8
DETAIL
  6
CONTINUOUS
 62
     5
 39
50.0
 10
-53.056986000000002
 20
-94.297208999999995
 30
0.0
 40
4.3279569999999987
 50
303.99563499999999
 51
26.548825999999998
  0
ARC
  5
5BF
  8
DETAIL
  6
CONTINUOUS
 62
     5
 39
50.0
 10
41.310568999999987
 20
-62.233226999999999
 30
0.0
 40
90.887096999999997
 50
203.59022999999999
 51
206.349164
  0
LINE
  5
5C0
  8
DETAIL
  6
CONTINUOUS
 62
     5
 39
50.0
 10
-45.010725999999991
 20
-90.677881999999997
 30
0.0
 11
-45.010725999999991
 21
-102.5725809999999
 31
0.0
  0
ARC
  5
5C1
  8
DETAIL
  6
CONTINUOUS
 62
     5
 39
50.0
 10
-21.639785
 20
0.0
 30
0.0
 40
39.817203999999997
 50
252.93369000000001
 51
261.87666999999999
  0
ARC
  5
5C2
  8
DETAIL
  6
CONTINUOUS
 62
     5
 39
50.0
 10
-21.639785
 20
0.0
 30
0.0
 40
39.817203999999997
 50
265.63632100000001
 51
274.36367899999999
  0
ARC
  5
5C3
  8
DETAIL
  6
CONTINUOUS
 62
     5
 39
50.0
 10
-21.639785
 20
0.0
 30
0.0
 40
39.817203999999997
 50
239.27823199999989
 51
248.97988699999999
  0
ARC
  5
5C4
  8
DETAIL
  6
CONTINUOUS
 62
     5
 39
50.0
 10
13.393169
 20
-60.171444999999999
 30
0.0
 40
62.322581000000007
 50
158.4626599999998
 51
162.53815399999999
  0
ARC
  5
5C5
  8
DETAIL
  6
CONTINUOUS
 62
     5
 39
50.0
 10
23.431208999999999
 20
-64.020211000000003
 30
0.0
 40
73.055914000000001
 50
162.02108999999999
 51
177.79930400000001
  0
ARC
  5
5C6
  8
DETAIL
  6
CONTINUOUS
 62
     5
 39
50.0
 10
-21.639785
 20
0.0
 30
0.0
 40
39.817203999999997
 50
291.02011299999992
 51
294.71985100000001
  0
ARC
  5
5C7
  8
DETAIL
  6
CONTINUOUS
 62
     5
 39
50.0
 10
4.235014999999998
 20
-56.304853000000001
 30
0.0
 40
67.862366000000009
 50
147.870125
 51
157.42215799999991
  0
ARC
  5
5C8
  8
DETAIL
  6
CONTINUOUS
 62
     5
 39
50.0
 10
-50.433781000000003
 20
-33.573231
 30
0.0
 40
8.6559139999999992
 50
157.42215799999991
 51
172.04702
  0
ARC
  5
5C9
  8
DETAIL
  6
CONTINUOUS
 62
     5
 39
50.0
 10
0.0
 20
0.0
 30
0.0
 40
32.881081999999992
 50
146.02018799999991
 51
213.97981200000001
  0
ARC
  5
5CA
  8
DETAIL
  6
CONTINUOUS
 62
     5
 39
50.0
 10
0.0
 20
0.0
 30
0.0
 40
32.881081999999992
 50
240.85570299999989
 51
252.37796700000001
  0
ARC
  5
5CB
  8
DETAIL
  6
CONTINUOUS
 62
     5
 39
50.0
 10
-13.031513
 20
-47.245930000000001
 30
0.0
 40
48.646236999999999
 50
130.42761200000001
 51
140.7647859999999
  0
ARC
  5
5CC
  8
DETAIL
  6
CONTINUOUS
 62
     5
 39
50.0
 10
0.0
 20
0.0
 30
0.0
 40
35.28667699999999
 50
199.19325699999999
 51
219.402739
  0
ARC
  5
5CD
  8
DETAIL
  6
CONTINUOUS
 62
     5
 39
50.0
 10
0.0
 20
0.0
 30
0.0
 40
36.354838999999998
 50
203.55646400000001
 51
221.40962200000001
  0
ARC
  5
5CE
  8
DETAIL
  6
CONTINUOUS
 62
     5
 39
50.0
 10
0.0
 20
0.0
 30
0.0
 40
36.78763499999998
 50
205.05761499999991
 51
222.16827099999989
  0
ARC
  5
5CF
  8
DETAIL
  6
CONTINUOUS
 62
     5
 39
50.0
 10
-16.547841999999989
 20
-43.483798
 30
0.0
 40
28.045161
 50
133.69517500000001
 51
150.83023799999981
  0
ARC
  5
5D0
  8
DETAIL
  6
CONTINUOUS
 62
     5
 39
50.0
 10
13.393169
 20
-60.171444999999999
 30
0.0
 40
62.322581000000007
 50
150.85037600000001
 51
152.68683799999999
  0
ARC
  5
5D1
  8
DETAIL
  6
CONTINUOUS
 62
     5
 39
50.0
 10
0.0
 20
0.0
 30
0.0
 40
35.28667699999999
 50
202.24624499999999
 51
219.402739
  0
ARC
  5
5D2
  8
DETAIL
  6
CONTINUOUS
 62
     5
 39
50.0
 10
0.0
 20
0.0
 30
0.0
 40
36.78763499999998
 50
205.05761499999991
 51
222.16827099999989
  0
ARC
  5
5D3
  8
DETAIL
  6
CONTINUOUS
 62
     5
 39
50.0
 10
0.0
 20
0.0
 30
0.0
 40
36.354838999999998
 50
203.55646400000001
 51
221.40962200000001
  0
ARC
  5
5D4
  8
DETAIL
  6
CONTINUOUS
 62
     5
 39
50.0
 10
0.0
 20
0.0
 30
0.0
 40
36.78763499999998
 50
227.887519
 51
239.61005800000001
  0
ARC
  5
5D5
  8
DETAIL
  6
CONTINUOUS
 62
     5
 39
50.0
 10
0.0
 20
0.0
 30
0.0
 40
36.354838999999998
 50
227.2678899999998
 51
239.20921200000001
  0
ARC
  5
5D6
  8
DETAIL
  6
CONTINUOUS
 62
     5
 39
50.0
 10
0.0
 20
0.0
 30
0.0
 40
35.28667699999999
 50
225.64416099999991
 51
238.17000699999991
  0
ARC
  5
5D7
  8
DETAIL
  6
CONTINUOUS
 62
     5
 39
50.0
 10
0.0
 20
0.0
 30
0.0
 40
32.881081999999992
 50
221.38710999999989
 51
235.529247
  0
ARC
  5
5D8
  8
DETAIL
  6
CONTINUOUS
 62
     5
 39
50.0
 10
0.0
 20
0.0
 30
0.0
 40
32.881081999999992
 50
201.94134500000001
 51
213.97981200000001
  0
ARC
  5
5D9
  8
DETAIL
  6
CONTINUOUS
 62
     5
 39
50.0
 10
0.0
 20
0.0
 30
0.0
 40
36.354838999999998
 50
105.8910819999999
 51
116.13426799999991
  0
ARC
  5
5DA
  8
DETAIL
  6
CONTINUOUS
 62
     5
 39
50.0
 10
0.0
 20
0.0
 30
0.0
 40
36.78763499999998
 50
105.69927299999991
 51
115.804011
  0
ARC
  5
5DB
  8
DETAIL
  6
CONTINUOUS
 62
     5
 39
50.0
 10
0.0
 20
0.0
 30
0.0
 40
35.28667699999999
 50
106.3854599999999
 51
116.988383
  0
ARC
  5
5DC
  8
DETAIL
  6
CONTINUOUS
 62
     5
 39
50.0
 10
0.0
 20
0.0
 30
0.0
 40
32.881081999999992
 50
107.6220329999999
 51
119.1442969999999
  0
ARC
  5
5DD
  8
DETAIL
  6
CONTINUOUS
 62
     5
 39
50.0
 10
0.0
 20
0.0
 30
0.0
 40
36.78763499999998
 50
137.831729
 51
154.942385
  0
ARC
  5
5DE
  8
DETAIL
  6
CONTINUOUS
 62
     5
 39
50.0
 10
0.0
 20
0.0
 30
0.0
 40
36.354838999999998
 50
138.5903779999999
 51
156.44353599999999
  0
ARC
  5
5DF
  8
DETAIL
  6
CONTINUOUS
 62
     5
 39
50.0
 10
0.0
 20
0.0
 30
0.0
 40
35.28667699999999
 50
140.597261
 51
160.80674300000001
  0
ARC
  5
5E0
  8
DETAIL
  6
CONTINUOUS
 62
     5
 39
50.0
 10
10.819892999999981
 20
18.740604000000001
 30
0.0
 40
39.817203999999997
 50
163.0425739999998
 51
174.71985100000001
  0
ARC
  5
5E1
  8
DETAIL
  6
CONTINUOUS
 62
     5
 39
50.0
 10
0.0
 20
0.0
 30
0.0
 40
32.881081999999992
 50
124.4707529999999
 51
138.61288999999991
  0
ARC
  5
5E2
  8
DETAIL
  6
CONTINUOUS
 62
     5
 39
50.0
 10
0.0
 20
0.0
 30
0.0
 40
35.28667699999999
 50
121.829993
 51
134.355839
  0
ARC
  5
5E3
  8
DETAIL
  6
CONTINUOUS
 62
     5
 39
50.0
 10
0.0
 20
0.0
 30
0.0
 40
36.354838999999998
 50
120.79078800000001
 51
132.73211000000001
  0
ARC
  5
5E4
  8
DETAIL
  6
CONTINUOUS
 62
     5
 39
50.0
 10
0.0
 20
0.0
 30
0.0
 40
36.78763499999998
 50
120.38994199999991
 51
132.112481
  0
ARC
  5
5E5
  8
DETAIL
  6
CONTINUOUS
 62
     5
 39
50.0
 10
0.0
 20
0.0
 30
0.0
 40
32.881081999999992
 50
146.02018799999991
 51
158.0586549999999
  0
ARC
  5
5E6
  8
DETAIL
  6
CONTINUOUS
 62
     5
 39
50.0
 10
0.0
 20
0.0
 30
0.0
 40
35.28667699999999
 50
140.597261
 51
149.8065099999998
  0
ARC
  5
5E7
  8
DETAIL
  6
CONTINUOUS
 62
     5
 39
50.0
 10
0.0
 20
0.0
 30
0.0
 40
36.354838999999998
 50
138.5903779999999
 51
147.02798799999991
  0
ARC
  5
5E8
  8
DETAIL
  6
CONTINUOUS
 62
     5
 39
50.0
 10
0.0
 20
0.0
 30
0.0
 40
36.78763499999998
 50
137.831729
 51
146.002982
  0
LINE
  5
5E9
  8
DETAIL
  6
CONTINUOUS
 62
     5
 39
50.0
 10
-113.82526899999991
 20
105.169355
 30
0.0
 11
-117.0585419999998
 21
105.169355
 31
0.0
  0
LINE
  5
5EA
  8
DETAIL
  6
CONTINUOUS
 62
     5
 39
50.0
 10
-117.0585419999998
 20
102.5725809999999
 30
0.0
 11
-113.82526899999991
 21
102.5725809999999
 31
0.0
  0
ARC
  5
5EB
  8
DETAIL
  6
CONTINUOUS
 62
     5
 39
50.0
 10
0.0
 20
0.0
 30
0.0
 40
141.09139799999991
 50
150.23838000000001
 51
155.649879
  0
LINE
  5
5EC
  8
DETAIL
  6
CONTINUOUS
 62
     5
 39
50.0
 10
-128.540323
 20
102.5725809999999
 30
0.0
 11
-122.451893
 21
102.5725809999999
 31
0.0
  0
LINE
  5
5ED
  8
DETAIL
  6
CONTINUOUS
 62
     5
 39
50.0
 10
-122.4811829999999
 20
105.169355
 30
0.0
 11
-128.540323
 21
105.169355
 31
0.0
  0
LINE
  5
5EE
  8
DETAIL
  6
CONTINUOUS
 62
     5
 39
50.0
 10
-119.88440900000001
 20
102.5725809999999
 30
0.0
 11
-117.0585419999998
 21
102.5725809999999
 31
0.0
  0
LINE
  5
5EF
  8
DETAIL
  6
CONTINUOUS
 62
     5
 39
50.0
 10
-117.0585419999998
 20
105.169355
 30
0.0
 11
-119.88440900000001
 21
105.169355
 31
0.0
  0
LINE
  5
5F0
  8
DETAIL
  6
CONTINUOUS
 62
     5
 39
50.0
 10
-105.169355
 20
105.169355
 30
0.0
 11
-111.228495
 21
105.169355
 31
0.0
  0
LINE
  5
5F1
  8
DETAIL
  6
CONTINUOUS
 62
     5
 39
50.0
 10
-111.228495
 20
102.5725809999999
 30
0.0
 11
-105.169355
 21
102.5725809999999
 31
0.0
  0
LINE
  5
5F2
  8
DETAIL
  6
CONTINUOUS
 62
     5
 39
50.0
 10
-119.88440900000001
 20
151.47849500000001
 30
0.0
 11
-113.82526899999991
 21
151.47849500000001
 31
0.0
  0
LINE
  5
5F3
  8
DETAIL
  6
CONTINUOUS
 62
     5
 39
50.0
 10
-119.88440900000001
 20
142.82258100000001
 30
0.0
 11
-113.82526899999991
 21
142.82258100000001
 31
0.0
  0
ARC
  5
5F4
  8
DETAIL
  6
CONTINUOUS
 62
     5
 39
50.0
 10
-121.83199
 20
159.4852149999999
 30
0.0
 40
0.6491940000000001
 50
90.0
 51
180.0
  0
LINE
  5
5F5
  8
DETAIL
  6
CONTINUOUS
 62
     5
 39
50.0
 10
-128.540323
 20
151.47849500000001
 30
0.0
 11
-122.4811829999999
 21
151.47849500000001
 31
0.0
  0
ARC
  5
5F6
  8
DETAIL
  6
CONTINUOUS
 62
     5
 39
50.0
 10
-121.83199
 20
159.4852149999999
 30
0.0
 40
0.6491940000000001
 50
90.0
 51
180.0
  0
ARC
  5
5F7
  8
DETAIL
  6
CONTINUOUS
 62
     5
 39
50.0
 10
-120.533602
 20
159.4852149999999
 30
0.0
 40
0.6491940000000001
 50
0.0
 51
90.0
  0
LINE
  5
5F8
  8
DETAIL
  6
CONTINUOUS
 62
     5
 39
50.0
 10
-124.2123659999998
 20
144.5537639999998
 30
0.0
 11
-124.2123659999998
 21
151.47849500000001
 31
0.0
  0
ARC
  5
5F9
  8
DETAIL
  6
CONTINUOUS
 62
     5
 39
50.0
 10
-122.4811829999999
 20
144.5537639999998
 30
0.0
 40
1.731182999999999
 50
180.0
 51
270.0
  0
ARC
  5
5FA
  8
DETAIL
  6
CONTINUOUS
 62
     5
 39
50.0
 10
-113.1760759999999
 20
159.4852149999999
 30
0.0
 40
0.6491940000000001
 50
90.0
 51
180.0
  0
ARC
  5
5FB
  8
DETAIL
  6
CONTINUOUS
 62
     5
 39
50.0
 10
-113.1760759999999
 20
159.4852149999999
 30
0.0
 40
0.6491940000000001
 50
90.0
 51
180.0
  0
ARC
  5
5FC
  8
DETAIL
  6
CONTINUOUS
 62
     5
 39
50.0
 10
-111.87768799999991
 20
159.4852149999999
 30
0.0
 40
0.6491940000000001
 50
0.0
 51
90.0
  0
ARC
  5
5FD
  8
DETAIL
  6
CONTINUOUS
 62
     5
 39
50.0
 10
-104.520162
 20
159.4852149999999
 30
0.0
 40
0.6491940000000001
 50
90.0
 51
180.0
  0
LINE
  5
5FE
  8
DETAIL
  6
CONTINUOUS
 62
     5
 39
50.0
 10
-111.228495
 20
151.47849500000001
 30
0.0
 11
-105.169355
 21
151.47849500000001
 31
0.0
  0
ARC
  5
5FF
  8
DETAIL
  6
CONTINUOUS
 62
     5
 39
50.0
 10
-104.520162
 20
159.4852149999999
 30
0.0
 40
0.6491940000000001
 50
90.0
 51
180.0
  0
LINE
  5
600
  8
DETAIL
  6
CONTINUOUS
 62
     5
 39
50.0
 10
-111.228495
 20
142.82258100000001
 30
0.0
 11
-105.169355
 21
142.82258100000001
 31
0.0
  0
ARC
  5
601
  8
DETAIL
  6
CONTINUOUS
 62
     5
 39
50.0
 10
0.0
 20
0.0
 30
0.0
 40
112.526882
 50
104.02278199999991
 51
107.22673999999979
  0
ARC
  5
602
  8
DETAIL
  6
CONTINUOUS
 62
     5
 39
50.0
 10
0.0
 20
0.0
 30
0.0
 40
115.989248
 50
108.041242
 51
111.219404
  0
ARC
  5
603
  8
DETAIL
  6
CONTINUOUS
 62
     5
 39
50.0
 10
-74.550838999999982
 20
-4.659389
 30
0.0
 40
90.887096999999997
 50
76.435291000000007
 51
80.335610000000017
  0
ARC
  5
604
  8
DETAIL
  6
CONTINUOUS
 62
     5
 39
50.0
 10
-61.565266000000001
 20
-13.522964999999999
 30
0.0
 40
102.48602199999991
 50
85.337108999999998
 51
86.548826000000005
  0
LINE
  5
605
  8
DETAIL
  6
CONTINUOUS
 62
     5
 39
50.0
 10
-53.233871000000001
 20
105.169355
 30
0.0
 11
-59.293010999999993
 21
105.169355
 31
0.0
  0
LINE
  5
606
  8
DETAIL
  6
CONTINUOUS
 62
     5
 39
50.0
 10
-59.293010999999993
 20
102.5725809999999
 30
0.0
 11
-53.233871000000001
 21
102.5725809999999
 31
0.0
  0
ARC
  5
607
  8
DETAIL
  6
CONTINUOUS
 62
     5
 39
50.0
 10
-74.550838999999982
 20
-4.659389
 30
0.0
 40
90.887096999999997
 50
81.992350999999999
 51
85.834443999999976
  0
LINE
  5
608
  8
DETAIL
  6
CONTINUOUS
 62
     5
 39
50.0
 10
-61.88978500000001
 20
105.169355
 30
0.0
 11
-67.948925000000003
 21
105.169355
 31
0.0
  0
LINE
  5
609
  8
DETAIL
  6
CONTINUOUS
 62
     5
 39
50.0
 10
-67.948925000000003
 20
102.5725809999999
 30
0.0
 11
-61.88978500000001
 21
102.5725809999999
 31
0.0
  0
ARC
  5
60A
  8
DETAIL
  6
CONTINUOUS
 62
     5
 39
50.0
 10
-74.550838999999982
 20
-4.659389
 30
0.0
 40
90.887096999999997
 50
87.474316999999985
 51
87.516929000000005
  0
ARC
  5
60B
  8
DETAIL
  6
CONTINUOUS
 62
     5
 39
50.0
 10
0.0
 20
0.0
 30
0.0
 40
112.526882
 50
134.736402
 51
139.261177
  0
ARC
  5
60C
  8
DETAIL
  6
CONTINUOUS
 62
     5
 39
50.0
 10
0.0
 20
0.0
 30
0.0
 40
112.526882
 50
130.87091999999981
 51
132.903783
  0
ARC
  5
60D
  8
DETAIL
  6
CONTINUOUS
 62
     5
 39
50.0
 10
-70.800735000000003
 20
81.818477999999985
 30
0.0
 40
4.3279569999999987
 50
87.516929000000005
 51
130.87091999999981
  0
LINE
  5
60E
  8
DETAIL
  6
CONTINUOUS
 62
     5
 39
50.0
 10
-96.513441000000014
 20
105.169355
 30
0.0
 11
-102.5725809999999
 21
105.169355
 31
0.0
  0
LINE
  5
60F
  8
DETAIL
  6
CONTINUOUS
 62
     5
 39
50.0
 10
-102.5725809999999
 20
102.5725809999999
 30
0.0
 11
-96.513441000000014
 21
102.5725809999999
 31
0.0
  0
LINE
  5
610
  8
DETAIL
  6
CONTINUOUS
 62
     5
 39
50.0
 10
-87.857527000000005
 20
105.169355
 30
0.0
 11
-93.916667000000004
 21
105.169355
 31
0.0
  0
LINE
  5
611
  8
DETAIL
  6
CONTINUOUS
 62
     5
 39
50.0
 10
-93.916667000000004
 20
102.5725809999999
 30
0.0
 11
-87.857527000000005
 21
102.5725809999999
 31
0.0
  0
LINE
  5
612
  8
DETAIL
  6
CONTINUOUS
 62
     5
 39
50.0
 10
-79.201612999999981
 20
105.169355
 30
0.0
 11
-85.26075299999998
 21
105.169355
 31
0.0
  0
LINE
  5
613
  8
DETAIL
  6
CONTINUOUS
 62
     5
 39
50.0
 10
-85.26075299999998
 20
102.5725809999999
 30
0.0
 11
-79.201612999999981
 21
102.5725809999999
 31
0.0
  0
LINE
  5
614
  8
DETAIL
  6
CONTINUOUS
 62
     5
 39
50.0
 10
-70.545698999999999
 20
105.169355
 30
0.0
 11
-76.604838999999998
 21
105.169355
 31
0.0
  0
LINE
  5
615
  8
DETAIL
  6
CONTINUOUS
 62
     5
 39
50.0
 10
-76.604838999999998
 20
102.5725809999999
 30
0.0
 11
-70.545698999999999
 21
102.5725809999999
 31
0.0
  0
ARC
  5
616
  8
DETAIL
  6
CONTINUOUS
 62
     5
 39
50.0
 10
-55.135284999999989
 20
93.097302000000013
 30
0.0
 40
4.3279569999999987
 50
165.44952399999991
 51
266.54882599999991
  0
LINE
  5
617
  8
DETAIL
  6
CONTINUOUS
 62
     5
 39
50.0
 10
-16.013441
 20
102.5725809999999
 30
0.0
 11
-9.9250109999999996
 21
102.5725809999999
 31
0.0
  0
LINE
  5
618
  8
DETAIL
  6
CONTINUOUS
 62
     5
 39
50.0
 10
-9.9543009999999992
 20
105.169355
 30
0.0
 11
-16.013441
 21
105.169355
 31
0.0
  0
ARC
  5
619
  8
DETAIL
  6
CONTINUOUS
 62
     5
 39
50.0
 10
10.819892999999981
 20
18.740604000000001
 30
0.0
 40
39.817203999999997
 50
121.4489809999999
 51
132.369799
  0
ARC
  5
61A
  8
DETAIL
  6
CONTINUOUS
 62
     5
 39
50.0
 10
-61.565266000000001
 20
-13.522964999999999
 30
0.0
 40
102.48602199999991
 50
59.762182999999993
 51
63.610651000000018
  0
ARC
  5
61B
  8
DETAIL
  6
CONTINUOUS
 62
     5
 39
50.0
 10
-67.158733999999995
 20
11.71808399999999
 30
0.0
 40
73.055914000000001
 50
42.021090000000001
 51
45.566237999999977
  0
ARC
  5
61C
  8
DETAIL
  6
CONTINUOUS
 62
     5
 39
50.0
 10
-67.158733999999995
 20
11.71808399999999
 30
0.0
 40
73.055914000000001
 50
48.353015999999997
 51
54.436785999999998
  0
ARC
  5
61D
  8
DETAIL
  6
CONTINUOUS
 62
     5
 39
50.0
 10
-74.550838999999982
 20
-4.659389
 30
0.0
 40
90.887096999999997
 50
70.744487000000021
 51
74.745035000000001
  0
ARC
  5
61E
  8
DETAIL
  6
CONTINUOUS
 62
     5
 39
50.0
 10
-74.550838999999982
 20
-4.659389
 30
0.0
 40
90.887096999999997
 50
64.848096999999996
 51
69.000922000000003
  0
ARC
  5
61F
  8
DETAIL
  6
CONTINUOUS
 62
     5
 39
50.0
 10
-74.550838999999982
 20
-4.659389
 30
0.0
 40
90.887096999999997
 50
59.358007000000008
 51
63.025686
  0
ARC
  5
620
  8
DETAIL
  6
CONTINUOUS
 62
     5
 39
50.0
 10
-61.565266000000001
 20
-13.522964999999999
 30
0.0
 40
102.48602199999991
 50
75.50994799999998
 51
78.983581000000001
  0
ARC
  5
621
  8
DETAIL
  6
CONTINUOUS
 62
     5
 39
50.0
 10
-61.565266000000001
 20
-13.522964999999999
 30
0.0
 40
102.48602199999991
 50
65.924326000000008
 51
68.899238999999994
  0
ARC
  5
622
  8
DETAIL
  6
CONTINUOUS
 62
     5
 39
50.0
 10
-61.565266000000001
 20
-13.522964999999999
 30
0.0
 40
102.48602199999991
 50
72.157868999999977
 51
74.005222000000003
  0
ARC
  5
623
  8
DETAIL
  6
CONTINUOUS
 62
     5
 39
50.0
 10
-61.565266000000001
 20
-13.522964999999999
 30
0.0
 40
102.48602199999991
 50
80.459051999999986
 51
83.878867000000014
  0
LINE
  5
624
  8
DETAIL
  6
CONTINUOUS
 62
     5
 39
50.0
 10
-44.577956999999998
 20
105.169355
 30
0.0
 11
-50.637096999999997
 21
105.169355
 31
0.0
  0
LINE
  5
625
  8
DETAIL
  6
CONTINUOUS
 62
     5
 39
50.0
 10
-50.637096999999997
 20
102.5725809999999
 30
0.0
 11
-44.577956999999998
 21
102.5725809999999
 31
0.0
  0
LINE
  5
626
  8
DETAIL
  6
CONTINUOUS
 62
     5
 39
50.0
 10
-35.922043000000002
 20
105.169355
 30
0.0
 11
-41.981182999999987
 21
105.169355
 31
0.0
  0
LINE
  5
627
  8
DETAIL
  6
CONTINUOUS
 62
     5
 39
50.0
 10
-41.981182999999987
 20
102.5725809999999
 30
0.0
 11
-35.922043000000002
 21
102.5725809999999
 31
0.0
  0
LINE
  5
628
  8
DETAIL
  6
CONTINUOUS
 62
     5
 39
50.0
 10
-27.266128999999999
 20
105.169355
 30
0.0
 11
-33.325268999999992
 21
105.169355
 31
0.0
  0
LINE
  5
629
  8
DETAIL
  6
CONTINUOUS
 62
     5
 39
50.0
 10
-33.325268999999992
 20
102.5725809999999
 30
0.0
 11
-27.236839
 21
102.5725809999999
 31
0.0
  0
LINE
  5
62A
  8
DETAIL
  6
CONTINUOUS
 62
     5
 39
50.0
 10
-24.669354999999989
 20
102.5725809999999
 30
0.0
 11
-18.580925000000001
 21
102.5725809999999
 31
0.0
  0
LINE
  5
62B
  8
DETAIL
  6
CONTINUOUS
 62
     5
 39
50.0
 10
-18.610215
 20
105.169355
 30
0.0
 11
-24.669354999999989
 21
105.169355
 31
0.0
  0
ARC
  5
62C
  8
DETAIL
  6
CONTINUOUS
 62
     5
 39
50.0
 10
-67.158733999999995
 20
11.71808399999999
 30
0.0
 40
73.055914000000001
 50
56.903157999999998
 51
57.799303999999999
  0
ARC
  5
62D
  8
DETAIL
  6
CONTINUOUS
 62
     5
 39
50.0
 10
-61.565266000000001
 20
-13.522964999999999
 30
0.0
 40
102.48602199999991
 50
65.220275000000001
 51
68.899238999999994
  0
ARC
  5
62E
  8
DETAIL
  6
CONTINUOUS
 62
     5
 39
50.0
 10
-61.565266000000001
 20
-13.522964999999999
 30
0.0
 40
102.48602199999991
 50
70.447445000000002
 51
72.354729000000006
  0
ARC
  5
62F
  8
DETAIL
  6
CONTINUOUS
 62
     5
 39
50.0
 10
-58.806584999999998
 20
18.486898
 30
0.0
 40
62.322581000000007
 50
38.384478999999999
 51
42.538153999999992
  0
ARC
  5
630
  8
DETAIL
  6
CONTINUOUS
 62
     5
 39
50.0
 10
-58.806584999999998
 20
18.486898
 30
0.0
 40
62.322581000000007
 50
30.850376000000001
 51
34.357905000000002
  0
ARC
  5
631
  8
DETAIL
  6
CONTINUOUS
 62
     5
 39
50.0
 10
0.0
 20
0.0
 30
0.0
 40
141.09139799999991
 50
112.16657600000001
 51
114.8500819999999
  0
LINE
  5
632
  8
DETAIL
  6
CONTINUOUS
 62
     5
 39
50.0
 10
-59.293010999999993
 20
151.47849500000001
 30
0.0
 11
-53.233871000000001
 21
151.47849500000001
 31
0.0
  0
LINE
  5
633
  8
DETAIL
  6
CONTINUOUS
 62
     5
 39
50.0
 10
-59.293010999999993
 20
142.82258100000001
 30
0.0
 11
-53.233871000000001
 21
142.82258100000001
 31
0.0
  0
ARC
  5
634
  8
DETAIL
  6
CONTINUOUS
 62
     5
 39
50.0
 10
0.0
 20
0.0
 30
0.0
 40
141.09139799999991
 50
116.017797
 51
118.789632
  0
ARC
  5
635
  8
DETAIL
  6
CONTINUOUS
 62
     5
 39
50.0
 10
0.0
 20
0.0
 30
0.0
 40
141.09139799999991
 50
119.9999999999999
 51
122.88432899999999
  0
LINE
  5
636
  8
DETAIL
  6
CONTINUOUS
 62
     5
 39
50.0
 10
-67.948925000000003
 20
151.47849500000001
 30
0.0
 11
-61.88978500000001
 21
151.47849500000001
 31
0.0
  0
LINE
  5
637
  8
DETAIL
  6
CONTINUOUS
 62
     5
 39
50.0
 10
-67.948925000000003
 20
142.82258100000001
 30
0.0
 11
-61.88978500000001
 21
142.82258100000001
 31
0.0
  0
ARC
  5
638
  8
DETAIL
  6
CONTINUOUS
 62
     5
 39
50.0
 10
-103.2217739999999
 20
159.4852149999999
 30
0.0
 40
0.6491940000000001
 50
0.0
 51
90.0
  0
ARC
  5
639
  8
DETAIL
  6
CONTINUOUS
 62
     5
 39
50.0
 10
-95.864248000000003
 20
159.4852149999999
 30
0.0
 40
0.6491940000000001
 50
90.0
 51
180.0
  0
LINE
  5
63A
  8
DETAIL
  6
CONTINUOUS
 62
     5
 39
50.0
 10
-102.5725809999999
 20
151.47849500000001
 30
0.0
 11
-96.513441000000014
 21
151.47849500000001
 31
0.0
  0
ARC
  5
63B
  8
DETAIL
  6
CONTINUOUS
 62
     5
 39
50.0
 10
-95.864248000000003
 20
159.4852149999999
 30
0.0
 40
0.6491940000000001
 50
90.0
 51
180.0
  0
ARC
  5
63C
  8
DETAIL
  6
CONTINUOUS
 62
     5
 39
50.0
 10
-94.565859999999986
 20
159.4852149999999
 30
0.0
 40
0.6491940000000001
 50
0.0
 51
90.0
  0
ARC
  5
63D
  8
DETAIL
  6
CONTINUOUS
 62
     5
 39
50.0
 10
-87.208333999999979
 20
159.4852149999999
 30
0.0
 40
0.6491940000000001
 50
90.0
 51
180.0
  0
LINE
  5
63E
  8
DETAIL
  6
CONTINUOUS
 62
     5
 39
50.0
 10
-93.916667000000004
 20
151.47849500000001
 30
0.0
 11
-87.857527000000005
 21
151.47849500000001
 31
0.0
  0
ARC
  5
63F
  8
DETAIL
  6
CONTINUOUS
 62
     5
 39
50.0
 10
-87.208333999999979
 20
159.4852149999999
 30
0.0
 40
0.6491940000000001
 50
90.0
 51
180.0
  0
ARC
  5
640
  8
DETAIL
  6
CONTINUOUS
 62
     5
 39
50.0
 10
-85.909946000000005
 20
159.4852149999999
 30
0.0
 40
0.6491940000000001
 50
0.0
 51
90.0
  0
ARC
  5
641
  8
DETAIL
  6
CONTINUOUS
 62
     5
 39
50.0
 10
-78.552419999999998
 20
159.4852149999999
 30
0.0
 40
0.6491940000000001
 50
90.0
 51
180.0
  0
LINE
  5
642
  8
DETAIL
  6
CONTINUOUS
 62
     5
 39
50.0
 10
-85.26075299999998
 20
151.47849500000001
 30
0.0
 11
-79.201612999999981
 21
151.47849500000001
 31
0.0
  0
ARC
  5
643
  8
DETAIL
  6
CONTINUOUS
 62
     5
 39
50.0
 10
-78.552419999999998
 20
159.4852149999999
 30
0.0
 40
0.6491940000000001
 50
90.0
 51
180.0
  0
ARC
  5
644
  8
DETAIL
  6
CONTINUOUS
 62
     5
 39
50.0
 10
-77.254031999999981
 20
159.4852149999999
 30
0.0
 40
0.6491940000000001
 50
0.0
 51
90.0
  0
ARC
  5
645
  8
DETAIL
  6
CONTINUOUS
 62
     5
 39
50.0
 10
-69.896506000000002
 20
159.4852149999999
 30
0.0
 40
0.6491940000000001
 50
90.0
 51
180.0
  0
LINE
  5
646
  8
DETAIL
  6
CONTINUOUS
 62
     5
 39
50.0
 10
-76.604838999999998
 20
151.47849500000001
 30
0.0
 11
-70.545698999999999
 21
151.47849500000001
 31
0.0
  0
ARC
  5
647
  8
DETAIL
  6
CONTINUOUS
 62
     5
 39
50.0
 10
-69.896506000000002
 20
159.4852149999999
 30
0.0
 40
0.6491940000000001
 50
90.0
 51
180.0
  0
ARC
  5
648
  8
DETAIL
  6
CONTINUOUS
 62
     5
 39
50.0
 10
-68.598117999999999
 20
159.4852149999999
 30
0.0
 40
0.6491940000000001
 50
0.0
 51
90.0
  0
ARC
  5
649
  8
DETAIL
  6
CONTINUOUS
 62
     5
 39
50.0
 10
-86.559139999999999
 20
149.74731199999991
 30
0.0
 40
1.947581
 50
311.810315
 51
48.189684999999997
  0
LINE
  5
64A
  8
DETAIL
  6
CONTINUOUS
 62
     5
 39
50.0
 10
-102.5725809999999
 20
142.82258100000001
 30
0.0
 11
-96.513441000000014
 21
142.82258100000001
 31
0.0
  0
LINE
  5
64B
  8
DETAIL
  6
CONTINUOUS
 62
     5
 39
50.0
 10
-93.916667000000004
 20
142.82258100000001
 30
0.0
 11
-87.857527000000005
 21
142.82258100000001
 31
0.0
  0
LINE
  5
64C
  8
DETAIL
  6
CONTINUOUS
 62
     5
 39
50.0
 10
-85.26075299999998
 20
142.82258100000001
 30
0.0
 11
-79.201612999999981
 21
142.82258100000001
 31
0.0
  0
LINE
  5
64D
  8
DETAIL
  6
CONTINUOUS
 62
     5
 39
50.0
 10
-76.604838999999998
 20
142.82258100000001
 30
0.0
 11
-70.545698999999999
 21
142.82258100000001
 31
0.0
  0
ARC
  5
64E
  8
DETAIL
  6
CONTINUOUS
 62
     5
 39
50.0
 10
-86.559139999999999
 20
149.74731199999991
 30
0.0
 40
1.947581
 50
131.810315
 51
228.1896849999998
  0
ARC
  5
64F
  8
DETAIL
  6
CONTINUOUS
 62
     5
 39
50.0
 10
-61.240592000000007
 20
159.4852149999999
 30
0.0
 40
0.6491940000000001
 50
90.0
 51
180.0
  0
ARC
  5
650
  8
DETAIL
  6
CONTINUOUS
 62
     5
 39
50.0
 10
-61.240592000000007
 20
159.4852149999999
 30
0.0
 40
0.6491940000000001
 50
90.0
 51
180.0
  0
ARC
  5
651
  8
DETAIL
  6
CONTINUOUS
 62
     5
 39
50.0
 10
-59.94220399999999
 20
159.4852149999999
 30
0.0
 40
0.6491940000000001
 50
0.0
 51
90.0
  0
ARC
  5
652
  8
DETAIL
  6
CONTINUOUS
 62
     5
 39
50.0
 10
0.0
 20
0.0
 30
0.0
 40
115.989248
 50
94.923231000000001
 51
97.935585000000046
  0
ARC
  5
653
  8
DETAIL
  6
CONTINUOUS
 62
     5
 39
50.0
 10
0.0
 20
0.0
 30
0.0
 40
141.09139799999991
 50
94.045700999999994
 51
96.516937999999996
  0
ARC
  5
654
  8
DETAIL
  6
CONTINUOUS
 62
     5
 39
50.0
 10
0.0
 20
0.0
 30
0.0
 40
112.526882
 50
95.075107000000017
 51
98.181404999999998
  0
ARC
  5
655
  8
DETAIL
  6
CONTINUOUS
 62
     5
 39
50.0
 10
0.0
 20
0.0
 30
0.0
 40
115.989248
 50
99.232887000000005
 51
102.2798389999999
  0
ARC
  5
656
  8
DETAIL
  6
CONTINUOUS
 62
     5
 39
50.0
 10
0.0
 20
0.0
 30
0.0
 40
115.989248
 50
103.59602199999991
 51
106.697183
  0
ARC
  5
657
  8
DETAIL
  6
CONTINUOUS
 62
     5
 39
50.0
 10
0.0
 20
0.0
 30
0.0
 40
141.09139799999991
 50
108.4182299999998
 51
111.032393
  0
ARC
  5
658
  8
DETAIL
  6
CONTINUOUS
 62
     5
 39
50.0
 10
0.0
 20
0.0
 30
0.0
 40
141.09139799999991
 50
104.7499569999999
 51
107.3102699999999
  0
ARC
  5
659
  8
DETAIL
  6
CONTINUOUS
 62
     5
 39
50.0
 10
0.0
 20
0.0
 30
0.0
 40
141.09139799999991
 50
101.142601
 51
103.66215200000001
  0
ARC
  5
65A
  8
DETAIL
  6
CONTINUOUS
 62
     5
 39
50.0
 10
0.0
 20
0.0
 30
0.0
 40
141.09139799999991
 50
97.579505999999995
 51
100.0697329999999
  0
ARC
  5
65B
  8
DETAIL
  6
CONTINUOUS
 62
     5
 39
50.0
 10
0.0
 20
0.0
 30
0.0
 40
112.526882
 50
99.519578000000024
 51
102.663856
  0
LINE
  5
65C
  8
DETAIL
  6
CONTINUOUS
 62
     5
 39
50.0
 10
-16.013441
 20
151.47849500000001
 30
0.0
 11
-9.9543009999999992
 21
151.47849500000001
 31
0.0
  0
LINE
  5
65D
  8
DETAIL
  6
CONTINUOUS
 62
     5
 39
50.0
 10
-16.013441
 20
142.82258100000001
 30
0.0
 11
-9.9543009999999992
 21
142.82258100000001
 31
0.0
  0
ARC
  5
65E
  8
DETAIL
  6
CONTINUOUS
 62
     5
 39
50.0
 10
-52.584677999999997
 20
159.4852149999999
 30
0.0
 40
0.6491940000000001
 50
90.0
 51
180.0
  0
ARC
  5
65F
  8
DETAIL
  6
CONTINUOUS
 62
     5
 39
50.0
 10
-52.584677999999997
 20
159.4852149999999
 30
0.0
 40
0.6491940000000001
 50
90.0
 51
180.0
  0
ARC
  5
660
  8
DETAIL
  6
CONTINUOUS
 62
     5
 39
50.0
 10
-51.286290000000001
 20
159.4852149999999
 30
0.0
 40
0.6491940000000001
 50
0.0
 51
90.0
  0
ARC
  5
661
  8
DETAIL
  6
CONTINUOUS
 62
     5
 39
50.0
 10
-43.928764000000001
 20
159.4852149999999
 30
0.0
 40
0.6491940000000001
 50
90.0
 51
180.0
  0
LINE
  5
662
  8
DETAIL
  6
CONTINUOUS
 62
     5
 39
50.0
 10
-50.637096999999997
 20
151.47849500000001
 30
0.0
 11
-44.577956999999998
 21
151.47849500000001
 31
0.0
  0
ARC
  5
663
  8
DETAIL
  6
CONTINUOUS
 62
     5
 39
50.0
 10
-43.928764000000001
 20
159.4852149999999
 30
0.0
 40
0.6491940000000001
 50
90.0
 51
180.0
  0
ARC
  5
664
  8
DETAIL
  6
CONTINUOUS
 62
     5
 39
50.0
 10
-42.630375999999991
 20
159.4852149999999
 30
0.0
 40
0.6491940000000001
 50
0.0
 51
90.0
  0
ARC
  5
665
  8
DETAIL
  6
CONTINUOUS
 62
     5
 39
50.0
 10
-35.272849999999998
 20
159.4852149999999
 30
0.0
 40
0.6491940000000001
 50
90.0
 51
180.0
  0
LINE
  5
666
  8
DETAIL
  6
CONTINUOUS
 62
     5
 39
50.0
 10
-41.981182999999987
 20
151.47849500000001
 30
0.0
 11
-35.922043000000002
 21
151.47849500000001
 31
0.0
  0
ARC
  5
667
  8
DETAIL
  6
CONTINUOUS
 62
     5
 39
50.0
 10
-35.272849999999998
 20
159.4852149999999
 30
0.0
 40
0.6491940000000001
 50
90.0
 51
180.0
  0
ARC
  5
668
  8
DETAIL
  6
CONTINUOUS
 62
     5
 39
50.0
 10
-33.974462000000003
 20
159.4852149999999
 30
0.0
 40
0.6491940000000001
 50
0.0
 51
90.0
  0
ARC
  5
669
  8
DETAIL
  6
CONTINUOUS
 62
     5
 39
50.0
 10
-26.616935999999988
 20
159.4852149999999
 30
0.0
 40
0.6491940000000001
 50
90.0
 51
180.0
  0
LINE
  5
66A
  8
DETAIL
  6
CONTINUOUS
 62
     5
 39
50.0
 10
-33.325268999999992
 20
151.47849500000001
 30
0.0
 11
-27.266128999999999
 21
151.47849500000001
 31
0.0
  0
ARC
  5
66B
  8
DETAIL
  6
CONTINUOUS
 62
     5
 39
50.0
 10
-26.616935999999988
 20
159.4852149999999
 30
0.0
 40
0.6491940000000001
 50
90.0
 51
180.0
  0
ARC
  5
66C
  8
DETAIL
  6
CONTINUOUS
 62
     5
 39
50.0
 10
-25.318548
 20
159.4852149999999
 30
0.0
 40
0.6491940000000001
 50
0.0
 51
90.0
  0
ARC
  5
66D
  8
DETAIL
  6
CONTINUOUS
 62
     5
 39
50.0
 10
-17.961021999999989
 20
159.4852149999999
 30
0.0
 40
0.6491940000000001
 50
90.0
 51
180.0
  0
LINE
  5
66E
  8
DETAIL
  6
CONTINUOUS
 62
     5
 39
50.0
 10
-24.669354999999989
 20
151.47849500000001
 30
0.0
 11
-18.610215
 21
151.47849500000001
 31
0.0
  0
ARC
  5
66F
  8
DETAIL
  6
CONTINUOUS
 62
     5
 39
50.0
 10
-17.961021999999989
 20
159.4852149999999
 30
0.0
 40
0.6491940000000001
 50
90.0
 51
180.0
  0
ARC
  5
670
  8
DETAIL
  6
CONTINUOUS
 62
     5
 39
50.0
 10
-16.662634000000001
 20
159.4852149999999
 30
0.0
 40
0.6491940000000001
 50
0.0
 51
90.0
  0
LINE
  5
671
  8
DETAIL
  6
CONTINUOUS
 62
     5
 39
50.0
 10
-50.637096999999997
 20
142.82258100000001
 30
0.0
 11
-44.577956999999998
 21
142.82258100000001
 31
0.0
  0
LINE
  5
672
  8
DETAIL
  6
CONTINUOUS
 62
     5
 39
50.0
 10
-41.981182999999987
 20
142.82258100000001
 30
0.0
 11
-35.922043000000002
 21
142.82258100000001
 31
0.0
  0
LINE
  5
673
  8
DETAIL
  6
CONTINUOUS
 62
     5
 39
50.0
 10
-33.325268999999992
 20
142.82258100000001
 30
0.0
 11
-27.266128999999999
 21
142.82258100000001
 31
0.0
  0
LINE
  5
674
  8
DETAIL
  6
CONTINUOUS
 62
     5
 39
50.0
 10
-24.669354999999989
 20
142.82258100000001
 30
0.0
 11
-18.610215
 21
142.82258100000001
 31
0.0
  0
ARC
  5
675
  8
DETAIL
  6
CONTINUOUS
 62
     5
 39
50.0
 10
-9.3051080000000006
 20
159.4852149999999
 30
0.0
 40
0.6491940000000001
 50
90.0
 51
180.0
  0
ARC
  5
676
  8
DETAIL
  6
CONTINUOUS
 62
     5
 39
50.0
 10
-9.3051080000000006
 20
159.4852149999999
 30
0.0
 40
0.6491940000000001
 50
90.0
 51
180.0
  0
ARC
  5
677
  8
DETAIL
  6
CONTINUOUS
 62
     5
 39
50.0
 10
-8.0067199999999978
 20
159.4852149999999
 30
0.0
 40
0.6491940000000001
 50
0.0
 51
90.0
  0
LINE
  5
678
  8
DETAIL
  6
CONTINUOUS
 62
     5
 39
50.0
 10
128.540323
 20
160.13440899999981
 30
0.0
 11
128.540323
 21
-142.75749899999991
 31
0.0
  0
LINE
  5
679
  8
DETAIL
  6
CONTINUOUS
 62
     5
 39
50.0
 10
-1.298387
 20
159.4852149999999
 30
0.0
 11
-1.298387
 21
-148.4446879999999
 31
0.0
  0
LINE
  5
67A
  8
DETAIL
  6
CONTINUOUS
 62
     5
 39
50.0
 10
-1.298387
 20
159.4852149999999
 30
0.0
 11
-1.298387
 21
-148.4446879999999
 31
0.0
  0
LINE
  5
67B
  8
DETAIL
  6
CONTINUOUS
 62
     5
 39
50.0
 10
1.298387
 20
159.4852149999999
 30
0.0
 11
1.298387
 21
-148.4446879999999
 31
0.0
  0
LINE
  5
67C
  8
DETAIL
  6
CONTINUOUS
 62
     5
 39
50.0
 10
7.3575270000000002
 20
159.4852149999999
 30
0.0
 11
7.3575270000000002
 21
-148.4446879999999
 31
0.0
  0
LINE
  5
67D
  8
DETAIL
  6
CONTINUOUS
 62
     5
 39
50.0
 10
7.3575270000000002
 20
159.4852149999999
 30
0.0
 11
7.3575270000000002
 21
-148.4446879999999
 31
0.0
  0
LINE
  5
67E
  8
DETAIL
  6
CONTINUOUS
 62
     5
 39
50.0
 10
9.9543009999999992
 20
159.4852149999999
 30
0.0
 11
9.9543009999999992
 21
-148.4446879999999
 31
0.0
  0
LINE
  5
67F
  8
DETAIL
  6
CONTINUOUS
 62
     5
 39
50.0
 10
16.013441
 20
159.4852149999999
 30
0.0
 11
16.013441
 21
-148.4446879999999
 31
0.0
  0
LINE
  5
680
  8
DETAIL
  6
CONTINUOUS
 62
     5
 39
50.0
 10
16.013441
 20
159.4852149999999
 30
0.0
 11
16.013441
 21
-148.4446879999999
 31
0.0
  0
LINE
  5
681
  8
DETAIL
  6
CONTINUOUS
 62
     5
 39
50.0
 10
18.610215
 20
159.4852149999999
 30
0.0
 11
18.610215
 21
-148.4446879999999
 31
0.0
  0
LINE
  5
682
  8
DETAIL
  6
CONTINUOUS
 62
     5
 39
50.0
 10
24.669354999999989
 20
159.4852149999999
 30
0.0
 11
24.669354999999989
 21
-148.4446879999999
 31
0.0
  0
LINE
  5
683
  8
DETAIL
  6
CONTINUOUS
 62
     5
 39
50.0
 10
24.669354999999989
 20
159.4852149999999
 30
0.0
 11
24.669354999999989
 21
-148.4446879999999
 31
0.0
  0
LINE
  5
684
  8
DETAIL
  6
CONTINUOUS
 62
     5
 39
50.0
 10
27.266128999999999
 20
159.4852149999999
 30
0.0
 11
27.266128999999999
 21
-148.4446879999999
 31
0.0
  0
LINE
  5
685
  8
DETAIL
  6
CONTINUOUS
 62
     5
 39
50.0
 10
33.325268999999992
 20
159.4852149999999
 30
0.0
 11
33.325268999999992
 21
-148.4446879999999
 31
0.0
  0
LINE
  5
686
  8
DETAIL
  6
CONTINUOUS
 62
     5
 39
50.0
 10
33.325268999999992
 20
159.4852149999999
 30
0.0
 11
33.325268999999992
 21
-148.4446879999999
 31
0.0
  0
LINE
  5
687
  8
DETAIL
  6
CONTINUOUS
 62
     5
 39
50.0
 10
35.922043000000002
 20
159.4852149999999
 30
0.0
 11
35.922043000000002
 21
-148.4446879999999
 31
0.0
  0
LINE
  5
688
  8
DETAIL
  6
CONTINUOUS
 62
     5
 39
50.0
 10
41.981182999999987
 20
159.4852149999999
 30
0.0
 11
41.981182999999987
 21
-148.4446879999999
 31
0.0
  0
LINE
  5
689
  8
DETAIL
  6
CONTINUOUS
 62
     5
 39
50.0
 10
41.981182999999987
 20
159.4852149999999
 30
0.0
 11
41.981182999999987
 21
-148.4446879999999
 31
0.0
  0
LINE
  5
68A
  8
DETAIL
  6
CONTINUOUS
 62
     5
 39
50.0
 10
44.577956999999998
 20
159.4852149999999
 30
0.0
 11
44.577956999999998
 21
-148.4446879999999
 31
0.0
  0
LINE
  5
68B
  8
DETAIL
  6
CONTINUOUS
 62
     5
 39
50.0
 10
50.637096999999997
 20
159.4852149999999
 30
0.0
 11
50.637096999999997
 21
-148.4446879999999
 31
0.0
  0
LINE
  5
68C
  8
DETAIL
  6
CONTINUOUS
 62
     5
 39
50.0
 10
50.637096999999997
 20
159.4852149999999
 30
0.0
 11
50.637096999999997
 21
-148.4446879999999
 31
0.0
  0
LINE
  5
68D
  8
DETAIL
  6
CONTINUOUS
 62
     5
 39
50.0
 10
53.233871000000001
 20
159.4852149999999
 30
0.0
 11
53.233871000000001
 21
-148.4446879999999
 31
0.0
  0
LINE
  5
68E
  8
DETAIL
  6
CONTINUOUS
 62
     5
 39
50.0
 10
59.293010999999993
 20
159.4852149999999
 30
0.0
 11
59.293010999999993
 21
-148.4446879999999
 31
0.0
  0
LINE
  5
68F
  8
DETAIL
  6
CONTINUOUS
 62
     5
 39
50.0
 10
59.293010999999993
 20
159.4852149999999
 30
0.0
 11
59.293010999999993
 21
-148.4446879999999
 31
0.0
  0
LINE
  5
690
  8
DETAIL
  6
CONTINUOUS
 62
     5
 39
50.0
 10
61.88978500000001
 20
159.4852149999999
 30
0.0
 11
61.88978500000001
 21
-148.4446879999999
 31
0.0
  0
LINE
  5
691
  8
DETAIL
  6
CONTINUOUS
 62
     5
 39
50.0
 10
67.948925000000003
 20
159.4852149999999
 30
0.0
 11
67.948925000000003
 21
-148.4446879999999
 31
0.0
  0
LINE
  5
692
  8
DETAIL
  6
CONTINUOUS
 62
     5
 39
50.0
 10
67.948925000000003
 20
159.4852149999999
 30
0.0
 11
67.948925000000003
 21
-148.4446879999999
 31
0.0
  0
LINE
  5
693
  8
DETAIL
  6
CONTINUOUS
 62
     5
 39
50.0
 10
70.545698999999999
 20
159.4852149999999
 30
0.0
 11
70.545698999999999
 21
-148.4446879999999
 31
0.0
  0
LINE
  5
694
  8
DETAIL
  6
CONTINUOUS
 62
     5
 39
50.0
 10
76.604838999999998
 20
159.4852149999999
 30
0.0
 11
76.604838999999998
 21
-148.4446879999999
 31
0.0
  0
LINE
  5
695
  8
DETAIL
  6
CONTINUOUS
 62
     5
 39
50.0
 10
76.604838999999998
 20
159.4852149999999
 30
0.0
 11
76.604838999999998
 21
-148.4446879999999
 31
0.0
  0
LINE
  5
696
  8
DETAIL
  6
CONTINUOUS
 62
     5
 39
50.0
 10
79.201612999999981
 20
159.4852149999999
 30
0.0
 11
79.201612999999981
 21
-148.4446879999999
 31
0.0
  0
LINE
  5
697
  8
DETAIL
  6
CONTINUOUS
 62
     5
 39
50.0
 10
85.26075299999998
 20
159.4852149999999
 30
0.0
 11
85.26075299999998
 21
-148.4446879999999
 31
0.0
  0
LINE
  5
698
  8
DETAIL
  6
CONTINUOUS
 62
     5
 39
50.0
 10
85.26075299999998
 20
159.4852149999999
 30
0.0
 11
85.26075299999998
 21
-148.4446879999999
 31
0.0
  0
LINE
  5
699
  8
DETAIL
  6
CONTINUOUS
 62
     5
 39
50.0
 10
87.857527000000005
 20
159.4852149999999
 30
0.0
 11
87.857527000000005
 21
-148.4446879999999
 31
0.0
  0
LINE
  5
69A
  8
DETAIL
  6
CONTINUOUS
 62
     5
 39
50.0
 10
93.916667000000004
 20
159.4852149999999
 30
0.0
 11
93.916667000000004
 21
-148.4446879999999
 31
0.0
  0
LINE
  5
69B
  8
DETAIL
  6
CONTINUOUS
 62
     5
 39
50.0
 10
93.916667000000004
 20
159.4852149999999
 30
0.0
 11
93.916667000000004
 21
-148.4446879999999
 31
0.0
  0
LINE
  5
69C
  8
DETAIL
  6
CONTINUOUS
 62
     5
 39
50.0
 10
96.513441000000014
 20
159.4852149999999
 30
0.0
 11
96.513441000000014
 21
-148.4446879999999
 31
0.0
  0
LINE
  5
69D
  8
DETAIL
  6
CONTINUOUS
 62
     5
 39
50.0
 10
102.5725809999999
 20
159.4852149999999
 30
0.0
 11
102.5725809999999
 21
-148.4446879999999
 31
0.0
  0
LINE
  5
69E
  8
DETAIL
  6
CONTINUOUS
 62
     5
 39
50.0
 10
102.5725809999999
 20
159.4852149999999
 30
0.0
 11
102.5725809999999
 21
-148.4446879999999
 31
0.0
  0
LINE
  5
69F
  8
DETAIL
  6
CONTINUOUS
 62
     5
 39
50.0
 10
105.169355
 20
159.4852149999999
 30
0.0
 11
105.169355
 21
-148.4446879999999
 31
0.0
  0
LINE
  5
6A0
  8
DETAIL
  6
CONTINUOUS
 62
     5
 39
50.0
 10
111.228495
 20
159.4852149999999
 30
0.0
 11
111.228495
 21
-148.4446879999999
 31
0.0
  0
LINE
  5
6A1
  8
DETAIL
  6
CONTINUOUS
 62
     5
 39
50.0
 10
111.228495
 20
159.4852149999999
 30
0.0
 11
111.228495
 21
-148.4446879999999
 31
0.0
  0
LINE
  5
6A2
  8
DETAIL
  6
CONTINUOUS
 62
     5
 39
50.0
 10
113.82526899999991
 20
159.4852149999999
 30
0.0
 11
113.82526899999991
 21
-22.300530999999999
 31
0.0
  0
LINE
  5
6A3
  8
DETAIL
  6
CONTINUOUS
 62
     5
 39
50.0
 10
119.88440900000001
 20
159.4852149999999
 30
0.0
 11
119.88440900000001
 21
-148.4446879999999
 31
0.0
  0
LINE
  5
6A4
  8
DETAIL
  6
CONTINUOUS
 62
     5
 39
50.0
 10
119.88440900000001
 20
159.4852149999999
 30
0.0
 11
119.88440900000001
 21
-148.4446879999999
 31
0.0
  0
LINE
  5
6A5
  8
DETAIL
  6
CONTINUOUS
 62
     5
 39
50.0
 10
122.4811829999999
 20
159.4852149999999
 30
0.0
 11
122.4811829999999
 21
-148.4446879999999
 31
0.0
  0
ARC
  5
6A6
  8
DETAIL
  6
CONTINUOUS
 62
     5
 39
50.0
 10
-12.983871000000001
 20
22.488723999999991
 30
0.0
 40
47.607526999999997
 50
13.41201199999999
 51
32.279330999999992
  0
ARC
  5
6A7
  8
DETAIL
  6
CONTINUOUS
 62
     5
 39
50.0
 10
0.0
 20
0.0
 30
0.0
 40
115.989248
 50
16.472645
 51
24.944542999999989
  0
ARC
  5
6A8
  8
DETAIL
  6
CONTINUOUS
 62
     5
 39
50.0
 10
0.0
 20
0.0
 30
0.0
 40
112.526882
 50
10.87091999999998
 51
20.833904
  0
LINE
  5
6A9
  8
DETAIL
  6
CONTINUOUS
 62
     5
 39
50.0
 10
113.82526899999991
 20
-22.300530999999999
 30
0.0
 11
113.82526899999991
 21
-148.4446879999999
 31
0.0
  0
ARC
  5
6AA
  8
DETAIL
  6
CONTINUOUS
 62
     5
 39
50.0
 10
97.811828000000006
 20
-148.4446879999999
 30
0.0
 40
1.298387
 50
180.0
 51
270.0
  0
ARC
  5
6AB
  8
DETAIL
  6
CONTINUOUS
 62
     5
 39
50.0
 10
97.811828000000006
 20
-147.13828000000001
 30
0.0
 40
1.298387
 50
180.0
 51
270.0
  0
LINE
  5
6AC
  8
DETAIL
  6
CONTINUOUS
 62
     5
 39
50.0
 10
102.5725809999999
 20
-105.169355
 30
0.0
 11
96.513441000000014
 21
-105.169355
 31
0.0
  0
LINE
  5
6AD
  8
DETAIL
  6
CONTINUOUS
 62
     5
 39
50.0
 10
96.513441000000014
 20
-142.82258100000001
 30
0.0
 11
102.5725809999999
 21
-142.82258100000001
 31
0.0
  0
LINE
  5
6AE
  8
DETAIL
  6
CONTINUOUS
 62
     5
 39
50.0
 10
45.876344000000003
 20
-149.743075
 30
0.0
 11
49.338709999999992
 21
-149.743075
 31
0.0
  0
LINE
  5
6AF
  8
DETAIL
  6
CONTINUOUS
 62
     5
 39
50.0
 10
45.876344000000003
 20
-148.4366669999998
 30
0.0
 11
49.338709999999992
 21
-148.4366669999998
 31
0.0
  0
LINE
  5
6B0
  8
DETAIL
  6
CONTINUOUS
 62
     5
 39
50.0
 10
50.637096999999997
 20
-105.169355
 30
0.0
 11
44.577956999999998
 21
-105.169355
 31
0.0
  0
ARC
  5
6B1
  8
DETAIL
  6
CONTINUOUS
 62
     5
 39
50.0
 10
0.0
 20
0.0
 30
0.0
 40
141.09139799999991
 50
288.41822999999982
 51
291.03239300000001
  0
ARC
  5
6B2
  8
DETAIL
  6
CONTINUOUS
 62
     5
 39
50.0
 10
0.0
 20
0.0
 30
0.0
 40
115.989248
 50
292.60205000000002
 51
294.94454300000001
  0
LINE
  5
6B3
  8
DETAIL
  6
CONTINUOUS
 62
     5
 39
50.0
 10
44.577956999999998
 20
-142.82258100000001
 30
0.0
 11
50.637096999999997
 21
-142.82258100000001
 31
0.0
  0
ARC
  5
6B4
  8
DETAIL
  6
CONTINUOUS
 62
     5
 39
50.0
 10
37.22043
 20
-148.4446879999999
 30
0.0
 40
1.298387
 50
180.0
 51
270.0
  0
ARC
  5
6B5
  8
DETAIL
  6
CONTINUOUS
 62
     5
 39
50.0
 10
37.22043
 20
-147.13828000000001
 30
0.0
 40
1.298387
 50
180.0
 51
270.0
  0
ARC
  5
6B6
  8
DETAIL
  6
CONTINUOUS
 62
     5
 39
50.0
 10
-2.596773999999999
 20
-148.4446879999999
 30
0.0
 40
1.298387
 50
270.0
 51
0.0
  0
ARC
  5
6B7
  8
DETAIL
  6
CONTINUOUS
 62
     5
 39
50.0
 10
-2.596773999999999
 20
-147.13828000000001
 30
0.0
 40
1.298387
 50
270.0
 51
0.0
  0
ARC
  5
6B8
  8
DETAIL
  6
CONTINUOUS
 62
     5
 39
50.0
 10
2.596773999999999
 20
-148.4446879999999
 30
0.0
 40
1.298387
 50
180.0
 51
270.0
  0
LINE
  5
6B9
  8
DETAIL
  6
CONTINUOUS
 62
     5
 39
50.0
 10
2.596773999999999
 20
-149.743075
 30
0.0
 11
6.0591400000000002
 21
-149.743075
 31
0.0
  0
ARC
  5
6BA
  8
DETAIL
  6
CONTINUOUS
 62
     5
 39
50.0
 10
2.596773999999999
 20
-147.13828000000001
 30
0.0
 40
1.298387
 50
180.0
 51
270.0
  0
LINE
  5
6BB
  8
DETAIL
  6
CONTINUOUS
 62
     5
 39
50.0
 10
2.596773999999999
 20
-148.4366669999998
 30
0.0
 11
6.0591400000000002
 21
-148.4366669999998
 31
0.0
  0
ARC
  5
6BC
  8
DETAIL
  6
CONTINUOUS
 62
     5
 39
50.0
 10
6.0591400000000002
 20
-148.4446879999999
 30
0.0
 40
1.298387
 50
270.0
 51
0.0
  0
ARC
  5
6BD
  8
DETAIL
  6
CONTINUOUS
 62
     5
 39
50.0
 10
6.0591400000000002
 20
-147.13828000000001
 30
0.0
 40
1.298387
 50
270.0
 51
0.0
  0
ARC
  5
6BE
  8
DETAIL
  6
CONTINUOUS
 62
     5
 39
50.0
 10
11.25268799999999
 20
-148.4446879999999
 30
0.0
 40
1.298387
 50
180.0
 51
270.0
  0
LINE
  5
6BF
  8
DETAIL
  6
CONTINUOUS
 62
     5
 39
50.0
 10
11.25268799999999
 20
-149.743075
 30
0.0
 11
14.715054
 21
-149.743075
 31
0.0
  0
ARC
  5
6C0
  8
DETAIL
  6
CONTINUOUS
 62
     5
 39
50.0
 10
11.25268799999999
 20
-147.13828000000001
 30
0.0
 40
1.298387
 50
180.0
 51
270.0
  0
LINE
  5
6C1
  8
DETAIL
  6
CONTINUOUS
 62
     5
 39
50.0
 10
11.25268799999999
 20
-148.4366669999998
 30
0.0
 11
14.715054
 21
-148.4366669999998
 31
0.0
  0
ARC
  5
6C2
  8
DETAIL
  6
CONTINUOUS
 62
     5
 39
50.0
 10
14.715054
 20
-148.4446879999999
 30
0.0
 40
1.298387
 50
270.0
 51
0.0
  0
ARC
  5
6C3
  8
DETAIL
  6
CONTINUOUS
 62
     5
 39
50.0
 10
14.715054
 20
-147.13828000000001
 30
0.0
 40
1.298387
 50
270.0
 51
0.0
  0
ARC
  5
6C4
  8
DETAIL
  6
CONTINUOUS
 62
     5
 39
50.0
 10
19.908601999999998
 20
-148.4446879999999
 30
0.0
 40
1.298387
 50
180.0
 51
270.0
  0
LINE
  5
6C5
  8
DETAIL
  6
CONTINUOUS
 62
     5
 39
50.0
 10
19.908601999999998
 20
-149.743075
 30
0.0
 11
23.37096799999998
 21
-149.743075
 31
0.0
  0
ARC
  5
6C6
  8
DETAIL
  6
CONTINUOUS
 62
     5
 39
50.0
 10
19.908601999999998
 20
-147.13828000000001
 30
0.0
 40
1.298387
 50
180.0
 51
270.0
  0
LINE
  5
6C7
  8
DETAIL
  6
CONTINUOUS
 62
     5
 39
50.0
 10
19.908601999999998
 20
-148.4366669999998
 30
0.0
 11
23.37096799999998
 21
-148.4366669999998
 31
0.0
  0
ARC
  5
6C8
  8
DETAIL
  6
CONTINUOUS
 62
     5
 39
50.0
 10
23.37096799999998
 20
-148.4446879999999
 30
0.0
 40
1.298387
 50
270.0
 51
0.0
  0
ARC
  5
6C9
  8
DETAIL
  6
CONTINUOUS
 62
     5
 39
50.0
 10
23.37096799999998
 20
-147.13828000000001
 30
0.0
 40
1.298387
 50
270.0
 51
0.0
  0
ARC
  5
6CA
  8
DETAIL
  6
CONTINUOUS
 62
     5
 39
50.0
 10
28.56451599999999
 20
-148.4446879999999
 30
0.0
 40
1.298387
 50
180.0
 51
270.0
  0
LINE
  5
6CB
  8
DETAIL
  6
CONTINUOUS
 62
     5
 39
50.0
 10
28.56451599999999
 20
-149.743075
 30
0.0
 11
32.026882000000001
 21
-149.743075
 31
0.0
  0
ARC
  5
6CC
  8
DETAIL
  6
CONTINUOUS
 62
     5
 39
50.0
 10
28.56451599999999
 20
-147.13828000000001
 30
0.0
 40
1.298387
 50
180.0
 51
270.0
  0
LINE
  5
6CD
  8
DETAIL
  6
CONTINUOUS
 62
     5
 39
50.0
 10
28.56451599999999
 20
-148.4366669999998
 30
0.0
 11
32.026882000000001
 21
-148.4366669999998
 31
0.0
  0
ARC
  5
6CE
  8
DETAIL
  6
CONTINUOUS
 62
     5
 39
50.0
 10
32.026882000000001
 20
-148.4446879999999
 30
0.0
 40
1.298387
 50
270.0
 51
0.0
  0
ARC
  5
6CF
  8
DETAIL
  6
CONTINUOUS
 62
     5
 39
50.0
 10
32.026882000000001
 20
-147.13828000000001
 30
0.0
 40
1.298387
 50
270.0
 51
0.0
  0
LINE
  5
6D0
  8
DETAIL
  6
CONTINUOUS
 62
     5
 39
50.0
 10
37.22043
 20
-149.743075
 30
0.0
 11
40.682796000000003
 21
-149.743075
 31
0.0
  0
LINE
  5
6D1
  8
DETAIL
  6
CONTINUOUS
 62
     5
 39
50.0
 10
37.22043
 20
-148.4366669999998
 30
0.0
 11
40.682796000000003
 21
-148.4366669999998
 31
0.0
  0
ARC
  5
6D2
  8
DETAIL
  6
CONTINUOUS
 62
     5
 39
50.0
 10
40.682796000000003
 20
-148.4446879999999
 30
0.0
 40
1.298387
 50
270.0
 51
0.0
  0
ARC
  5
6D3
  8
DETAIL
  6
CONTINUOUS
 62
     5
 39
50.0
 10
40.682796000000003
 20
-147.13828000000001
 30
0.0
 40
1.298387
 50
270.0
 51
0.0
  0
ARC
  5
6D4
  8
DETAIL
  6
CONTINUOUS
 62
     5
 39
50.0
 10
45.876344000000003
 20
-148.4446879999999
 30
0.0
 40
1.298387
 50
180.0
 51
270.0
  0
ARC
  5
6D5
  8
DETAIL
  6
CONTINUOUS
 62
     5
 39
50.0
 10
45.876344000000003
 20
-147.13828000000001
 30
0.0
 40
1.298387
 50
180.0
 51
270.0
  0
LINE
  5
6D6
  8
DETAIL
  6
CONTINUOUS
 62
     5
 39
50.0
 10
41.981182999999987
 20
-105.169355
 30
0.0
 11
35.922043000000002
 21
-105.169355
 31
0.0
  0
ARC
  5
6D7
  8
DETAIL
  6
CONTINUOUS
 62
     5
 39
50.0
 10
0.0
 20
0.0
 30
0.0
 40
141.09139799999991
 50
284.74995699999999
 51
287.31027
  0
ARC
  5
6D8
  8
DETAIL
  6
CONTINUOUS
 62
     5
 39
50.0
 10
0.0
 20
0.0
 30
0.0
 40
115.989248
 50
288.04124200000001
 51
291.219404
  0
ARC
  5
6D9
  8
DETAIL
  6
CONTINUOUS
 62
     5
 39
50.0
 10
0.0
 20
0.0
 30
0.0
 40
112.526882
 50
288.61641099999991
 51
290.83390400000002
  0
LINE
  5
6DA
  8
DETAIL
  6
CONTINUOUS
 62
     5
 39
50.0
 10
35.922043000000002
 20
-142.82258100000001
 30
0.0
 11
41.981182999999987
 21
-142.82258100000001
 31
0.0
  0
LINE
  5
6DB
  8
DETAIL
  6
CONTINUOUS
 62
     5
 39
50.0
 10
7.3575270000000002
 20
-105.169355
 30
0.0
 11
1.298387
 21
-105.169355
 31
0.0
  0
LINE
  5
6DC
  8
DETAIL
  6
CONTINUOUS
 62
     5
 39
50.0
 10
16.013441
 20
-105.169355
 30
0.0
 11
9.9543009999999992
 21
-105.169355
 31
0.0
  0
LINE
  5
6DD
  8
DETAIL
  6
CONTINUOUS
 62
     5
 39
50.0
 10
24.669354999999989
 20
-105.169355
 30
0.0
 11
18.610215
 21
-105.169355
 31
0.0
  0
LINE
  5
6DE
  8
DETAIL
  6
CONTINUOUS
 62
     5
 39
50.0
 10
33.325268999999992
 20
-105.169355
 30
0.0
 11
27.266128999999999
 21
-105.169355
 31
0.0
  0
ARC
  5
6DF
  8
DETAIL
  6
CONTINUOUS
 62
     5
 39
50.0
 10
0.0
 20
0.0
 30
0.0
 40
141.09139799999991
 50
281.1426009999999
 51
283.66215199999982
  0
ARC
  5
6E0
  8
DETAIL
  6
CONTINUOUS
 62
     5
 39
50.0
 10
0.0
 20
0.0
 30
0.0
 40
141.09139799999991
 50
277.57950599999992
 51
280.06973299999993
  0
ARC
  5
6E1
  8
DETAIL
  6
CONTINUOUS
 62
     5
 39
50.0
 10
0.0
 20
0.0
 30
0.0
 40
141.09139799999991
 50
274.04570099999989
 51
276.51693799999993
  0
ARC
  5
6E2
  8
DETAIL
  6
CONTINUOUS
 62
     5
 39
50.0
 10
0.0
 20
0.0
 30
0.0
 40
141.09139799999991
 50
270.52726899999999
 51
272.98917299999982
  0
ARC
  5
6E3
  8
DETAIL
  6
CONTINUOUS
 62
     5
 39
50.0
 10
0.0
 20
0.0
 30
0.0
 40
115.989248
 50
270.6413839999999
 51
273.63687599999992
  0
ARC
  5
6E4
  8
DETAIL
  6
CONTINUOUS
 62
     5
 39
50.0
 10
0.0
 20
0.0
 30
0.0
 40
115.989248
 50
274.92323099999999
 51
277.93558499999989
  0
ARC
  5
6E5
  8
DETAIL
  6
CONTINUOUS
 62
     5
 39
50.0
 10
0.0
 20
0.0
 30
0.0
 40
115.989248
 50
279.23288699999989
 51
282.27983899999992
  0
ARC
  5
6E6
  8
DETAIL
  6
CONTINUOUS
 62
     5
 39
50.0
 10
0.0
 20
0.0
 30
0.0
 40
115.989248
 50
283.596022
 51
286.697183
  0
ARC
  5
6E7
  8
DETAIL
  6
CONTINUOUS
 62
     5
 39
50.0
 10
0.0
 20
0.0
 30
0.0
 40
112.526882
 50
270.66111999999993
 51
273.74893700000001
  0
ARC
  5
6E8
  8
DETAIL
  6
CONTINUOUS
 62
     5
 39
50.0
 10
0.0
 20
0.0
 30
0.0
 40
112.526882
 50
275.075107
 51
278.18140499999993
  0
ARC
  5
6E9
  8
DETAIL
  6
CONTINUOUS
 62
     5
 39
50.0
 10
0.0
 20
0.0
 30
0.0
 40
112.526882
 50
279.51957799999991
 51
282.66385600000001
  0
ARC
  5
6EA
  8
DETAIL
  6
CONTINUOUS
 62
     5
 39
50.0
 10
0.0
 20
0.0
 30
0.0
 40
112.526882
 50
284.02278199999989
 51
287.22674000000001
  0
LINE
  5
6EB
  8
DETAIL
  6
CONTINUOUS
 62
     5
 39
50.0
 10
1.298387
 20
-142.82258100000001
 30
0.0
 11
7.3575270000000002
 21
-142.82258100000001
 31
0.0
  0
LINE
  5
6EC
  8
DETAIL
  6
CONTINUOUS
 62
     5
 39
50.0
 10
9.9543009999999992
 20
-142.82258100000001
 30
0.0
 11
16.013441
 21
-142.82258100000001
 31
0.0
  0
LINE
  5
6ED
  8
DETAIL
  6
CONTINUOUS
 62
     5
 39
50.0
 10
18.610215
 20
-142.82258100000001
 30
0.0
 11
24.669354999999989
 21
-142.82258100000001
 31
0.0
  0
LINE
  5
6EE
  8
DETAIL
  6
CONTINUOUS
 62
     5
 39
50.0
 10
27.266128999999999
 20
-142.82258100000001
 30
0.0
 11
33.325268999999992
 21
-142.82258100000001
 31
0.0
  0
LINE
  5
6EF
  8
DETAIL
  6
CONTINUOUS
 62
     5
 39
50.0
 10
36.35486499999999
 20
-106.492361
 30
0.0
 11
36.35486499999999
 21
-110.14458399999999
 31
0.0
  0
LINE
  5
6F0
  8
DETAIL
  6
CONTINUOUS
 62
     5
 39
50.0
 10
45.010778999999999
 20
-106.89965100000001
 30
0.0
 11
45.010778999999999
 21
-105.169355
 31
0.0
  0
ARC
  5
6F1
  8
DETAIL
  6
CONTINUOUS
 62
     5
 39
50.0
 10
49.338709999999992
 20
-148.4446879999999
 30
0.0
 40
1.298387
 50
270.0
 51
0.0
  0
ARC
  5
6F2
  8
DETAIL
  6
CONTINUOUS
 62
     5
 39
50.0
 10
49.338709999999992
 20
-147.13828000000001
 30
0.0
 40
1.298387
 50
270.0
 51
0.0
  0
ARC
  5
6F3
  8
DETAIL
  6
CONTINUOUS
 62
     5
 39
50.0
 10
54.532257999999999
 20
-148.4446879999999
 30
0.0
 40
1.298387
 50
180.0
 51
270.0
  0
LINE
  5
6F4
  8
DETAIL
  6
CONTINUOUS
 62
     5
 39
50.0
 10
54.532257999999999
 20
-149.743075
 30
0.0
 11
57.994624000000002
 21
-149.743075
 31
0.0
  0
ARC
  5
6F5
  8
DETAIL
  6
CONTINUOUS
 62
     5
 39
50.0
 10
54.532257999999999
 20
-147.13828000000001
 30
0.0
 40
1.298387
 50
180.0
 51
270.0
  0
LINE
  5
6F6
  8
DETAIL
  6
CONTINUOUS
 62
     5
 39
50.0
 10
54.532257999999999
 20
-148.4366669999998
 30
0.0
 11
57.994624000000002
 21
-148.4366669999998
 31
0.0
  0
ARC
  5
6F7
  8
DETAIL
  6
CONTINUOUS
 62
     5
 39
50.0
 10
57.994624000000002
 20
-148.4446879999999
 30
0.0
 40
1.298387
 50
270.0
 51
0.0
  0
ARC
  5
6F8
  8
DETAIL
  6
CONTINUOUS
 62
     5
 39
50.0
 10
57.994624000000002
 20
-147.13828000000001
 30
0.0
 40
1.298387
 50
270.0
 51
0.0
  0
ARC
  5
6F9
  8
DETAIL
  6
CONTINUOUS
 62
     5
 39
50.0
 10
63.18817199999998
 20
-148.4446879999999
 30
0.0
 40
1.298387
 50
180.0
 51
270.0
  0
LINE
  5
6FA
  8
DETAIL
  6
CONTINUOUS
 62
     5
 39
50.0
 10
63.18817199999998
 20
-149.743075
 30
0.0
 11
66.650537999999983
 21
-149.743075
 31
0.0
  0
ARC
  5
6FB
  8
DETAIL
  6
CONTINUOUS
 62
     5
 39
50.0
 10
63.18817199999998
 20
-147.13828000000001
 30
0.0
 40
1.298387
 50
180.0
 51
270.0
  0
LINE
  5
6FC
  8
DETAIL
  6
CONTINUOUS
 62
     5
 39
50.0
 10
63.18817199999998
 20
-148.4366669999998
 30
0.0
 11
66.650537999999983
 21
-148.4366669999998
 31
0.0
  0
ARC
  5
6FD
  8
DETAIL
  6
CONTINUOUS
 62
     5
 39
50.0
 10
66.650537999999983
 20
-148.4446879999999
 30
0.0
 40
1.298387
 50
270.0
 51
0.0
  0
ARC
  5
6FE
  8
DETAIL
  6
CONTINUOUS
 62
     5
 39
50.0
 10
66.650537999999983
 20
-147.13828000000001
 30
0.0
 40
1.298387
 50
270.0
 51
0.0
  0
ARC
  5
6FF
  8
DETAIL
  6
CONTINUOUS
 62
     5
 39
50.0
 10
71.844086000000004
 20
-148.4446879999999
 30
0.0
 40
1.298387
 50
180.0
 51
270.0
  0
LINE
  5
700
  8
DETAIL
  6
CONTINUOUS
 62
     5
 39
50.0
 10
71.844086000000004
 20
-149.743075
 30
0.0
 11
75.306451999999993
 21
-149.743075
 31
0.0
  0
ARC
  5
701
  8
DETAIL
  6
CONTINUOUS
 62
     5
 39
50.0
 10
71.844086000000004
 20
-147.13828000000001
 30
0.0
 40
1.298387
 50
180.0
 51
270.0
  0
LINE
  5
702
  8
DETAIL
  6
CONTINUOUS
 62
     5
 39
50.0
 10
71.844086000000004
 20
-148.4366669999998
 30
0.0
 11
75.306451999999993
 21
-148.4366669999998
 31
0.0
  0
ARC
  5
703
  8
DETAIL
  6
CONTINUOUS
 62
     5
 39
50.0
 10
75.306451999999993
 20
-148.4446879999999
 30
0.0
 40
1.298387
 50
270.0
 51
0.0
  0
ARC
  5
704
  8
DETAIL
  6
CONTINUOUS
 62
     5
 39
50.0
 10
75.306451999999993
 20
-147.13828000000001
 30
0.0
 40
1.298387
 50
270.0
 51
0.0
  0
ARC
  5
705
  8
DETAIL
  6
CONTINUOUS
 62
     5
 39
50.0
 10
80.5
 20
-148.4446879999999
 30
0.0
 40
1.298387
 50
180.0
 51
270.0
  0
LINE
  5
706
  8
DETAIL
  6
CONTINUOUS
 62
     5
 39
50.0
 10
80.5
 20
-149.743075
 30
0.0
 11
83.962365999999989
 21
-149.743075
 31
0.0
  0
ARC
  5
707
  8
DETAIL
  6
CONTINUOUS
 62
     5
 39
50.0
 10
80.5
 20
-147.13828000000001
 30
0.0
 40
1.298387
 50
180.0
 51
270.0
  0
LINE
  5
708
  8
DETAIL
  6
CONTINUOUS
 62
     5
 39
50.0
 10
80.5
 20
-148.4366669999998
 30
0.0
 11
83.962365999999989
 21
-148.4366669999998
 31
0.0
  0
ARC
  5
709
  8
DETAIL
  6
CONTINUOUS
 62
     5
 39
50.0
 10
83.962365999999989
 20
-148.4446879999999
 30
0.0
 40
1.298387
 50
270.0
 51
0.0
  0
ARC
  5
70A
  8
DETAIL
  6
CONTINUOUS
 62
     5
 39
50.0
 10
83.962365999999989
 20
-147.13828000000001
 30
0.0
 40
1.298387
 50
270.0
 51
0.0
  0
ARC
  5
70B
  8
DETAIL
  6
CONTINUOUS
 62
     5
 39
50.0
 10
64.91935500000001
 20
-149.74731199999991
 30
0.0
 40
1.947581
 50
42.29598399999999
 51
137.70401599999991
  0
LINE
  5
70C
  8
DETAIL
  6
CONTINUOUS
 62
     5
 39
50.0
 10
59.293010999999993
 20
-105.169355
 30
0.0
 11
53.233871000000001
 21
-105.169355
 31
0.0
  0
LINE
  5
70D
  8
DETAIL
  6
CONTINUOUS
 62
     5
 39
50.0
 10
67.948925000000003
 20
-105.169355
 30
0.0
 11
61.88978500000001
 21
-105.169355
 31
0.0
  0
LINE
  5
70E
  8
DETAIL
  6
CONTINUOUS
 62
     5
 39
50.0
 10
76.604838999999998
 20
-105.169355
 30
0.0
 11
70.545698999999999
 21
-105.169355
 31
0.0
  0
LINE
  5
70F
  8
DETAIL
  6
CONTINUOUS
 62
     5
 39
50.0
 10
85.26075299999998
 20
-105.169355
 30
0.0
 11
79.201612999999981
 21
-105.169355
 31
0.0
  0
ARC
  5
710
  8
DETAIL
  6
CONTINUOUS
 62
     5
 39
50.0
 10
0.0
 20
0.0
 30
0.0
 40
141.09139799999991
 50
304.14918999999998
 51
307.17809
  0
ARC
  5
711
  8
DETAIL
  6
CONTINUOUS
 62
     5
 39
50.0
 10
0.0
 20
0.0
 30
0.0
 40
141.09139799999991
 50
300.0
 51
302.88432899999992
  0
ARC
  5
712
  8
DETAIL
  6
CONTINUOUS
 62
     5
 39
50.0
 10
0.0
 20
0.0
 30
0.0
 40
141.09139799999991
 50
296.01779699999992
 51
298.78963199999993
  0
ARC
  5
713
  8
DETAIL
  6
CONTINUOUS
 62
     5
 39
50.0
 10
0.0
 20
0.0
 30
0.0
 40
141.09139799999991
 50
292.16657599999991
 51
294.85008199999982
  0
LINE
  5
714
  8
DETAIL
  6
CONTINUOUS
 62
     5
 39
50.0
 10
53.233871000000001
 20
-142.82258100000001
 30
0.0
 11
59.293010999999993
 21
-142.82258100000001
 31
0.0
  0
LINE
  5
715
  8
DETAIL
  6
CONTINUOUS
 62
     5
 39
50.0
 10
61.88978500000001
 20
-142.82258100000001
 30
0.0
 11
67.948925000000003
 21
-142.82258100000001
 31
0.0
  0
LINE
  5
716
  8
DETAIL
  6
CONTINUOUS
 62
     5
 39
50.0
 10
70.545698999999999
 20
-142.82258100000001
 30
0.0
 11
76.604838999999998
 21
-142.82258100000001
 31
0.0
  0
LINE
  5
717
  8
DETAIL
  6
CONTINUOUS
 62
     5
 39
50.0
 10
79.201612999999981
 20
-142.82258100000001
 30
0.0
 11
85.26075299999998
 21
-142.82258100000001
 31
0.0
  0
ARC
  5
718
  8
DETAIL
  6
CONTINUOUS
 62
     5
 39
50.0
 10
89.155913999999981
 20
-148.4446879999999
 30
0.0
 40
1.298387
 50
180.0
 51
270.0
  0
LINE
  5
719
  8
DETAIL
  6
CONTINUOUS
 62
     5
 39
50.0
 10
89.155913999999981
 20
-149.743075
 30
0.0
 11
92.618279999999984
 21
-149.743075
 31
0.0
  0
ARC
  5
71A
  8
DETAIL
  6
CONTINUOUS
 62
     5
 39
50.0
 10
89.155913999999981
 20
-147.13828000000001
 30
0.0
 40
1.298387
 50
180.0
 51
270.0
  0
LINE
  5
71B
  8
DETAIL
  6
CONTINUOUS
 62
     5
 39
50.0
 10
89.155913999999981
 20
-148.4366669999998
 30
0.0
 11
92.618279999999984
 21
-148.4366669999998
 31
0.0
  0
ARC
  5
71C
  8
DETAIL
  6
CONTINUOUS
 62
     5
 39
50.0
 10
92.618279999999984
 20
-148.4446879999999
 30
0.0
 40
1.298387
 50
270.0
 51
0.0
  0
ARC
  5
71D
  8
DETAIL
  6
CONTINUOUS
 62
     5
 39
50.0
 10
92.618279999999984
 20
-147.13828000000001
 30
0.0
 40
1.298387
 50
270.0
 51
0.0
  0
LINE
  5
71E
  8
DETAIL
  6
CONTINUOUS
 62
     5
 39
50.0
 10
93.137635000000003
 20
-147.58333400000001
 30
0.0
 11
88.636558999999977
 21
-147.58333400000001
 31
0.0
  0
LINE
  5
71F
  8
DETAIL
  6
CONTINUOUS
 62
     5
 39
50.0
 10
88.636558999999977
 20
-147.58333400000001
 30
0.0
 11
88.636558999999977
 21
-148.328271
 31
0.0
  0
LINE
  5
720
  8
DETAIL
  6
CONTINUOUS
 62
     5
 39
50.0
 10
93.137635000000003
 20
-147.58333400000001
 30
0.0
 11
93.137635000000003
 21
-148.328271
 31
0.0
  0
LINE
  5
721
  8
DETAIL
  6
CONTINUOUS
 62
     5
 39
50.0
 10
93.916667000000004
 20
-105.169355
 30
0.0
 11
87.857527000000005
 21
-105.169355
 31
0.0
  0
ARC
  5
722
  8
DETAIL
  6
CONTINUOUS
 62
     5
 39
50.0
 10
0.0
 20
0.0
 30
0.0
 40
141.09139799999991
 50
308.51352700000001
 51
311.731763
  0
LINE
  5
723
  8
DETAIL
  6
CONTINUOUS
 62
     5
 39
50.0
 10
87.857527000000005
 20
-142.82258100000001
 30
0.0
 11
93.916667000000004
 21
-142.82258100000001
 31
0.0
  0
LINE
  5
724
  8
DETAIL
  6
CONTINUOUS
 62
     5
 39
50.0
 10
128.540323
 20
-142.75749899999991
 30
0.0
 11
128.540323
 21
-148.4446879999999
 31
0.0
  0
LINE
  5
725
  8
DETAIL
  6
CONTINUOUS
 62
     5
 39
50.0
 10
97.811828000000006
 20
-149.743075
 30
0.0
 11
101.2741939999998
 21
-149.743075
 31
0.0
  0
LINE
  5
726
  8
DETAIL
  6
CONTINUOUS
 62
     5
 39
50.0
 10
97.811828000000006
 20
-148.4366669999998
 30
0.0
 11
101.2741939999998
 21
-148.4366669999998
 31
0.0
  0
ARC
  5
727
  8
DETAIL
  6
CONTINUOUS
 62
     5
 39
50.0
 10
101.2741939999998
 20
-148.4446879999999
 30
0.0
 40
1.298387
 50
270.0
 51
0.0
  0
ARC
  5
728
  8
DETAIL
  6
CONTINUOUS
 62
     5
 39
50.0
 10
101.2741939999998
 20
-147.13828000000001
 30
0.0
 40
1.298387
 50
270.0
 51
0.0
  0
ARC
  5
729
  8
DETAIL
  6
CONTINUOUS
 62
     5
 39
50.0
 10
106.4677419999999
 20
-148.4446879999999
 30
0.0
 40
1.298387
 50
180.0
 51
270.0
  0
LINE
  5
72A
  8
DETAIL
  6
CONTINUOUS
 62
     5
 39
50.0
 10
106.4677419999999
 20
-149.743075
 30
0.0
 11
109.930108
 21
-149.743075
 31
0.0
  0
ARC
  5
72B
  8
DETAIL
  6
CONTINUOUS
 62
     5
 39
50.0
 10
106.4677419999999
 20
-147.13828000000001
 30
0.0
 40
1.298387
 50
180.0
 51
270.0
  0
LINE
  5
72C
  8
DETAIL
  6
CONTINUOUS
 62
     5
 39
50.0
 10
106.4677419999999
 20
-148.4366669999998
 30
0.0
 11
109.930108
 21
-148.4366669999998
 31
0.0
  0
ARC
  5
72D
  8
DETAIL
  6
CONTINUOUS
 62
     5
 39
50.0
 10
109.930108
 20
-148.4446879999999
 30
0.0
 40
1.298387
 50
270.0
 51
0.0
  0
ARC
  5
72E
  8
DETAIL
  6
CONTINUOUS
 62
     5
 39
50.0
 10
109.930108
 20
-147.13828000000001
 30
0.0
 40
1.298387
 50
270.0
 51
0.0
  0
ARC
  5
72F
  8
DETAIL
  6
CONTINUOUS
 62
     5
 39
50.0
 10
115.123656
 20
-148.4446879999999
 30
0.0
 40
1.298387
 50
180.0
 51
270.0
  0
LINE
  5
730
  8
DETAIL
  6
CONTINUOUS
 62
     5
 39
50.0
 10
115.123656
 20
-149.743075
 30
0.0
 11
118.586022
 21
-149.743075
 31
0.0
  0
ARC
  5
731
  8
DETAIL
  6
CONTINUOUS
 62
     5
 39
50.0
 10
115.123656
 20
-147.13828000000001
 30
0.0
 40
1.298387
 50
180.0
 51
270.0
  0
LINE
  5
732
  8
DETAIL
  6
CONTINUOUS
 62
     5
 39
50.0
 10
115.123656
 20
-148.4366669999998
 30
0.0
 11
118.586022
 21
-148.4366669999998
 31
0.0
  0
ARC
  5
733
  8
DETAIL
  6
CONTINUOUS
 62
     5
 39
50.0
 10
118.586022
 20
-148.4446879999999
 30
0.0
 40
1.298387
 50
270.0
 51
0.0
  0
ARC
  5
734
  8
DETAIL
  6
CONTINUOUS
 62
     5
 39
50.0
 10
118.586022
 20
-147.13828000000001
 30
0.0
 40
1.298387
 50
270.0
 51
0.0
  0
ARC
  5
735
  8
DETAIL
  6
CONTINUOUS
 62
     5
 39
50.0
 10
123.77956999999979
 20
-148.4446879999999
 30
0.0
 40
1.298387
 50
180.0
 51
270.0
  0
ARC
  5
736
  8
DETAIL
  6
CONTINUOUS
 62
     5
 39
50.0
 10
123.77956999999979
 20
-147.13828000000001
 30
0.0
 40
1.298387
 50
180.0
 51
270.0
  0
ARC
  5
737
  8
DETAIL
  6
CONTINUOUS
 62
     5
 39
50.0
 10
127.241936
 20
-148.4446879999999
 30
0.0
 40
1.298387
 50
270.0
 51
0.0
  0
ARC
  5
738
  8
DETAIL
  6
CONTINUOUS
 62
     5
 39
50.0
 10
127.241936
 20
-147.13828000000001
 30
0.0
 40
1.298387
 50
270.0
 51
0.0
  0
LINE
  5
739
  8
DETAIL
  6
CONTINUOUS
 62
     5
 39
50.0
 10
123.77956999999979
 20
-148.4366669999998
 30
0.0
 11
127.241936
 21
-148.4366669999998
 31
0.0
  0
LINE
  5
73A
  8
DETAIL
  6
CONTINUOUS
 62
     5
 39
50.0
 10
123.77956999999979
 20
-149.743075
 30
0.0
 11
127.241936
 21
-149.743075
 31
0.0
  0
LINE
  5
73B
  8
DETAIL
  6
CONTINUOUS
 62
     5
 39
50.0
 10
111.228495
 20
-105.169355
 30
0.0
 11
105.169355
 21
-105.169355
 31
0.0
  0
LINE
  5
73C
  8
DETAIL
  6
CONTINUOUS
 62
     5
 39
50.0
 10
119.88440900000001
 20
-105.169355
 30
0.0
 11
113.82526899999991
 21
-105.169355
 31
0.0
  0
LINE
  5
73D
  8
DETAIL
  6
CONTINUOUS
 62
     5
 39
50.0
 10
128.540323
 20
-105.169355
 30
0.0
 11
122.4811829999999
 21
-105.169355
 31
0.0
  0
LINE
  5
73E
  8
DETAIL
  6
CONTINUOUS
 62
     5
 39
50.0
 10
105.169355
 20
-142.82258100000001
 30
0.0
 11
111.228495
 21
-142.82258100000001
 31
0.0
  0
ARC
  5
73F
  8
DETAIL
  6
CONTINUOUS
 62
     5
 39
50.0
 10
19.071401999999981
 20
60.078567000000007
 30
0.0
 40
102.48602199999991
 50
319.08089799999988
 51
326.54882599999991
  0
LINE
  5
740
  8
DETAIL
  6
CONTINUOUS
 62
     5
 39
50.0
 10
96.513441000000014
 20
-102.5725809999999
 30
0.0
 11
102.601871
 21
-102.5725809999999
 31
0.0
  0
ARC
  5
741
  8
DETAIL
  6
CONTINUOUS
 62
     5
 39
50.0
 10
0.0
 20
0.0
 30
0.0
 40
115.989248
 50
326.31398799999999
 51
332.16898199999991
  0
ARC
  5
742
  8
DETAIL
  6
CONTINUOUS
 62
     5
 39
50.0
 10
0.0
 20
0.0
 30
0.0
 40
112.526882
 50
329.05845399999993
 51
335.71882900000003
  0
ARC
  5
743
  8
DETAIL
  6
CONTINUOUS
 62
     5
 39
50.0
 10
33.240271
 20
66.892615000000006
 30
0.0
 40
90.887096999999997
 50
314.120788
 51
319.71520699999991
  0
ARC
  5
744
  8
DETAIL
  6
CONTINUOUS
 62
     5
 39
50.0
 10
36.08072199999998
 20
-26.910022999999999
 30
0.0
 40
7.7903229999999981
 50
143.2833829999999
 51
249.28607899999989
  0
ARC
  5
745
  8
DETAIL
  6
CONTINUOUS
 62
     5
 39
50.0
 10
23.370994
 20
-42.306578999999992
 30
0.0
 40
12.983871000000001
 50
39.944687000000002
 51
53.696428000000012
  0
ARC
  5
746
  8
DETAIL
  6
CONTINUOUS
 62
     5
 39
50.0
 10
0.0
 20
0.0
 30
0.0
 40
36.354838999999998
 50
285.89108199999993
 51
296.13426800000002
  0
ARC
  5
747
  8
DETAIL
  6
CONTINUOUS
 62
     5
 39
50.0
 10
0.0
 20
0.0
 30
0.0
 40
35.28667699999999
 50
286.38546000000002
 51
296.988383
  0
LINE
  5
748
  8
DETAIL
  6
CONTINUOUS
 62
     5
 39
50.0
 10
45.010778999999999
 20
-20.636733
 30
0.0
 11
45.010778999999999
 21
-36.022653999999982
 31
0.0
  0
LINE
  5
749
  8
DETAIL
  6
CONTINUOUS
 62
     5
 39
50.0
 10
44.577956999999998
 20
-102.5725809999999
 30
0.0
 11
50.666387
 21
-102.5725809999999
 31
0.0
  0
ARC
  5
74A
  8
DETAIL
  6
CONTINUOUS
 62
     5
 39
50.0
 10
0.0
 20
0.0
 30
0.0
 40
112.526882
 50
294.28117099999992
 51
296.74368399999992
  0
ARC
  5
74B
  8
DETAIL
  6
CONTINUOUS
 62
     5
 39
50.0
 10
25.967742000000001
 20
0.0
 30
0.0
 40
47.607526999999997
 50
293.011078
 51
301.21037000000001
  0
ARC
  5
74C
  8
DETAIL
  6
CONTINUOUS
 62
     5
 39
50.0
 10
46.643926
 20
31.820058
 30
0.0
 40
67.862366000000009
 50
268.25544599999989
 51
273.37335899999988
  0
LINE
  5
74D
  8
DETAIL
  6
CONTINUOUS
 62
     5
 39
50.0
 10
35.922043000000002
 20
-102.5725809999999
 30
0.0
 11
42.01047299999999
 21
-102.5725809999999
 31
0.0
  0
LINE
  5
74E
  8
DETAIL
  6
CONTINUOUS
 62
     5
 39
50.0
 10
1.298387
 20
-102.5725809999999
 30
0.0
 11
7.3868169999999989
 21
-102.5725809999999
 31
0.0
  0
LINE
  5
74F
  8
DETAIL
  6
CONTINUOUS
 62
     5
 39
50.0
 10
9.9543009999999992
 20
-102.5725809999999
 30
0.0
 11
16.042731
 21
-102.5725809999999
 31
0.0
  0
LINE
  5
750
  8
DETAIL
  6
CONTINUOUS
 62
     5
 39
50.0
 10
18.610215
 20
-102.5725809999999
 30
0.0
 11
24.698644999999988
 21
-102.5725809999999
 31
0.0
  0
LINE
  5
751
  8
DETAIL
  6
CONTINUOUS
 62
     5
 39
50.0
 10
27.266128999999999
 20
-102.5725809999999
 30
0.0
 11
33.354559000000002
 21
-102.5725809999999
 31
0.0
  0
ARC
  5
752
  8
DETAIL
  6
CONTINUOUS
 62
     5
 39
50.0
 10
25.967742000000001
 20
0.0
 30
0.0
 40
47.607526999999997
 50
282.06908299999992
 51
289.6554809999999
  0
ARC
  5
753
  8
DETAIL
  6
CONTINUOUS
 62
     5
 39
50.0
 10
47.431932000000003
 20
12.337343000000001
 30
0.0
 40
48.646236999999999
 50
256.31381399999992
 51
260.76478600000002
  0
ARC
  5
754
  8
DETAIL
  6
CONTINUOUS
 62
     5
 39
50.0
 10
25.967742000000001
 20
0.0
 30
0.0
 40
47.607526999999997
 50
238.7896299999999
 51
246.988922
  0
ARC
  5
755
  8
DETAIL
  6
CONTINUOUS
 62
     5
 39
50.0
 10
25.967742000000001
 20
0.0
 30
0.0
 40
47.607526999999997
 50
250.34451899999991
 51
257.93091699999991
  0
ARC
  5
756
  8
DETAIL
  6
CONTINUOUS
 62
     5
 39
50.0
 10
25.967742000000001
 20
0.0
 30
0.0
 40
47.607526999999997
 50
261.10956499999992
 51
268.43719399999992
  0
ARC
  5
757
  8
DETAIL
  6
CONTINUOUS
 62
     5
 39
50.0
 10
25.967742000000001
 20
0.0
 30
0.0
 40
47.607526999999997
 50
271.56280600000002
 51
278.89043500000002
  0
ARC
  5
758
  8
DETAIL
  6
CONTINUOUS
 62
     5
 39
50.0
 10
0.0
 20
0.0
 30
0.0
 40
36.78763499999998
 50
272.02262400000001
 51
281.53695899999991
  0
ARC
  5
759
  8
DETAIL
  6
CONTINUOUS
 62
     5
 39
50.0
 10
0.0
 20
0.0
 30
0.0
 40
36.354838999999998
 50
272.04671300000001
 51
281.67622499999999
  0
ARC
  5
75A
  8
DETAIL
  6
CONTINUOUS
 62
     5
 39
50.0
 10
0.0
 20
0.0
 30
0.0
 40
35.28667699999999
 50
272.10869699999989
 51
282.03488599999991
  0
ARC
  5
75B
  8
DETAIL
  6
CONTINUOUS
 62
     5
 39
50.0
 10
0.0
 20
0.0
 30
0.0
 40
36.78763499999998
 50
285.69927299999989
 51
295.804011
  0
ARC
  5
75C
  8
DETAIL
  6
CONTINUOUS
 62
     5
 39
50.0
 10
46.643926
 20
31.820058
 30
0.0
 40
67.862366000000009
 50
264.06317899999999
 51
266.06017099999991
  0
LINE
  5
75D
  8
DETAIL
  6
CONTINUOUS
 62
     5
 39
50.0
 10
53.233871000000001
 20
-102.5725809999999
 30
0.0
 11
59.322301000000003
 21
-102.5725809999999
 31
0.0
  0
LINE
  5
75E
  8
DETAIL
  6
CONTINUOUS
 62
     5
 39
50.0
 10
61.88978500000001
 20
-102.5725809999999
 30
0.0
 11
67.978215000000006
 21
-102.5725809999999
 31
0.0
  0
LINE
  5
75F
  8
DETAIL
  6
CONTINUOUS
 62
     5
 39
50.0
 10
70.545698999999999
 20
-102.5725809999999
 30
0.0
 11
76.634129000000001
 21
-102.5725809999999
 31
0.0
  0
LINE
  5
760
  8
DETAIL
  6
CONTINUOUS
 62
     5
 39
50.0
 10
79.201612999999981
 20
-102.5725809999999
 30
0.0
 11
85.290043000000026
 21
-102.5725809999999
 31
0.0
  0
ARC
  5
761
  8
DETAIL
  6
CONTINUOUS
 62
     5
 39
50.0
 10
0.0
 20
0.0
 30
0.0
 40
115.989248
 50
297.83101799999991
 51
300.74339600000002
  0
ARC
  5
762
  8
DETAIL
  6
CONTINUOUS
 62
     5
 39
50.0
 10
0.0
 20
0.0
 30
0.0
 40
115.989248
 50
302.24780299999992
 51
305.86100399999998
  0
ARC
  5
763
  8
DETAIL
  6
CONTINUOUS
 62
     5
 39
50.0
 10
0.0
 20
0.0
 30
0.0
 40
115.989248
 50
307.46011099999993
 51
311.33403099999992
  0
ARC
  5
764
  8
DETAIL
  6
CONTINUOUS
 62
     5
 39
50.0
 10
0.0
 20
0.0
 30
0.0
 40
115.989248
 50
313.06564400000002
 51
317.31352199999992
  0
ARC
  5
765
  8
DETAIL
  6
CONTINUOUS
 62
     5
 39
50.0
 10
0.0
 20
0.0
 30
0.0
 40
112.526882
 50
298.23421200000001
 51
301.79779400000001
  0
ARC
  5
766
  8
DETAIL
  6
CONTINUOUS
 62
     5
 39
50.0
 10
0.0
 20
0.0
 30
0.0
 40
112.526882
 50
303.36701299999982
 51
307.14585799999992
  0
ARC
  5
767
  8
DETAIL
  6
CONTINUOUS
 62
     5
 39
50.0
 10
0.0
 20
0.0
 30
0.0
 40
112.526882
 50
308.82347599999991
 51
312.90378299999992
  0
ARC
  5
768
  8
DETAIL
  6
CONTINUOUS
 62
     5
 39
50.0
 10
0.0
 20
0.0
 30
0.0
 40
112.526882
 50
314.73640199999988
 51
319.26117699999992
  0
ARC
  5
769
  8
DETAIL
  6
CONTINUOUS
 62
     5
 39
50.0
 10
25.967742000000001
 20
0.0
 30
0.0
 40
47.607526999999997
 50
304.94062699999989
 51
314.70790099999999
  0
ARC
  5
76A
  8
DETAIL
  6
CONTINUOUS
 62
     5
 39
50.0
 10
46.643926
 20
31.820058
 30
0.0
 40
67.862366000000009
 50
275.57263199999989
 51
277.42215800000002
  0
ARC
  5
76B
  8
DETAIL
  6
CONTINUOUS
 62
     5
 39
50.0
 10
54.292161
 20
-26.890319999999999
 30
0.0
 40
8.6559139999999992
 50
277.42215800000002
 51
292.04701999999997
  0
ARC
  5
76C
  8
DETAIL
  6
CONTINUOUS
 62
     5
 39
50.0
 10
19.071401999999981
 20
60.078567000000007
 30
0.0
 40
102.48602199999991
 50
292.04701999999997
 51
293.10762099999999
  0
ARC
  5
76D
  8
DETAIL
  6
CONTINUOUS
 62
     5
 39
50.0
 10
0.0
 20
0.0
 30
0.0
 40
115.989248
 50
319.24102199999987
 51
324.06677699999989
  0
LINE
  5
76E
  8
DETAIL
  6
CONTINUOUS
 62
     5
 39
50.0
 10
87.857527000000005
 20
-102.5725809999999
 30
0.0
 11
93.945957000000007
 21
-102.5725809999999
 31
0.0
  0
ARC
  5
76F
  8
DETAIL
  6
CONTINUOUS
 62
     5
 39
50.0
 10
0.0
 20
0.0
 30
0.0
 40
112.526882
 50
321.33105899999993
 51
326.57581099999999
  0
ARC
  5
770
  8
DETAIL
  6
CONTINUOUS
 62
     5
 39
50.0
 10
10.819892999999981
 20
-18.740604000000001
 30
0.0
 40
39.817203999999997
 50
357.83986900000002
 51
32.02399599999999
  0
ARC
  5
771
  8
DETAIL
  6
CONTINUOUS
 62
     5
 39
50.0
 10
45.931994000000003
 20
7.4110469999999982
 30
0.0
 40
28.045161
 50
267.23264899999992
 51
270.83023800000001
  0
ARC
  5
772
  8
DETAIL
  6
CONTINUOUS
 62
     5
 39
50.0
 10
0.0
 20
0.0
 30
0.0
 40
36.354838999999998
 50
351.15027500000002
 51
8.8497249999999994
  0
ARC
  5
773
  8
DETAIL
  6
CONTINUOUS
 62
     5
 39
50.0
 10
0.0
 20
0.0
 30
0.0
 40
36.78763499999998
 50
347.54629899999998
 51
12.453701000000001
  0
ARC
  5
774
  8
DETAIL
  6
CONTINUOUS
 62
     5
 39
50.0
 10
0.0
 20
0.0
 30
0.0
 40
32.881081999999992
 50
326.02018799999979
 51
33.979812000000003
  0
ARC
  5
775
  8
DETAIL
  6
CONTINUOUS
 62
     5
 39
50.0
 10
35.326996999999999
 20
-25.002490000000002
 30
0.0
 40
6.0591400000000002
 50
71.883040000000022
 51
84.364103
  0
ARC
  5
776
  8
DETAIL
  6
CONTINUOUS
 62
     5
 39
50.0
 10
31.828011
 20
-26.706800000000001
 30
0.0
 40
5.1935479999999989
 50
322.02617500000002
 51
37.973824999999991
  0
ARC
  5
777
  8
DETAIL
  6
CONTINUOUS
 62
     5
 39
50.0
 10
35.326996999999999
 20
-25.002490000000002
 30
0.0
 40
6.0591400000000002
 50
109.2909319999999
 51
144.7112569999999
  0
ARC
  5
778
  8
DETAIL
  6
CONTINUOUS
 62
     5
 39
50.0
 10
0.0
 20
0.0
 30
0.0
 40
37.22043
 50
323.28338300000001
 51
324.71125699999999
  0
ARC
  5
779
  8
DETAIL
  6
CONTINUOUS
 62
     5
 39
50.0
 10
31.827901000000001
 20
-26.706837
 30
0.0
 40
3.4623659999999989
 50
64.375614999999996
 51
295.62438500000002
  0
LINE
  5
77A
  8
DETAIL
  6
CONTINUOUS
 62
     5
 39
50.0
 10
31.827901000000001
 20
-26.706845999999992
 30
0.0
 11
33.05203199999999
 21
-25.482714999999999
 31
0.0
  0
LINE
  5
77B
  8
DETAIL
  6
CONTINUOUS
 62
     5
 39
50.0
 10
31.827901000000001
 20
-26.706848999999991
 30
0.0
 11
30.603825000000001
 21
-25.48272
 31
0.0
  0
LINE
  5
77C
  8
DETAIL
  6
CONTINUOUS
 62
     5
 39
50.0
 10
31.827901000000001
 20
-26.706827000000001
 30
0.0
 11
33.05203199999999
 21
-27.930958
 31
0.0
  0
LINE
  5
77D
  8
DETAIL
  6
CONTINUOUS
 62
     5
 39
50.0
 10
31.827901000000001
 20
-26.706822999999989
 30
0.0
 11
30.603825000000001
 21
-27.930952999999999
 31
0.0
  0
ARC
  5
77E
  8
DETAIL
  6
CONTINUOUS
 62
     5
 39
50.0
 10
31.828011
 20
-26.706800000000001
 30
0.0
 40
5.1935479999999989
 50
246.62317400000001
 51
286.75572399999999
  0
ARC
  5
77F
  8
DETAIL
  6
CONTINUOUS
 62
     5
 39
50.0
 10
0.0
 20
0.0
 30
0.0
 40
32.881081999999992
 50
272.26304699999991
 51
282.93007299999988
  0
ARC
  5
780
  8
DETAIL
  6
CONTINUOUS
 62
     5
 39
50.0
 10
0.0
 20
0.0
 30
0.0
 40
32.881081999999992
 50
287.62203299999982
 51
299.14429699999982
  0
ARC
  5
781
  8
DETAIL
  6
CONTINUOUS
 62
     5
 39
50.0
 10
0.0
 20
0.0
 30
0.0
 40
36.78763499999998
 50
300.38994200000002
 51
312.11248099999989
  0
ARC
  5
782
  8
DETAIL
  6
CONTINUOUS
 62
     5
 39
50.0
 10
0.0
 20
0.0
 30
0.0
 40
36.354838999999998
 50
300.79078799999979
 51
312.73210999999992
  0
ARC
  5
783
  8
DETAIL
  6
CONTINUOUS
 62
     5
 39
50.0
 10
0.0
 20
0.0
 30
0.0
 40
35.28667699999999
 50
301.82999299999989
 51
314.35583899999989
  0
ARC
  5
784
  8
DETAIL
  6
CONTINUOUS
 62
     5
 39
50.0
 10
0.0
 20
0.0
 30
0.0
 40
32.881081999999992
 50
304.470753
 51
318.61288999999988
  0
ARC
  5
785
  8
DETAIL
  6
CONTINUOUS
 62
     5
 39
50.0
 10
0.0
 20
0.0
 30
0.0
 40
36.78763499999998
 50
317.83172899999983
 51
334.94238499999989
  0
ARC
  5
786
  8
DETAIL
  6
CONTINUOUS
 62
     5
 39
50.0
 10
0.0
 20
0.0
 30
0.0
 40
36.354838999999998
 50
318.59037799999982
 51
336.44353599999999
  0
ARC
  5
787
  8
DETAIL
  6
CONTINUOUS
 62
     5
 39
50.0
 10
0.0
 20
0.0
 30
0.0
 40
35.28667699999999
 50
320.59726099999989
 51
340.80674299999998
  0
ARC
  5
788
  8
DETAIL
  6
CONTINUOUS
 62
     5
 39
50.0
 10
45.931994000000003
 20
7.4110469999999982
 30
0.0
 40
28.045161
 50
251.88303999999999
 51
261.90162199999992
  0
ARC
  5
789
  8
DETAIL
  6
CONTINUOUS
 62
     5
 39
50.0
 10
10.819892999999981
 20
-18.740604000000001
 30
0.0
 40
39.817203999999997
 50
38.499949999999991
 51
50.917793000000003
  0
ARC
  5
78A
  8
DETAIL
  6
CONTINUOUS
 62
     5
 39
50.0
 10
3.9892929999999991
 20
43.095321000000013
 30
0.0
 40
6.0591400000000002
 50
243.63378900000001
 51
264.71125699999982
  0
ARC
  5
78B
  8
DETAIL
  6
CONTINUOUS
 62
     5
 39
50.0
 10
0.0
 20
0.0
 30
0.0
 40
37.22043
 50
83.338510000000014
 51
84.711256999999989
  0
ARC
  5
78C
  8
DETAIL
  6
CONTINUOUS
 62
     5
 39
50.0
 10
5.2644019999999987
 20
44.701833999999991
 30
0.0
 40
7.7903229999999981
 50
263.28338300000001
 51
285.585893
  0
ARC
  5
78D
  8
DETAIL
  6
CONTINUOUS
 62
     5
 39
50.0
 10
0.0
 20
0.0
 30
0.0
 40
35.28667699999999
 50
19.193256999999988
 51
39.40273899999999
  0
ARC
  5
78E
  8
DETAIL
  6
CONTINUOUS
 62
     5
 39
50.0
 10
0.0
 20
0.0
 30
0.0
 40
36.354838999999998
 50
23.556463999999991
 51
41.409621999999992
  0
ARC
  5
78F
  8
DETAIL
  6
CONTINUOUS
 62
     5
 39
50.0
 10
0.0
 20
0.0
 30
0.0
 40
36.78763499999998
 50
25.057614999999998
 51
42.16827099999999
  0
ARC
  5
790
  8
DETAIL
  6
CONTINUOUS
 62
     5
 39
50.0
 10
0.0
 20
0.0
 30
0.0
 40
36.78763499999998
 50
47.887518999999998
 51
59.610057999999988
  0
ARC
  5
791
  8
DETAIL
  6
CONTINUOUS
 62
     5
 39
50.0
 10
0.0
 20
0.0
 30
0.0
 40
36.354838999999998
 50
47.267890000000001
 51
59.209212000000008
  0
ARC
  5
792
  8
DETAIL
  6
CONTINUOUS
 62
     5
 39
50.0
 10
0.0
 20
0.0
 30
0.0
 40
35.28667699999999
 50
45.644160999999983
 51
58.170006999999998
  0
ARC
  5
793
  8
DETAIL
  6
CONTINUOUS
 62
     5
 39
50.0
 10
0.0
 20
0.0
 30
0.0
 40
32.881081999999992
 50
41.387109999999993
 51
55.529246999999991
  0
ARC
  5
794
  8
DETAIL
  6
CONTINUOUS
 62
     5
 39
50.0
 10
0.0
 20
0.0
 30
0.0
 40
32.881081999999992
 50
60.855703000000013
 51
72.377966999999998
  0
ARC
  5
795
  8
DETAIL
  6
CONTINUOUS
 62
     5
 39
50.0
 10
0.0
 20
0.0
 30
0.0
 40
35.28667699999999
 50
63.011617000000008
 51
73.614540000000005
  0
ARC
  5
796
  8
DETAIL
  6
CONTINUOUS
 62
     5
 39
50.0
 10
0.0
 20
0.0
 30
0.0
 40
36.354838999999998
 50
63.865731999999987
 51
74.108918000000003
  0
ARC
  5
797
  8
DETAIL
  6
CONTINUOUS
 62
     5
 39
50.0
 10
0.0
 20
0.0
 30
0.0
 40
36.78763499999998
 50
64.195988999999997
 51
74.300726999999981
  0
ARC
  5
798
  8
DETAIL
  6
CONTINUOUS
 62
     5
 39
50.0
 10
0.0
 20
0.0
 30
0.0
 40
32.881081999999992
 50
77.069927000000007
 51
87.736952999999986
  0
ARC
  5
799
  8
DETAIL
  6
CONTINUOUS
 62
     5
 39
50.0
 10
0.0
 20
0.0
 30
0.0
 40
35.28667699999999
 50
77.965113999999986
 51
87.891302999999994
  0
ARC
  5
79A
  8
DETAIL
  6
CONTINUOUS
 62
     5
 39
50.0
 10
0.0
 20
0.0
 30
0.0
 40
36.78763499999998
 50
78.463041000000004
 51
87.977376000000007
  0
ARC
  5
79B
  8
DETAIL
  6
CONTINUOUS
 62
     5
 39
50.0
 10
0.0
 20
0.0
 30
0.0
 40
36.354838999999998
 50
78.323774999999983
 51
87.953287000000003
  0
ARC
  5
79C
  8
DETAIL
  6
CONTINUOUS
 62
     5
 39
50.0
 10
45.413415999999991
 20
41.684546999999981
 30
0.0
 40
62.322581000000007
 50
277.20867799999991
 51
282.53815400000002
  0
ARC
  5
79D
  8
DETAIL
  6
CONTINUOUS
 62
     5
 39
50.0
 10
43.727524999999993
 20
52.302128000000003
 30
0.0
 40
73.055914000000001
 50
284.39513599999992
 51
289.36264199999999
  0
ARC
  5
79E
  8
DETAIL
  6
CONTINUOUS
 62
     5
 39
50.0
 10
19.071401999999981
 20
60.078567000000007
 30
0.0
 40
102.48602199999991
 50
294.69560000000001
 51
298.48436499999991
  0
ARC
  5
79F
  8
DETAIL
  6
CONTINUOUS
 62
     5
 39
50.0
 10
19.071401999999981
 20
60.078567000000007
 30
0.0
 40
102.48602199999991
 50
300.1494189999998
 51
304.15117599999991
  0
ARC
  5
7A0
  8
DETAIL
  6
CONTINUOUS
 62
     5
 39
50.0
 10
43.727524999999993
 20
52.302128000000003
 30
0.0
 40
73.055914000000001
 50
291.53632799999991
 51
296.74557399999992
  0
ARC
  5
7A1
  8
DETAIL
  6
CONTINUOUS
 62
     5
 39
50.0
 10
19.071401999999981
 20
60.078567000000007
 30
0.0
 40
102.48602199999991
 50
305.92432599999978
 51
310.228523
  0
ARC
  5
7A2
  8
DETAIL
  6
CONTINUOUS
 62
     5
 39
50.0
 10
33.240271
 20
66.892615000000006
 30
0.0
 40
90.887096999999997
 50
300.37763899999999
 51
304.91522400000002
  0
ARC
  5
7A3
  8
DETAIL
  6
CONTINUOUS
 62
     5
 39
50.0
 10
45.413415999999991
 20
41.684546999999981
 30
0.0
 40
62.322581000000007
 50
270.85037599999993
 51
274.80799100000002
  0
ARC
  5
7A4
  8
DETAIL
  6
CONTINUOUS
 62
     5
 39
50.0
 10
43.727524999999993
 20
52.302128000000003
 30
0.0
 40
73.055914000000001
 50
282.02109000000002
 51
282.30189100000001
  0
ARC
  5
7A5
  8
DETAIL
  6
CONTINUOUS
 62
     5
 39
50.0
 10
33.240271
 20
66.892615000000006
 30
0.0
 40
90.887096999999997
 50
306.93690600000002
 51
311.88224500000001
  0
ARC
  5
7A6
  8
DETAIL
  6
CONTINUOUS
 62
     5
 39
50.0
 10
19.071401999999981
 20
60.078567000000007
 30
0.0
 40
102.48602199999991
 50
312.15786900000001
 51
316.91132399999992
  0
ARC
  5
7A7
  8
DETAIL
  6
CONTINUOUS
 62
     5
 39
50.0
 10
0.0
 20
0.0
 30
0.0
 40
115.989248
 50
335.05545699999988
 51
343.527355
  0
ARC
  5
7A8
  8
DETAIL
  6
CONTINUOUS
 62
     5
 39
50.0
 10
0.0
 20
0.0
 30
0.0
 40
112.526882
 50
339.16609599999992
 51
351.287755
  0
LINE
  5
7A9
  8
DETAIL
  6
CONTINUOUS
 62
     5
 39
50.0
 10
105.169355
 20
-102.5725809999999
 30
0.0
 11
111.257785
 21
-102.5725809999999
 31
0.0
  0
LINE
  5
7AA
  8
DETAIL
  6
CONTINUOUS
 62
     5
 39
50.0
 10
113.82526899999991
 20
-102.5725809999999
 30
0.0
 11
119.9136989999998
 21
-102.5725809999999
 31
0.0
  0
LINE
  5
7AB
  8
DETAIL
  6
CONTINUOUS
 62
     5
 39
50.0
 10
122.4811829999999
 20
-102.5725809999999
 30
0.0
 11
128.5696129999998
 21
-102.5725809999999
 31
0.0
  0
ARC
  5
7AC
  8
DETAIL
  6
CONTINUOUS
 62
     5
 39
50.0
 10
0.0
 20
0.0
 30
0.0
 40
141.09139799999991
 50
323.77945299999982
 51
328.17832099999993
  0
ARC
  5
7AD
  8
DETAIL
  6
CONTINUOUS
 62
     5
 39
50.0
 10
0.0
 20
0.0
 30
0.0
 40
141.09139799999991
 50
318.19336200000009
 51
322.03098299999999
  0
ARC
  5
7AE
  8
DETAIL
  6
CONTINUOUS
 62
     5
 39
50.0
 10
0.0
 20
0.0
 30
0.0
 40
141.09139799999991
 50
313.36503199999999
 51
316.63496800000001
  0
ARC
  5
7AF
  8
DETAIL
  6
CONTINUOUS
 62
     5
 39
50.0
 10
0.0
 20
0.0
 30
0.0
 40
141.09139799999991
 50
330.23838000000001
 51
335.64987899999983
  0
ARC
  5
7B0
  8
DETAIL
  6
CONTINUOUS
 62
     5
 39
50.0
 10
0.0
 20
0.0
 30
0.0
 40
115.989248
 50
348.915075
 51
11.084925
  0
ARC
  5
7B1
  8
DETAIL
  6
CONTINUOUS
 62
     5
 39
50.0
 10
0.0
 20
0.0
 30
0.0
 40
115.989248
 50
348.915075
 51
11.084925
  0
ARC
  5
7B2
  8
DETAIL
  6
CONTINUOUS
 62
     5
 39
50.0
 10
33.240271
 20
66.892615000000006
 30
0.0
 40
90.887096999999997
 50
322.3176049999999
 51
327.516929
  0
ARC
  5
7B3
  8
DETAIL
  6
CONTINUOUS
 62
     5
 39
50.0
 10
108.19227099999991
 20
1.199905999999999
 30
0.0
 40
4.3279569999999987
 50
45.449523999999982
 51
146.54882599999979
  0
ARC
  5
7B4
  8
DETAIL
  6
CONTINUOUS
 62
     5
 39
50.0
 10
106.257248
 20
20.405995999999991
 30
0.0
 40
4.3279569999999987
 50
327.516929
 51
10.87091999999998
  0
ARC
  5
7B5
  8
DETAIL
  6
CONTINUOUS
 62
     5
 39
50.0
 10
0.0
 20
0.0
 30
0.0
 40
115.989248
 50
27.831018
 51
33.686011999999998
  0
ARC
  5
7B6
  8
DETAIL
  6
CONTINUOUS
 62
     5
 39
50.0
 10
0.0
 20
0.0
 30
0.0
 40
112.526882
 50
24.281171000000001
 51
30.941545999999988
  0
LINE
  5
7B7
  8
DETAIL
  6
CONTINUOUS
 62
     5
 39
50.0
 10
96.513441000000014
 20
102.5725809999999
 30
0.0
 11
102.601871
 21
102.5725809999999
 31
0.0
  0
LINE
  5
7B8
  8
DETAIL
  6
CONTINUOUS
 62
     5
 39
50.0
 10
102.5725809999999
 20
105.169355
 30
0.0
 11
96.513441000000014
 21
105.169355
 31
0.0
  0
ARC
  5
7B9
  8
DETAIL
  6
CONTINUOUS
 62
     5
 39
50.0
 10
0.0
 20
0.0
 30
0.0
 40
141.09139799999991
 50
43.365031999999999
 51
46.839131999999999
  0
ARC
  5
7BA
  8
DETAIL
  6
CONTINUOUS
 62
     5
 39
50.0
 10
95.864248000000003
 20
159.4852149999999
 30
0.0
 40
0.6491940000000001
 50
0.0
 51
90.0
  0
LINE
  5
7BB
  8
DETAIL
  6
CONTINUOUS
 62
     5
 39
50.0
 10
96.513441000000014
 20
151.47849500000001
 30
0.0
 11
102.5725809999999
 21
151.47849500000001
 31
0.0
  0
LINE
  5
7BC
  8
DETAIL
  6
CONTINUOUS
 62
     5
 39
50.0
 10
96.513441000000014
 20
142.82258100000001
 30
0.0
 11
102.5725809999999
 21
142.82258100000001
 31
0.0
  0
ARC
  5
7BD
  8
DETAIL
  6
CONTINUOUS
 62
     5
 39
50.0
 10
0.0
 20
0.0
 30
0.0
 40
115.989248
 50
68.780596000000003
 51
71.958757999999975
  0
ARC
  5
7BE
  8
DETAIL
  6
CONTINUOUS
 62
     5
 39
50.0
 10
0.0
 20
0.0
 30
0.0
 40
112.526882
 50
72.773259999999979
 51
75.977217999999993
  0
LINE
  5
7BF
  8
DETAIL
  6
CONTINUOUS
 62
     5
 39
50.0
 10
36.35486499999999
 20
110.14458399999999
 30
0.0
 11
36.35486499999999
 21
106.492361
 31
0.0
  0
ARC
  5
7C0
  8
DETAIL
  6
CONTINUOUS
 62
     5
 39
50.0
 10
0.0
 20
0.0
 30
0.0
 40
141.09139799999991
 50
48.268236999999999
 51
51.486472999999997
  0
LINE
  5
7C1
  8
DETAIL
  6
CONTINUOUS
 62
     5
 39
50.0
 10
44.577956999999998
 20
102.5725809999999
 30
0.0
 11
50.666387
 21
102.5725809999999
 31
0.0
  0
LINE
  5
7C2
  8
DETAIL
  6
CONTINUOUS
 62
     5
 39
50.0
 10
50.637096999999997
 20
105.169355
 30
0.0
 11
44.577956999999998
 21
105.169355
 31
0.0
  0
ARC
  5
7C3
  8
DETAIL
  6
CONTINUOUS
 62
     5
 39
50.0
 10
0.0
 20
0.0
 30
0.0
 40
115.989248
 50
65.055456999999976
 51
67.397949999999994
  0
ARC
  5
7C4
  8
DETAIL
  6
CONTINUOUS
 62
     5
 39
50.0
 10
0.0
 20
0.0
 30
0.0
 40
112.526882
 50
63.256316000000012
 51
65.718828999999999
  0
ARC
  5
7C5
  8
DETAIL
  6
CONTINUOUS
 62
     5
 39
50.0
 10
-0.122831
 20
-0.086951
 30
0.0
 40
38.951613000000002
 50
78.928004999999985
 51
85.559754999999981
  0
LINE
  5
7C6
  8
DETAIL
  6
CONTINUOUS
 62
     5
 39
50.0
 10
-2.0922900000000002
 20
42.327028000000013
 30
0.0
 11
-1.298387
 21
42.327028000000013
 31
0.0
  0
ARC
  5
7C7
  8
DETAIL
  6
CONTINUOUS
 62
     5
 39
50.0
 10
-0.122831
 20
41.461435999999999
 30
0.0
 40
5.1935479999999989
 50
4.0727310000000001
 51
74.118380000000002
  0
ARC
  5
7C8
  8
DETAIL
  6
CONTINUOUS
 62
     5
 39
50.0
 10
9.3746299999999998
 20
42.137679999999989
 30
0.0
 40
4.3279569999999987
 50
184.072731
 51
242.22092799999999
  0
LINE
  5
7C9
  8
DETAIL
  6
CONTINUOUS
 62
     5
 39
50.0
 10
1.6949110000000001
 20
40.59584499999999
 30
0.0
 11
1.911308999999999
 21
40.59584499999999
 31
0.0
  0
LINE
  5
7CA
  8
DETAIL
  6
CONTINUOUS
 62
     5
 39
50.0
 10
1.911308999999999
 20
42.327028000000013
 30
0.0
 11
1.911308999999999
 21
40.59584499999999
 31
0.0
  0
ARC
  5
7CB
  8
DETAIL
  6
CONTINUOUS
 62
     5
 39
50.0
 10
2.993297999999998
 20
40.042243999999997
 30
0.0
 40
1.298387
 50
180.0
 51
265.55975499999988
  0
LINE
  5
7CC
  8
DETAIL
  6
CONTINUOUS
 62
     5
 39
50.0
 10
1.6949110000000001
 20
41.894232000000002
 30
0.0
 11
1.298387
 21
41.894232000000002
 31
0.0
  0
LINE
  5
7CD
  8
DETAIL
  6
CONTINUOUS
 62
     5
 39
50.0
 10
1.6949110000000001
 20
41.894232000000002
 30
0.0
 11
1.6949110000000001
 21
40.042243999999997
 31
0.0
  0
ARC
  5
7CE
  8
DETAIL
  6
CONTINUOUS
 62
     5
 39
50.0
 10
-0.122831
 20
41.461435999999999
 30
0.0
 40
5.1935479999999989
 50
103.0822349999998
 51
124.435001
  0
LINE
  5
7CF
  8
DETAIL
  6
CONTINUOUS
 62
     5
 39
50.0
 10
1.298387
 20
42.327028000000013
 30
0.0
 11
1.911308999999999
 21
42.327028000000013
 31
0.0
  0
LINE
  5
7D0
  8
DETAIL
  6
CONTINUOUS
 62
     5
 39
50.0
 10
-1.298387
 20
41.894232000000002
 30
0.0
 11
-1.940572999999999
 21
41.894232000000002
 31
0.0
  0
ARC
  5
7D1
  8
DETAIL
  6
CONTINUOUS
 62
     5
 39
50.0
 10
-12.983871000000001
 20
22.488723999999991
 30
0.0
 40
47.607526999999997
 50
64.705394999999996
 51
72.54239699999998
  0
ARC
  5
7D2
  8
DETAIL
  6
CONTINUOUS
 62
     5
 39
50.0
 10
-12.983871000000001
 20
22.488723999999991
 30
0.0
 40
47.607526999999997
 50
52.476201000000003
 51
61.195782000000001
  0
ARC
  5
7D3
  8
DETAIL
  6
CONTINUOUS
 62
     5
 39
50.0
 10
-12.983871000000001
 20
22.488723999999991
 30
0.0
 40
47.607526999999997
 50
37.72945099999999
 51
48.422203999999986
  0
ARC
  5
7D4
  8
DETAIL
  6
CONTINUOUS
 62
     5
 39
50.0
 10
-50.87894099999999
 20
24.484795999999999
 30
0.0
 40
67.862366000000009
 50
30.889882
 51
37.422158000000003
  0
ARC
  5
7D5
  8
DETAIL
  6
CONTINUOUS
 62
     5
 39
50.0
 10
5.2644019999999987
 20
44.701833999999991
 30
0.0
 40
7.7903229999999981
 50
307.01441999999992
 51
13.868957
  0
ARC
  5
7D6
  8
DETAIL
  6
CONTINUOUS
 62
     5
 39
50.0
 10
-3.8583809999999992
 20
60.463551000000002
 30
0.0
 40
8.6559139999999992
 50
37.422158000000003
 51
52.04702000000001
  0
ARC
  5
7D7
  8
DETAIL
  6
CONTINUOUS
 62
     5
 39
50.0
 10
-50.87894099999999
 20
24.484795999999999
 30
0.0
 40
67.862366000000009
 50
24.063178999999991
 51
26.308474
  0
ARC
  5
7D8
  8
DETAIL
  6
CONTINUOUS
 62
     5
 39
50.0
 10
-61.565266000000001
 20
-13.522964999999999
 30
0.0
 40
102.48602199999991
 50
52.04702000000001
 51
52.165147999999981
  0
ARC
  5
7D9
  8
DETAIL
  6
CONTINUOUS
 62
     5
 39
50.0
 10
-34.400418999999999
 20
34.90858699999999
 30
0.0
 40
48.646236999999999
 50
13.868957
 51
20.76478599999998
  0
ARC
  5
7DA
  8
DETAIL
  6
CONTINUOUS
 62
     5
 39
50.0
 10
3.9892929999999991
 20
43.095321000000013
 30
0.0
 40
6.0591400000000002
 50
191.88303999999999
 51
209.2286169999999
  0
LINE
  5
7DB
  8
DETAIL
  6
CONTINUOUS
 62
     5
 39
50.0
 10
35.922043000000002
 20
102.5725809999999
 30
0.0
 11
42.01047299999999
 21
102.5725809999999
 31
0.0
  0
LINE
  5
7DC
  8
DETAIL
  6
CONTINUOUS
 62
     5
 39
50.0
 10
41.981182999999987
 20
105.169355
 30
0.0
 11
35.922043000000002
 21
105.169355
 31
0.0
  0
ARC
  5
7DD
  8
DETAIL
  6
CONTINUOUS
 62
     5
 39
50.0
 10
0.0
 20
0.0
 30
0.0
 40
112.526882
 50
69.166095999999996
 51
71.383589000000001
  0
LINE
  5
7DE
  8
DETAIL
  6
CONTINUOUS
 62
     5
 39
50.0
 10
1.298387
 20
102.5725809999999
 30
0.0
 11
7.3868169999999989
 21
102.5725809999999
 31
0.0
  0
LINE
  5
7DF
  8
DETAIL
  6
CONTINUOUS
 62
     5
 39
50.0
 10
7.3575270000000002
 20
105.169355
 30
0.0
 11
1.298387
 21
105.169355
 31
0.0
  0
LINE
  5
7E0
  8
DETAIL
  6
CONTINUOUS
 62
     5
 39
50.0
 10
9.9543009999999992
 20
102.5725809999999
 30
0.0
 11
16.042731
 21
102.5725809999999
 31
0.0
  0
LINE
  5
7E1
  8
DETAIL
  6
CONTINUOUS
 62
     5
 39
50.0
 10
16.013441
 20
105.169355
 30
0.0
 11
9.9543009999999992
 21
105.169355
 31
0.0
  0
LINE
  5
7E2
  8
DETAIL
  6
CONTINUOUS
 62
     5
 39
50.0
 10
18.610215
 20
102.5725809999999
 30
0.0
 11
24.698644999999988
 21
102.5725809999999
 31
0.0
  0
LINE
  5
7E3
  8
DETAIL
  6
CONTINUOUS
 62
     5
 39
50.0
 10
24.669354999999989
 20
105.169355
 30
0.0
 11
18.610215
 21
105.169355
 31
0.0
  0
LINE
  5
7E4
  8
DETAIL
  6
CONTINUOUS
 62
     5
 39
50.0
 10
27.266128999999999
 20
102.5725809999999
 30
0.0
 11
33.354559000000002
 21
102.5725809999999
 31
0.0
  0
LINE
  5
7E5
  8
DETAIL
  6
CONTINUOUS
 62
     5
 39
50.0
 10
33.325268999999992
 20
105.169355
 30
0.0
 11
27.266128999999999
 21
105.169355
 31
0.0
  0
LINE
  5
7E6
  8
DETAIL
  6
CONTINUOUS
 62
     5
 39
50.0
 10
45.010778999999999
 20
106.89965100000001
 30
0.0
 11
45.010778999999999
 21
103.13257900000001
 31
0.0
  0
LINE
  5
7E7
  8
DETAIL
  6
CONTINUOUS
 62
     5
 39
50.0
 10
53.233871000000001
 20
102.5725809999999
 30
0.0
 11
59.322301000000003
 21
102.5725809999999
 31
0.0
  0
LINE
  5
7E8
  8
DETAIL
  6
CONTINUOUS
 62
     5
 39
50.0
 10
59.293010999999993
 20
105.169355
 30
0.0
 11
53.233871000000001
 21
105.169355
 31
0.0
  0
LINE
  5
7E9
  8
DETAIL
  6
CONTINUOUS
 62
     5
 39
50.0
 10
61.88978500000001
 20
102.5725809999999
 30
0.0
 11
67.978215000000006
 21
102.5725809999999
 31
0.0
  0
LINE
  5
7EA
  8
DETAIL
  6
CONTINUOUS
 62
     5
 39
50.0
 10
67.948925000000003
 20
105.169355
 30
0.0
 11
61.88978500000001
 21
105.169355
 31
0.0
  0
LINE
  5
7EB
  8
DETAIL
  6
CONTINUOUS
 62
     5
 39
50.0
 10
70.545698999999999
 20
102.5725809999999
 30
0.0
 11
76.634129000000001
 21
102.5725809999999
 31
0.0
  0
LINE
  5
7EC
  8
DETAIL
  6
CONTINUOUS
 62
     5
 39
50.0
 10
76.604838999999998
 20
105.169355
 30
0.0
 11
70.545698999999999
 21
105.169355
 31
0.0
  0
LINE
  5
7ED
  8
DETAIL
  6
CONTINUOUS
 62
     5
 39
50.0
 10
79.201612999999981
 20
102.5725809999999
 30
0.0
 11
85.290043000000026
 21
102.5725809999999
 31
0.0
  0
LINE
  5
7EE
  8
DETAIL
  6
CONTINUOUS
 62
     5
 39
50.0
 10
85.26075299999998
 20
105.169355
 30
0.0
 11
79.201612999999981
 21
105.169355
 31
0.0
  0
ARC
  5
7EF
  8
DETAIL
  6
CONTINUOUS
 62
     5
 39
50.0
 10
0.0
 20
0.0
 30
0.0
 40
115.989248
 50
59.25660400000001
 51
62.168981999999993
  0
ARC
  5
7F0
  8
DETAIL
  6
CONTINUOUS
 62
     5
 39
50.0
 10
0.0
 20
0.0
 30
0.0
 40
115.989248
 50
42.686478000000001
 51
46.934356000000001
  0
ARC
  5
7F1
  8
DETAIL
  6
CONTINUOUS
 62
     5
 39
50.0
 10
0.0
 20
0.0
 30
0.0
 40
115.989248
 50
54.138995999999999
 51
57.752197000000002
  0
ARC
  5
7F2
  8
DETAIL
  6
CONTINUOUS
 62
     5
 39
50.0
 10
0.0
 20
0.0
 30
0.0
 40
115.989248
 50
48.665968999999997
 51
52.539889000000002
  0
ARC
  5
7F3
  8
DETAIL
  6
CONTINUOUS
 62
     5
 39
50.0
 10
0.0
 20
0.0
 30
0.0
 40
112.526882
 50
40.738822999999996
 51
45.26359799999998
  0
ARC
  5
7F4
  8
DETAIL
  6
CONTINUOUS
 62
     5
 39
50.0
 10
0.0
 20
0.0
 30
0.0
 40
112.526882
 50
47.096217000000003
 51
51.176524000000001
  0
ARC
  5
7F5
  8
DETAIL
  6
CONTINUOUS
 62
     5
 39
50.0
 10
0.0
 20
0.0
 30
0.0
 40
112.526882
 50
52.854142000000003
 51
56.632987000000007
  0
ARC
  5
7F6
  8
DETAIL
  6
CONTINUOUS
 62
     5
 39
50.0
 10
0.0
 20
0.0
 30
0.0
 40
112.526882
 50
58.202205999999997
 51
61.765788000000001
  0
ARC
  5
7F7
  8
DETAIL
  6
CONTINUOUS
 62
     5
 39
50.0
 10
0.0
 20
0.0
 30
0.0
 40
115.989248
 50
35.933222999999998
 51
38.973207000000002
  0
ARC
  5
7F8
  8
DETAIL
  6
CONTINUOUS
 62
     5
 39
50.0
 10
0.0
 20
0.0
 30
0.0
 40
112.526882
 50
33.424188999999998
 51
38.66894099999999
  0
LINE
  5
7F9
  8
DETAIL
  6
CONTINUOUS
 62
     5
 39
50.0
 10
87.857527000000005
 20
102.5725809999999
 30
0.0
 11
93.945957000000007
 21
102.5725809999999
 31
0.0
  0
LINE
  5
7FA
  8
DETAIL
  6
CONTINUOUS
 62
     5
 39
50.0
 10
93.916667000000004
 20
105.169355
 30
0.0
 11
87.857527000000005
 21
105.169355
 31
0.0
  0
ARC
  5
7FB
  8
DETAIL
  6
CONTINUOUS
 62
     5
 39
50.0
 10
0.0
 20
0.0
 30
0.0
 40
115.989248
 50
39.577903999999997
 51
40.758977999999992
  0
ARC
  5
7FC
  8
DETAIL
  6
CONTINUOUS
 62
     5
 39
50.0
 10
0.0
 20
0.0
 30
0.0
 40
141.09139799999991
 50
68.967607000000001
 51
71.581769999999977
  0
LINE
  5
7FD
  8
DETAIL
  6
CONTINUOUS
 62
     5
 39
50.0
 10
44.577956999999998
 20
151.47849500000001
 30
0.0
 11
50.637096999999997
 21
151.47849500000001
 31
0.0
  0
LINE
  5
7FE
  8
DETAIL
  6
CONTINUOUS
 62
     5
 39
50.0
 10
44.577956999999998
 20
142.82258100000001
 30
0.0
 11
50.637096999999997
 21
142.82258100000001
 31
0.0
  0
ARC
  5
7FF
  8
DETAIL
  6
CONTINUOUS
 62
     5
 39
50.0
 10
0.0
 20
0.0
 30
0.0
 40
141.09139799999991
 50
87.010827000000006
 51
89.472731000000024
  0
ARC
  5
800
  8
DETAIL
  6
CONTINUOUS
 62
     5
 39
50.0
 10
0.0
 20
0.0
 30
0.0
 40
141.09139799999991
 50
72.689730000000026
 51
75.250043000000005
  0
ARC
  5
801
  8
DETAIL
  6
CONTINUOUS
 62
     5
 39
50.0
 10
0.0
 20
0.0
 30
0.0
 40
115.989248
 50
86.363123999999985
 51
89.358615999999998
  0
ARC
  5
802
  8
DETAIL
  6
CONTINUOUS
 62
     5
 39
50.0
 10
0.0
 20
0.0
 30
0.0
 40
115.989248
 50
82.064414999999983
 51
85.076768999999985
  0
ARC
  5
803
  8
DETAIL
  6
CONTINUOUS
 62
     5
 39
50.0
 10
0.0
 20
0.0
 30
0.0
 40
115.989248
 50
77.720161000000004
 51
80.767112999999966
  0
ARC
  5
804
  8
DETAIL
  6
CONTINUOUS
 62
     5
 39
50.0
 10
0.0
 20
0.0
 30
0.0
 40
115.989248
 50
73.302817000000005
 51
76.403978000000023
  0
ARC
  5
805
  8
DETAIL
  6
CONTINUOUS
 62
     5
 39
50.0
 10
0.0
 20
0.0
 30
0.0
 40
141.09139799999991
 50
83.483062000000004
 51
85.954299000000006
  0
ARC
  5
806
  8
DETAIL
  6
CONTINUOUS
 62
     5
 39
50.0
 10
0.0
 20
0.0
 30
0.0
 40
141.09139799999991
 50
79.930267000000001
 51
82.420493999999977
  0
ARC
  5
807
  8
DETAIL
  6
CONTINUOUS
 62
     5
 39
50.0
 10
0.0
 20
0.0
 30
0.0
 40
141.09139799999991
 50
76.33784799999998
 51
78.857399000000001
  0
ARC
  5
808
  8
DETAIL
  6
CONTINUOUS
 62
     5
 39
50.0
 10
0.0
 20
0.0
 30
0.0
 40
112.526882
 50
86.251063000000002
 51
89.338880000000003
  0
ARC
  5
809
  8
DETAIL
  6
CONTINUOUS
 62
     5
 39
50.0
 10
0.0
 20
0.0
 30
0.0
 40
112.526882
 50
81.818594999999988
 51
84.924892999999983
  0
ARC
  5
80A
  8
DETAIL
  6
CONTINUOUS
 62
     5
 39
50.0
 10
0.0
 20
0.0
 30
0.0
 40
112.526882
 50
77.336143999999976
 51
80.48042199999999
  0
LINE
  5
80B
  8
DETAIL
  6
CONTINUOUS
 62
     5
 39
50.0
 10
35.922043000000002
 20
151.47849500000001
 30
0.0
 11
41.981182999999987
 21
151.47849500000001
 31
0.0
  0
LINE
  5
80C
  8
DETAIL
  6
CONTINUOUS
 62
     5
 39
50.0
 10
35.922043000000002
 20
142.82258100000001
 30
0.0
 11
41.981182999999987
 21
142.82258100000001
 31
0.0
  0
ARC
  5
80D
  8
DETAIL
  6
CONTINUOUS
 62
     5
 39
50.0
 10
-0.6491940000000001
 20
159.4852149999999
 30
0.0
 40
0.6491940000000001
 50
90.0
 51
180.0
  0
ARC
  5
80E
  8
DETAIL
  6
CONTINUOUS
 62
     5
 39
50.0
 10
-0.6491940000000001
 20
159.4852149999999
 30
0.0
 40
0.6491940000000001
 50
90.0
 51
180.0
  0
ARC
  5
80F
  8
DETAIL
  6
CONTINUOUS
 62
     5
 39
50.0
 10
0.6491940000000001
 20
159.4852149999999
 30
0.0
 40
0.6491940000000001
 50
0.0
 51
90.0
  0
ARC
  5
810
  8
DETAIL
  6
CONTINUOUS
 62
     5
 39
50.0
 10
8.0067199999999978
 20
159.4852149999999
 30
0.0
 40
0.6491940000000001
 50
90.0
 51
180.0
  0
LINE
  5
811
  8
DETAIL
  6
CONTINUOUS
 62
     5
 39
50.0
 10
1.298387
 20
151.47849500000001
 30
0.0
 11
7.3575270000000002
 21
151.47849500000001
 31
0.0
  0
ARC
  5
812
  8
DETAIL
  6
CONTINUOUS
 62
     5
 39
50.0
 10
8.0067199999999978
 20
159.4852149999999
 30
0.0
 40
0.6491940000000001
 50
90.0
 51
180.0
  0
ARC
  5
813
  8
DETAIL
  6
CONTINUOUS
 62
     5
 39
50.0
 10
9.3051080000000006
 20
159.4852149999999
 30
0.0
 40
0.6491940000000001
 50
0.0
 51
90.0
  0
ARC
  5
814
  8
DETAIL
  6
CONTINUOUS
 62
     5
 39
50.0
 10
16.662634000000001
 20
159.4852149999999
 30
0.0
 40
0.6491940000000001
 50
90.0
 51
180.0
  0
LINE
  5
815
  8
DETAIL
  6
CONTINUOUS
 62
     5
 39
50.0
 10
9.9543009999999992
 20
151.47849500000001
 30
0.0
 11
16.013441
 21
151.47849500000001
 31
0.0
  0
ARC
  5
816
  8
DETAIL
  6
CONTINUOUS
 62
     5
 39
50.0
 10
16.662634000000001
 20
159.4852149999999
 30
0.0
 40
0.6491940000000001
 50
90.0
 51
180.0
  0
ARC
  5
817
  8
DETAIL
  6
CONTINUOUS
 62
     5
 39
50.0
 10
17.961021999999989
 20
159.4852149999999
 30
0.0
 40
0.6491940000000001
 50
0.0
 51
90.0
  0
ARC
  5
818
  8
DETAIL
  6
CONTINUOUS
 62
     5
 39
50.0
 10
25.318548
 20
159.4852149999999
 30
0.0
 40
0.6491940000000001
 50
90.0
 51
180.0
  0
LINE
  5
819
  8
DETAIL
  6
CONTINUOUS
 62
     5
 39
50.0
 10
18.610215
 20
151.47849500000001
 30
0.0
 11
24.669354999999989
 21
151.47849500000001
 31
0.0
  0
ARC
  5
81A
  8
DETAIL
  6
CONTINUOUS
 62
     5
 39
50.0
 10
25.318548
 20
159.4852149999999
 30
0.0
 40
0.6491940000000001
 50
90.0
 51
180.0
  0
ARC
  5
81B
  8
DETAIL
  6
CONTINUOUS
 62
     5
 39
50.0
 10
26.616935999999988
 20
159.4852149999999
 30
0.0
 40
0.6491940000000001
 50
0.0
 51
90.0
  0
ARC
  5
81C
  8
DETAIL
  6
CONTINUOUS
 62
     5
 39
50.0
 10
33.974462000000003
 20
159.4852149999999
 30
0.0
 40
0.6491940000000001
 50
90.0
 51
180.0
  0
LINE
  5
81D
  8
DETAIL
  6
CONTINUOUS
 62
     5
 39
50.0
 10
27.266128999999999
 20
151.47849500000001
 30
0.0
 11
33.325268999999992
 21
151.47849500000001
 31
0.0
  0
ARC
  5
81E
  8
DETAIL
  6
CONTINUOUS
 62
     5
 39
50.0
 10
33.974462000000003
 20
159.4852149999999
 30
0.0
 40
0.6491940000000001
 50
90.0
 51
180.0
  0
ARC
  5
81F
  8
DETAIL
  6
CONTINUOUS
 62
     5
 39
50.0
 10
35.272849999999998
 20
159.4852149999999
 30
0.0
 40
0.6491940000000001
 50
0.0
 51
90.0
  0
LINE
  5
820
  8
DETAIL
  6
CONTINUOUS
 62
     5
 39
50.0
 10
1.298387
 20
142.82258100000001
 30
0.0
 11
7.3575270000000002
 21
142.82258100000001
 31
0.0
  0
LINE
  5
821
  8
DETAIL
  6
CONTINUOUS
 62
     5
 39
50.0
 10
9.9543009999999992
 20
142.82258100000001
 30
0.0
 11
16.013441
 21
142.82258100000001
 31
0.0
  0
LINE
  5
822
  8
DETAIL
  6
CONTINUOUS
 62
     5
 39
50.0
 10
18.610215
 20
142.82258100000001
 30
0.0
 11
24.669354999999989
 21
142.82258100000001
 31
0.0
  0
LINE
  5
823
  8
DETAIL
  6
CONTINUOUS
 62
     5
 39
50.0
 10
27.266128999999999
 20
142.82258100000001
 30
0.0
 11
33.325268999999992
 21
142.82258100000001
 31
0.0
  0
ARC
  5
824
  8
DETAIL
  6
CONTINUOUS
 62
     5
 39
50.0
 10
42.630375999999991
 20
159.4852149999999
 30
0.0
 40
0.6491940000000001
 50
90.0
 51
180.0
  0
ARC
  5
825
  8
DETAIL
  6
CONTINUOUS
 62
     5
 39
50.0
 10
42.630375999999991
 20
159.4852149999999
 30
0.0
 40
0.6491940000000001
 50
90.0
 51
180.0
  0
ARC
  5
826
  8
DETAIL
  6
CONTINUOUS
 62
     5
 39
50.0
 10
43.928764000000001
 20
159.4852149999999
 30
0.0
 40
0.6491940000000001
 50
0.0
 51
90.0
  0
ARC
  5
827
  8
DETAIL
  6
CONTINUOUS
 62
     5
 39
50.0
 10
0.0
 20
0.0
 30
0.0
 40
141.09139799999991
 50
65.149918
 51
67.833423999999994
  0
ARC
  5
828
  8
DETAIL
  6
CONTINUOUS
 62
     5
 39
50.0
 10
0.0
 20
0.0
 30
0.0
 40
141.09139799999991
 50
61.210368000000003
 51
63.982203000000013
  0
ARC
  5
829
  8
DETAIL
  6
CONTINUOUS
 62
     5
 39
50.0
 10
0.0
 20
0.0
 30
0.0
 40
141.09139799999991
 50
57.115670999999992
 51
60.0
  0
ARC
  5
82A
  8
DETAIL
  6
CONTINUOUS
 62
     5
 39
50.0
 10
0.0
 20
0.0
 30
0.0
 40
141.09139799999991
 50
52.821910000000003
 51
55.850810000000003
  0
ARC
  5
82B
  8
DETAIL
  6
CONTINUOUS
 62
     5
 39
50.0
 10
51.286290000000001
 20
159.4852149999999
 30
0.0
 40
0.6491940000000001
 50
90.0
 51
180.0
  0
ARC
  5
82C
  8
DETAIL
  6
CONTINUOUS
 62
     5
 39
50.0
 10
51.286290000000001
 20
159.4852149999999
 30
0.0
 40
0.6491940000000001
 50
90.0
 51
180.0
  0
ARC
  5
82D
  8
DETAIL
  6
CONTINUOUS
 62
     5
 39
50.0
 10
52.584677999999997
 20
159.4852149999999
 30
0.0
 40
0.6491940000000001
 50
0.0
 51
90.0
  0
ARC
  5
82E
  8
DETAIL
  6
CONTINUOUS
 62
     5
 39
50.0
 10
59.94220399999999
 20
159.4852149999999
 30
0.0
 40
0.6491940000000001
 50
90.0
 51
180.0
  0
LINE
  5
82F
  8
DETAIL
  6
CONTINUOUS
 62
     5
 39
50.0
 10
53.233871000000001
 20
151.47849500000001
 30
0.0
 11
59.293010999999993
 21
151.47849500000001
 31
0.0
  0
ARC
  5
830
  8
DETAIL
  6
CONTINUOUS
 62
     5
 39
50.0
 10
59.94220399999999
 20
159.4852149999999
 30
0.0
 40
0.6491940000000001
 50
90.0
 51
180.0
  0
ARC
  5
831
  8
DETAIL
  6
CONTINUOUS
 62
     5
 39
50.0
 10
61.240592000000007
 20
159.4852149999999
 30
0.0
 40
0.6491940000000001
 50
0.0
 51
90.0
  0
ARC
  5
832
  8
DETAIL
  6
CONTINUOUS
 62
     5
 39
50.0
 10
68.598117999999999
 20
159.4852149999999
 30
0.0
 40
0.6491940000000001
 50
90.0
 51
180.0
  0
LINE
  5
833
  8
DETAIL
  6
CONTINUOUS
 62
     5
 39
50.0
 10
61.88978500000001
 20
151.47849500000001
 30
0.0
 11
67.948925000000003
 21
151.47849500000001
 31
0.0
  0
ARC
  5
834
  8
DETAIL
  6
CONTINUOUS
 62
     5
 39
50.0
 10
68.598117999999999
 20
159.4852149999999
 30
0.0
 40
0.6491940000000001
 50
90.0
 51
180.0
  0
ARC
  5
835
  8
DETAIL
  6
CONTINUOUS
 62
     5
 39
50.0
 10
69.896506000000002
 20
159.4852149999999
 30
0.0
 40
0.6491940000000001
 50
0.0
 51
90.0
  0
ARC
  5
836
  8
DETAIL
  6
CONTINUOUS
 62
     5
 39
50.0
 10
77.254031999999981
 20
159.4852149999999
 30
0.0
 40
0.6491940000000001
 50
90.0
 51
180.0
  0
LINE
  5
837
  8
DETAIL
  6
CONTINUOUS
 62
     5
 39
50.0
 10
70.545698999999999
 20
151.47849500000001
 30
0.0
 11
76.604838999999998
 21
151.47849500000001
 31
0.0
  0
ARC
  5
838
  8
DETAIL
  6
CONTINUOUS
 62
     5
 39
50.0
 10
77.254031999999981
 20
159.4852149999999
 30
0.0
 40
0.6491940000000001
 50
90.0
 51
180.0
  0
ARC
  5
839
  8
DETAIL
  6
CONTINUOUS
 62
     5
 39
50.0
 10
78.552419999999998
 20
159.4852149999999
 30
0.0
 40
0.6491940000000001
 50
0.0
 51
90.0
  0
ARC
  5
83A
  8
DETAIL
  6
CONTINUOUS
 62
     5
 39
50.0
 10
85.909946000000005
 20
159.4852149999999
 30
0.0
 40
0.6491940000000001
 50
90.0
 51
180.0
  0
LINE
  5
83B
  8
DETAIL
  6
CONTINUOUS
 62
     5
 39
50.0
 10
79.201612999999981
 20
151.47849500000001
 30
0.0
 11
85.26075299999998
 21
151.47849500000001
 31
0.0
  0
ARC
  5
83C
  8
DETAIL
  6
CONTINUOUS
 62
     5
 39
50.0
 10
85.909946000000005
 20
159.4852149999999
 30
0.0
 40
0.6491940000000001
 50
90.0
 51
180.0
  0
ARC
  5
83D
  8
DETAIL
  6
CONTINUOUS
 62
     5
 39
50.0
 10
86.559139999999999
 20
149.74731199999991
 30
0.0
 40
1.947581
 50
131.810315
 51
228.1896849999998
  0
LINE
  5
83E
  8
DETAIL
  6
CONTINUOUS
 62
     5
 39
50.0
 10
53.233871000000001
 20
142.82258100000001
 30
0.0
 11
59.293010999999993
 21
142.82258100000001
 31
0.0
  0
LINE
  5
83F
  8
DETAIL
  6
CONTINUOUS
 62
     5
 39
50.0
 10
61.88978500000001
 20
142.82258100000001
 30
0.0
 11
67.948925000000003
 21
142.82258100000001
 31
0.0
  0
LINE
  5
840
  8
DETAIL
  6
CONTINUOUS
 62
     5
 39
50.0
 10
70.545698999999999
 20
142.82258100000001
 30
0.0
 11
76.604838999999998
 21
142.82258100000001
 31
0.0
  0
LINE
  5
841
  8
DETAIL
  6
CONTINUOUS
 62
     5
 39
50.0
 10
79.201612999999981
 20
142.82258100000001
 30
0.0
 11
85.26075299999998
 21
142.82258100000001
 31
0.0
  0
ARC
  5
842
  8
DETAIL
  6
CONTINUOUS
 62
     5
 39
50.0
 10
87.208333999999979
 20
159.4852149999999
 30
0.0
 40
0.6491940000000001
 50
0.0
 51
90.0
  0
ARC
  5
843
  8
DETAIL
  6
CONTINUOUS
 62
     5
 39
50.0
 10
94.565859999999986
 20
159.4852149999999
 30
0.0
 40
0.6491940000000001
 50
90.0
 51
180.0
  0
LINE
  5
844
  8
DETAIL
  6
CONTINUOUS
 62
     5
 39
50.0
 10
87.857527000000005
 20
151.47849500000001
 30
0.0
 11
93.916667000000004
 21
151.47849500000001
 31
0.0
  0
ARC
  5
845
  8
DETAIL
  6
CONTINUOUS
 62
     5
 39
50.0
 10
94.565859999999986
 20
159.4852149999999
 30
0.0
 40
0.6491940000000001
 50
90.0
 51
180.0
  0
LINE
  5
846
  8
DETAIL
  6
CONTINUOUS
 62
     5
 39
50.0
 10
87.857527000000005
 20
142.82258100000001
 30
0.0
 11
93.916667000000004
 21
142.82258100000001
 31
0.0
  0
ARC
  5
847
  8
DETAIL
  6
CONTINUOUS
 62
     5
 39
50.0
 10
86.559139999999999
 20
149.74731199999991
 30
0.0
 40
1.947581
 50
311.810315
 51
48.189684999999997
  0
ARC
  5
848
  8
DETAIL
  6
CONTINUOUS
 62
     5
 39
50.0
 10
0.0
 20
0.0
 30
0.0
 40
141.09139799999991
 50
24.35012099999998
 51
29.761620000000001
  0
LINE
  5
849
  8
DETAIL
  6
CONTINUOUS
 62
     5
 39
50.0
 10
105.169355
 20
102.5725809999999
 30
0.0
 11
111.257785
 21
102.5725809999999
 31
0.0
  0
LINE
  5
84A
  8
DETAIL
  6
CONTINUOUS
 62
     5
 39
50.0
 10
111.228495
 20
105.169355
 30
0.0
 11
105.169355
 21
105.169355
 31
0.0
  0
LINE
  5
84B
  8
DETAIL
  6
CONTINUOUS
 62
     5
 39
50.0
 10
113.82526899999991
 20
102.5725809999999
 30
0.0
 11
119.9136989999998
 21
102.5725809999999
 31
0.0
  0
LINE
  5
84C
  8
DETAIL
  6
CONTINUOUS
 62
     5
 39
50.0
 10
119.88440900000001
 20
105.169355
 30
0.0
 11
113.82526899999991
 21
105.169355
 31
0.0
  0
LINE
  5
84D
  8
DETAIL
  6
CONTINUOUS
 62
     5
 39
50.0
 10
128.540323
 20
105.169355
 30
0.0
 11
122.4811829999999
 21
105.169355
 31
0.0
  0
LINE
  5
84E
  8
DETAIL
  6
CONTINUOUS
 62
     5
 39
50.0
 10
122.4811829999999
 20
102.5725809999999
 30
0.0
 11
128.5696129999998
 21
102.5725809999999
 31
0.0
  0
ARC
  5
84F
  8
DETAIL
  6
CONTINUOUS
 62
     5
 39
50.0
 10
0.0
 20
0.0
 30
0.0
 40
141.09139799999991
 50
37.969017000000001
 51
41.806638
  0
ARC
  5
850
  8
DETAIL
  6
CONTINUOUS
 62
     5
 39
50.0
 10
0.0
 20
0.0
 30
0.0
 40
141.09139799999991
 50
31.821679
 51
36.220546999999989
  0
ARC
  5
851
  8
DETAIL
  6
CONTINUOUS
 62
     5
 39
50.0
 10
103.2217739999999
 20
159.4852149999999
 30
0.0
 40
0.6491940000000001
 50
90.0
 51
180.0
  0
ARC
  5
852
  8
DETAIL
  6
CONTINUOUS
 62
     5
 39
50.0
 10
103.2217739999999
 20
159.4852149999999
 30
0.0
 40
0.6491940000000001
 50
90.0
 51
180.0
  0
ARC
  5
853
  8
DETAIL
  6
CONTINUOUS
 62
     5
 39
50.0
 10
104.520162
 20
159.4852149999999
 30
0.0
 40
0.6491940000000001
 50
0.0
 51
90.0
  0
ARC
  5
854
  8
DETAIL
  6
CONTINUOUS
 62
     5
 39
50.0
 10
111.87768799999991
 20
159.4852149999999
 30
0.0
 40
0.6491940000000001
 50
90.0
 51
180.0
  0
LINE
  5
855
  8
DETAIL
  6
CONTINUOUS
 62
     5
 39
50.0
 10
105.169355
 20
151.47849500000001
 30
0.0
 11
111.228495
 21
151.47849500000001
 31
0.0
  0
ARC
  5
856
  8
DETAIL
  6
CONTINUOUS
 62
     5
 39
50.0
 10
111.87768799999991
 20
159.4852149999999
 30
0.0
 40
0.6491940000000001
 50
90.0
 51
180.0
  0
ARC
  5
857
  8
DETAIL
  6
CONTINUOUS
 62
     5
 39
50.0
 10
113.1760759999999
 20
159.4852149999999
 30
0.0
 40
0.6491940000000001
 50
0.0
 51
90.0
  0
ARC
  5
858
  8
DETAIL
  6
CONTINUOUS
 62
     5
 39
50.0
 10
120.533602
 20
159.4852149999999
 30
0.0
 40
0.6491940000000001
 50
90.0
 51
180.0
  0
LINE
  5
859
  8
DETAIL
  6
CONTINUOUS
 62
     5
 39
50.0
 10
113.82526899999991
 20
151.47849500000001
 30
0.0
 11
119.88440900000001
 21
151.47849500000001
 31
0.0
  0
LINE
  5
85A
  8
DETAIL
  6
CONTINUOUS
 62
     5
 39
50.0
 10
122.4811829999999
 20
151.47849500000001
 30
0.0
 11
128.540323
 21
151.47849500000001
 31
0.0
  0
ARC
  5
85B
  8
DETAIL
  6
CONTINUOUS
 62
     5
 39
50.0
 10
120.533602
 20
159.4852149999999
 30
0.0
 40
0.6491940000000001
 50
90.0
 51
180.0
  0
ARC
  5
85C
  8
DETAIL
  6
CONTINUOUS
 62
     5
 39
50.0
 10
121.83199
 20
159.4852149999999
 30
0.0
 40
0.6491940000000001
 50
0.0
 51
90.0
  0
LINE
  5
85D
  8
DETAIL
  6
CONTINUOUS
 62
     5
 39
50.0
 10
105.169355
 20
142.82258100000001
 30
0.0
 11
111.228495
 21
142.82258100000001
 31
0.0
  0
LINE
  5
85E
  8
DETAIL
  6
CONTINUOUS
 62
     5
 39
50.0
 10
113.82526899999991
 20
142.82258100000001
 30
0.0
 11
119.88440900000001
 21
142.82258100000001
 31
0.0
  0
LINE
  5
85F
  8
DETAIL
  6
CONTINUOUS
 62
     5
 39
50.0
 10
124.2123659999998
 20
144.5537639999998
 30
0.0
 11
124.2123659999998
 21
151.47849500000001
 31
0.0
  0
ARC
  5
860
  8
DETAIL
  6
CONTINUOUS
 62
     5
 39
50.0
 10
122.4811829999999
 20
144.5537639999998
 30
0.0
 40
1.731182999999999
 50
270.0
 51
0.0
  0
CIRCLE
  5
861
  8
DETAIL
  6
DASHED
 62
     5
 39
50.0
 10
-140.0
 20
140.0
 30
0.0
 40
5.0
  0
LINE
  5
862
  8
NOTE
  6
CONTINUOUS
 62
     4
 10
-140.0
 20
120.0
 30
0.0
 11
-140.0
 21
160.0
 31
0.0
  0
LINE
  5
863
  8
NOTE
  6
CONTINUOUS
 62
     4
 10
-160.0
 20
140.0
 30
0.0
 11
-120.0
 21
140.0
 31
0.0
  0
CIRCLE
  5
864
  8
DETAIL
  6
DASHED
 62
     5
 39
50.0
 10
140.0
 20
140.0
 30
0.0
 40
5.0
  0
LINE
  5
865
  8
NOTE
  6
CONTINUOUS
 62
     4
 10
140.0
 20
120.0
 30
0.0
 11
140.0
 21
160.0
 31
0.0
  0
LINE
  5
866
  8
NOTE
  6
CONTINUOUS
 62
     4
 10
160.0
 20
140.0
 30
0.0
 11
120.0
 21
140.0
 31
0.0
  0
CIRCLE
  5
867
  8
DETAIL
  6
DASHED
 62
     5
 39
50.0
 10
140.0
 20
-140.0
 30
0.0
 40
5.0
  0
LINE
  5
868
  8
NOTE
  6
CONTINUOUS
 62
     4
 10
140.0
 20
-120.0
 30
0.0
 11
140.0
 21
-160.0
 31
0.0
  0
LINE
  5
869
  8
NOTE
  6
CONTINUOUS
 62
     4
 10
160.0
 20
-140.0
 30
0.0
 11
120.0
 21
-140.0
 31
0.0
  0
CIRCLE
  5
86A
  8
DETAIL
  6
DASHED
 62
     5
 39
50.0
 10
-140.0
 20
-140.0
 30
0.0
 40
5.0
  0
LINE
  5
86B
  8
NOTE
  6
CONTINUOUS
 62
     4
 10
-140.0
 20
-120.0
 30
0.0
 11
-140.0
 21
-160.0
 31
0.0
  0
LINE
  5
86C
  8
NOTE
  6
CONTINUOUS
 62
     4
 10
-160.0
 20
-140.0
 30
0.0
 11
-120.0
 21
-140.0
 31
0.0
  0
LINE
  5
86D
  8
SIZE
  6
CONTINUOUS
 62
    30
 10
161.0
 20
162.0
 30
0.0
 11
161.0
 21
292.9195729999999
 31
0.0
  0
LINE
  5
86E
  8
SIZE
  6
CONTINUOUS
 62
    30
 10
-161.0
 20
162.0
 30
0.0
 11
-161.0
 21
292.9195729999999
 31
0.0
  0
LINE
  5
86F
  8
SIZE
  6
CONTINUOUS
 62
    30
 10
149.0
 20
272.91957300000001
 30
0.0
 11
-149.0
 21
272.91957300000001
 31
0.0
  0
CIRCLE
  5
870
  8
SIZE
  6
CONTINUOUS
 62
    30
 10
161.0
 20
272.91957300000001
 30
0.0
 40
6.0
  0
LINE
  5
871
  8
SIZE
  6
CONTINUOUS
 62
    30
 10
161.0
 20
272.91957300000001
 30
0.0
 11
149.0
 21
272.91957300000001
 31
0.0
  0
CIRCLE
  5
872
  8
SIZE
  6
CONTINUOUS
 62
    30
 10
-161.0
 20
272.91957300000001
 30
0.0
 40
6.0
  0
LINE
  5
873
  8
SIZE
  6
CONTINUOUS
 62
    30
 10
-161.0
 20
272.91957300000001
 30
0.0
 11
-149.0
 21
272.91957300000001
 31
0.0
  0
TEXT
  5
874
  8
SIZE
  6
CONTINUOUS
 62
    30
 10
-110.5371428571428
 20
297.91957300000001
 30
0.0
 40
64.0
  1
□322
 41
0.9
 72
     1
 11
0.0
 21
297.91957300000001
 31
0.0
  0
LINE
  5
878
  8
OUTLINE
  6
CONTINUOUS
 62
     3
 39
50.0
 10
-161.0
 20
142.0
 30
0.0
 11
-161.0
 21
-142.0
 31
0.0
  0
LINE
  5
879
  8
OUTLINE
  6
CONTINUOUS
 62
     3
 39
50.0
 10
-142.0
 20
-161.0
 30
0.0
 11
142.0
 21
-161.0
 31
0.0
  0
LINE
  5
87A
  8
OUTLINE
  6
CONTINUOUS
 62
     3
 39
50.0
 10
161.0
 20
142.0
 30
0.0
 11
161.0
 21
-142.0
 31
0.0
  0
ARC
  5
87B
  8
OUTLINE
  6
CONTINUOUS
 62
     3
 39
50.0
 10
142.0
 20
142.0
 30
0.0
 40
19.0
 50
0.0
 51
90.0
  0
ARC
  5
87C
  8
OUTLINE
  6
CONTINUOUS
 62
     3
 39
50.0
 10
-142.0
 20
142.0
 30
0.0
 40
19.0
 50
90.0
 51
180.0
  0
ARC
  5
87D
  8
OUTLINE
  6
CONTINUOUS
 62
     3
 39
50.0
 10
142.0
 20
-142.0
 30
0.0
 40
19.0
 50
270.0
 51
0.0
  0
ARC
  5
87E
  8
OUTLINE
  6
CONTINUOUS
 62
     3
 39
50.0
 10
-142.0
 20
-142.0
 30
0.0
 40
19.0
 50
180.0
 51
270.0
  0
LINE
  5
87F
  8
OUTLINE
  6
CONTINUOUS
 62
     3
 39
50.0
 10
-142.0
 20
161.0
 30
0.0
 11
142.0
 21
161.0
 31
0.0
  0
LINE
  5
880
  8
NOTE
  6
CONTINUOUS
 62
     4
 10
-161.0
 20
-76.0
 30
0.0
 11
-161.0
 21
-116.0
 31
0.0
  0
LINE
  5
881
  8
NOTE
  6
CONTINUOUS
 62
     4
 10
-181.0
 20
-96.0
 30
0.0
 11
-141.0
 21
-96.0
 31
0.0
  0
TEXT
  5
882
  8
NOTE
  6
CONTINUOUS
 62
     4
 10
-352.10744499999993
 20
-138.48155099999991
 30
0.0
 40
64.0
  1
EL
 41
0.9
  0
LINE
  5
883
  8
NOTE
  6
CONTINUOUS
 62
     4
 39
50.0
 10
-377.7550779999998
 20
-166.280529
 30
0.0
 11
-255.2932999999999
 21
-166.280529
 31
0.0
  0
LINE
  5
884
  8
NOTE
  6
CONTINUOUS
 62
     4
 39
50.0
 10
-255.2932999999999
 20
-166.280529
 30
0.0
 11
-161.0
 21
-96.0
 31
0.0
  0
LINE
  5
885
  8
NOTE
  6
CONTINUOUS
 62
     4
 10
-185.7010139999999
 20
-127.4620389999999
 30
0.0
 11
-161.0
 21
-96.0
 31
0.0
  0
LINE
  5
886
  8
NOTE
  6
CONTINUOUS
 62
     4
 10
-161.0
 20
-96.0
 30
0.0
 11
-198.122725
 21
-110.896418
 31
0.0
  0
TEXT
  5
887
  8
ETC
  6
CONTINUOUS
 62
    61
 10
385.93249868027078
 20
251.06511935401809
 30
0.0
 40
50.0
  1
EFG-20KSA1-P
 41
0.9
  0
TEXT
  5
888
  8
ETC
  6
CONTINUOUS
 62
    61
 10
257.23219673715488
 20
433.82332610991648
 30
0.0
 40
64.0
  1
EFG-20KSA1-P_2
 41
0.9
  0
TEXT
  5
889
  8
ETC
  6
CONTINUOUS
 62
    61
 10
249.316489737155
 20
336.23159110991651
 30
0.0
 40
64.0
  1
産業扇
 41
0.9
  0
ENDSEC
  0
EOF
