  0
SECTION
  2
HEADER
  9
$ACADVER
  1
AC1009
  9
$DWGCODEPAGE
  3
dos932
  9
$INSBASE
 10
0.0
 20
0.0
 30
0.0
  9
$EXTMIN
 10
-377.95713647263801
 20
-229.7515749579197
 30
-0.0015257624927045
  9
$EXTMAX
 10
1040.515148302673
 20
456.93970513173741
 30
0.0022888765696933
  9
$LIMMIN
 10
-2970.0
 20
-2100.0
  9
$LIMMAX
 10
2970.0
 20
2100.0
  9
$ORTHOMODE
 70
     1
  9
$REGENMODE
 70
     1
  9
$FILLMODE
 70
     1
  9
$QTEXTMODE
 70
     0
  9
$MIRRTEXT
 70
     0
  9
$LTSCALE
 40
20.0
  9
$ATTMODE
 70
     1
  9
$TEXTSIZE
 40
64.0
  9
$TRACEWID
 40
0.05
  9
$TEXTSTYLE
  7
STANDARD
  9
$CLAYER
  8
SIZE
  9
$CELTYPE
  6
CONTINUOUS
  9
$CECOLOR
 62
     7
  9
$DIMSCALE
 40
1.0
  9
$DIMASZ
 40
12.0
  9
$DIMEXO
 40
20.0
  9
$DIMDLI
 40
200.0
  9
$DIMRND
 40
0.0
  9
$DIMDLE
 40
0.0
  9
$DIMEXE
 40
20.0
  9
$DIMTP
 40
0.0
  9
$DIMTM
 40
0.0
  9
$DIMTXT
 40
64.0
  9
$DIMCEN
 40
0.09
  9
$DIMTSZ
 40
0.0
  9
$DIMTOL
 70
     0
  9
$DIMLIM
 70
     0
  9
$DIMTIH
 70
     0
  9
$DIMTOH
 70
     0
  9
$DIMSE1
 70
     0
  9
$DIMSE2
 70
     0
  9
$DIMTAD
 70
     1
  9
$DIMZIN
 70
     8
  9
$DIMBLK
  1

  9
$DIMASO
 70
     1
  9
$DIMSHO
 70
     0
  9
$DIMPOST
  1

  9
$DIMAPOST
  1

  9
$DIMALT
 70
     0
  9
$DIMALTD
 70
     2
  9
$DIMALTF
 40
25.399999999999999
  9
$DIMLFAC
 40
1.0
  9
$DIMTOFL
 70
     1
  9
$DIMTVP
 40
0.0
  9
$DIMTIX
 70
     1
  9
$DIMSOXD
 70
     0
  9
$DIMSAH
 70
     0
  9
$DIMBLK1
  1

  9
$DIMBLK2
  1

  9
$DIMSTYLE
  2
STANDARD
  9
$DIMCLRD
 70
     7
  9
$DIMCLRE
 70
     7
  9
$DIMCLRT
 70
     7
  9
$DIMTFAC
 40
1.0
  9
$DIMGAP
 40
25.0
  9
$LUNITS
 70
     2
  9
$LUPREC
 70
     4
  9
$SKETCHINC
 40
0.1
  9
$FILLETRAD
 40
3.0
  9
$AUNITS
 70
     1
  9
$AUPREC
 70
     3
  9
$MENU
  1
ACAD
  9
$ELEVATION
 40
0.0
  9
$PELEVATION
 40
0.0
  9
$THICKNESS
 40
50.0
  9
$LIMCHECK
 70
     0
  9
$CHAMFERA
 40
0.0
  9
$CHAMFERB
 40
0.0
  9
$SKPOLY
 70
     0
  9
$TDCREATE
 40
2453019.62301037
  9
$TDUPDATE
 40
2458949.429297801
  9
$TDINDWG
 40
1.7128863542
  9
$TDUSRTIMER
 40
1.7128863542
  9
$USRTIMER
 70
     1
  9
$ANGBASE
 50
0.0
  9
$ANGDIR
 70
     0
  9
$PDMODE
 70
     3
  9
$PDSIZE
 40
-2.0
  9
$PLINEWID
 40
0.0
  9
$SPLFRAME
 70
     0
  9
$SPLINETYPE
 70
     6
  9
$SPLINESEGS
 70
     8
  9
$SURFTAB1
 70
     6
  9
$SURFTAB2
 70
     6
  9
$SURFTYPE
 70
     6
  9
$SURFU
 70
     6
  9
$SURFV
 70
     6
  9
$UCSNAME
  2

  9
$UCSORG
 10
0.0
 20
0.0
 30
0.0
  9
$UCSXDIR
 10
1.0
 20
0.0
 30
0.0
  9
$UCSYDIR
 10
0.0
 20
1.0
 30
0.0
  9
$PUCSNAME
  2

  9
$PUCSORG
 10
0.0
 20
0.0
 30
0.0
  9
$PUCSXDIR
 10
1.0
 20
0.0
 30
0.0
  9
$PUCSYDIR
 10
0.0
 20
1.0
 30
0.0
  9
$USERI1
 70
     0
  9
$USERI2
 70
     0
  9
$USERI3
 70
     0
  9
$USERI4
 70
     0
  9
$USERI5
 70
     0
  9
$USERR1
 40
20.0
  9
$USERR2
 40
0.0
  9
$USERR3
 40
0.0
  9
$USERR4
 40
0.0
  9
$USERR5
 40
0.0
  9
$WORLDVIEW
 70
     1
  9
$SHADEDGE
 70
     3
  9
$SHADEDIF
 70
    70
  9
$TILEMODE
 70
     1
  9
$MAXACTVP
 70
    48
  9
$PINSBASE
 10
0.0
 20
0.0
 30
0.0
  9
$PLIMCHECK
 70
     0
  9
$PEXTMIN
 10
-100000000000000000000.0
 20
-100000000000000000000.0
 30
-100000000000000000000.0
  9
$PEXTMAX
 10
100000000000000000000.0
 20
100000000000000000000.0
 30
100000000000000000000.0
  9
$PLIMMIN
 10
0.0
 20
0.0
  9
$PLIMMAX
 10
12.0
 20
9.0
  9
$UNITMODE
 70
     0
  9
$VISRETAIN
 70
     0
  9
$PLINEGEN
 70
     0
  9
$PSLTSCALE
 70
     0
  9
$TREEDEPTH
 70
  3020
  9
$ATTDIA
 70
     0
  9
$ATTREQ
 70
     1
  9
$BLIPMODE
 70
     1
  9
$COORDS
 70
     1
  9
$DRAGMODE
 70
     2
  9
$OSMODE
 70
     0
  9
$HANDLING
 70
     0
  9
$HANDSEED
  5
F8A9
  0
ENDSEC
  0
SECTION
  2
TABLES
  0
TABLE
  2
LTYPE
 70
     2
  0
LTYPE
  2
CONTINUOUS
 70
     0
  3
実線
 72
    65
 73
     0
 40
0.0
  0
LTYPE
  2
DASHDOT
 70
     0
  3
____ _ ____ _ ____ _ ____ _ ____ _ ____ _ ____
 72
    65
 73
     4
 40
5.5
 49
4.0
 49
-0.6
 49
0.3
 49
-0.6
  0
ENDTAB
  0
TABLE
  2
LAYER
 70
    12
  0
LAYER
  2
0
 70
     0
 62
     7
  6
CONTINUOUS
  0
LAYER
  2
BASIS
 70
     0
 62
     6
  6
DASHDOT
  0
LAYER
  2
OUTLINE
 70
     0
 62
     3
  6
CONTINUOUS
  0
LAYER
  2
DETAIL
 70
     0
 62
     5
  6
CONTINUOUS
  0
LAYER
  2
SIZE
 70
     0
 62
    30
  6
CONTINUOUS
  0
LAYER
  2
ARRANGE
 70
     0
 62
     1
  6
CONTINUOUS
  0
LAYER
  2
ETC
 70
     0
 62
    61
  6
CONTINUOUS
  0
LAYER
  2
NOTE
 70
     0
 62
     4
  6
CONTINUOUS
  0
LAYER
  2
DEFPOINTS
 70
    64
 62
     7
  6
CONTINUOUS
  0
LAYER
  2
FIX
 70
    64
 62
    11
  6
CONTINUOUS
  0
LAYER
  2
SERVICESPACE
 70
    64
 62
     2
  6
DASHDOT
  0
LAYER
  2
SYMBOLLINE
 70
    64
 62
    15
  6
CONTINUOUS
  0
ENDTAB
  0
TABLE
  2
STYLE
 70
     1
  0
STYLE
  2
STANDARD
 70
     0
 40
64.0
 41
0.9
 50
0.0
 71
     0
 42
64.0
  3
SIMPLEX.shx
  4
BIGFONT.shx
  0
ENDTAB
  0
TABLE
  2
APPID
 70
    19
  0
APPID
  2
ACAD
 70
     0
  0
APPID
  2
AUTOCAD_POSTSCRIPT_FIGURE
 70
     0
  0
APPID
  2
ACAD_EXEMPT_FROM_CAD_STANDARDS
 70
     0
  0
APPID
  2
ACAD_PSEXT
 70
     0
  0
APPID
  2
ACAUTHENVIRON
 70
     0
  0
APPID
  2
GENIUS_GENOENT_13
 70
     0
  0
APPID
  2
GENIUS_GENCFG_13
 70
     0
  0
APPID
  2
GENIUS_GENCFG0_13
 70
     0
  0
APPID
  2
GENIUS_GENCFG1_13
 70
     0
  0
APPID
  2
GENIUS_GENCFG2_13
 70
     0
  0
APPID
  2
GENIUS_GENCFG3_13
 70
     0
  0
APPID
  2
GENIUS_GENCFG4_13
 70
     0
  0
APPID
  2
GENIUS_GEVCFG0_13
 70
     0
  0
APPID
  2
CONTENTBLOCKICON
 70
     0
  0
APPID
  2
CONTENTBLOCKDESCRIPTION
 70
     0
  0
APPID
  2
ACAD_NAV_VCDISPLAY
 70
     0
  0
APPID
  2
ACAD_MLEADERVER
 70
     0
  0
APPID
  2
ACDBDYNAMICBLOCKTRUENAME
 70
     0
  0
APPID
  2
ACDBDYNAMICBLOCKGUID
 70
     0
  0
ENDTAB
  0
TABLE
  2
DIMSTYLE
 70
     1
  0
DIMSTYLE
  2
STANDARD
 70
     0
  3

  4

  5
_ORIGIN
  6

  7

 40
1.0
 41
12.0
 42
20.0
 43
200.0
 44
20.0
 45
0.0
 46
0.0
 47
0.0
 48
0.0
140
64.0
141
0.09
142
0.0
143
25.399999999999999
144
1.0
145
0.0
146
1.0
147
25.0
 71
     0
 72
     0
 73
     0
 74
     0
 75
     0
 76
     0
 77
     1
 78
     8
170
     0
171
     2
172
     1
173
     0
174
     1
175
     0
176
     7
177
     7
178
     7
  0
ENDTAB
  0
TABLE
  2
VIEW
 70
     1
  0
VIEW
  2
ALL
 70
     0
 40
4282.6198079999986
 10
0.0
 20
41.309904000000003
 41
5940.0
 11
0.0
 21
0.0
 31
1.0
 12
0.0
 22
0.0
 32
0.0
 42
50.0
 43
0.0
 44
0.0
 50
0.0
 71
     0
  0
ENDTAB
  0
TABLE
  2
UCS
 70
     0
  0
ENDTAB
  0
TABLE
  2
VPORT
 70
     1
  0
VPORT
  2
*ACTIVE
 70
     0
 10
0.0
 20
0.0
 11
1.0
 21
1.0
 12
331.27900591501742
 22
113.5940650869088
 13
0.0
 23
0.0
 14
1.0
 24
1.0
 15
0.0
 25
0.0
 16
0.0
 26
0.0
 36
1.0
 17
0.0
 27
0.0
 37
0.0
 40
814.66016104527353
 41
1.747787610619469
 42
50.0
 43
0.0
 44
0.0
 50
0.0
 51
0.0
 71
     0
 72
  1000
 73
     1
 74
     3
 75
     0
 76
     0
 77
     0
 78
     0
  0
ENDTAB
  0
ENDSEC
  0
SECTION
  2
BLOCKS
  0
BLOCK
  8
0
  2
_ORIGIN
 70
     0
 10
0.0
 20
0.0
 30
0.0
  3
_ORIGIN
  1
_ORIGIN
  0
CIRCLE
  8
0
  6
CONTINUOUS
 62
     7
 10
0.0
 20
0.0
 30
0.0
 40
0.5
  0
LINE
  8
0
  6
CONTINUOUS
 62
     7
 10
0.0
 20
0.0
 30
0.0
 11
-1.0
 21
0.0
 31
0.0
  0
ENDBLK
  8
0
  0
ENDSEC
  0
SECTION
  2
ENTITIES
  0
LINE
  8
BASIS
  6
DASHDOT
 62
     6
 10
-215.998524
 20
0.0
 30
0.0
 11
216.25254199999989
 21
0.0
 31
0.0
  0
LINE
  8
BASIS
  6
DASHDOT
 62
     6
 10
0.0
 20
220.99379599999989
 30
0.0
 11
0.0
 21
-229.57575800000001
 31
0.0
  0
LINE
  8
DETAIL
  6
CONTINUOUS
 62
     5
 10
-142.0
 20
161.0
 30
0.0
 11
142.0
 21
161.0
 31
0.0
  0
LINE
  8
DETAIL
  6
CONTINUOUS
 62
     5
 10
-142.0
 20
-161.0
 30
0.0
 11
142.0
 21
-161.0
 31
0.0
  0
LINE
  8
DETAIL
  6
CONTINUOUS
 62
     5
 10
-161.0
 20
142.0
 30
0.0
 11
-161.0
 21
-142.0
 31
0.0
  0
LINE
  8
DETAIL
  6
CONTINUOUS
 62
     5
 10
161.0
 20
142.0
 30
0.0
 11
161.0
 21
-142.0
 31
0.0
  0
ARC
  8
DETAIL
  6
CONTINUOUS
 62
     5
 10
-142.0
 20
142.0
 30
0.0
 40
19.0
 50
90.0
 51
180.0
  0
ARC
  8
DETAIL
  6
CONTINUOUS
 62
     5
 10
-142.0
 20
-142.0
 30
0.0
 40
19.0
 50
180.0
 51
270.0
  0
ARC
  8
DETAIL
  6
CONTINUOUS
 62
     5
 10
142.0
 20
-142.0
 30
0.0
 40
19.0
 50
270.0
 51
0.0
  0
ARC
  8
DETAIL
  6
CONTINUOUS
 62
     5
 10
142.0
 20
142.0
 30
0.0
 40
19.0
 50
0.0
 51
90.0
  0
CIRCLE
  8
ARRANGE
  6
CONTINUOUS
 62
     1
 10
0.0
 20
0.0
 30
0.0
 40
40.0
  0
POINT
  8
ARRANGE
  6
CONTINUOUS
 62
     1
 10
0.0
 20
0.0
 30
0.0
  0
ARC
  8
DETAIL
  6
CONTINUOUS
 62
     5
 10
-30.43489899999997
 20
-23.239594000000011
 30
0.0
 40
18.457681000000001
 50
107.2944520000005
 51
128.72289199999909
  0
ARC
  8
DETAIL
  6
CONTINUOUS
 62
     5
 10
0.0
 20
0.0
 30
0.0
 40
112.526882
 50
108.61641099999881
 51
110.8339039999989
  0
ARC
  8
DETAIL
  6
CONTINUOUS
 62
     5
 10
0.0
 20
0.0
 30
0.0
 40
112.526882
 50
114.28117100000139
 51
116.74368400000171
  0
ARC
  8
DETAIL
  6
CONTINUOUS
 62
     5
 10
0.0
 20
0.0
 30
0.0
 40
115.989248
 50
112.6020500000009
 51
114.94454300000039
  0
ARC
  8
DETAIL
  6
CONTINUOUS
 62
     5
 10
0.0
 20
0.0
 30
0.0
 40
115.989248
 50
117.8310180000006
 51
120.7433960000001
  0
ARC
  8
DETAIL
  6
CONTINUOUS
 62
     5
 10
0.0
 20
0.0
 30
0.0
 40
112.526882
 50
118.2342119999995
 51
121.7977939999992
  0
ARC
  8
DETAIL
  6
CONTINUOUS
 62
     5
 10
0.0
 20
0.0
 30
0.0
 40
112.526882
 50
141.3310589999991
 51
146.5758109999982
  0
ARC
  8
DETAIL
  6
CONTINUOUS
 62
     5
 10
0.0
 20
0.0
 30
0.0
 40
112.526882
 50
149.0584539999989
 51
155.71882900000051
  0
ARC
  8
DETAIL
  6
CONTINUOUS
 62
     5
 10
0.0
 20
0.0
 30
0.0
 40
112.526882
 50
159.16609600000029
 51
171.28775499999949
  0
ARC
  8
DETAIL
  6
CONTINUOUS
 62
     5
 10
0.0
 20
0.0
 30
0.0
 40
115.989248
 50
122.247803000001
 51
125.86100399999999
  0
ARC
  8
DETAIL
  6
CONTINUOUS
 62
     5
 10
0.0
 20
0.0
 30
0.0
 40
115.989248
 50
127.4601109999995
 51
131.33403100000149
  0
ARC
  8
DETAIL
  6
CONTINUOUS
 62
     5
 10
0.0
 20
0.0
 30
0.0
 40
115.989248
 50
133.06564400000019
 51
137.31352199999921
  0
ARC
  8
DETAIL
  6
CONTINUOUS
 62
     5
 10
0.0
 20
0.0
 30
0.0
 40
115.989248
 50
139.24102199999999
 51
144.06677700000111
  0
ARC
  8
DETAIL
  6
CONTINUOUS
 62
     5
 10
0.0
 20
0.0
 30
0.0
 40
115.989248
 50
146.3139879999994
 51
152.16898199999861
  0
ARC
  8
DETAIL
  6
CONTINUOUS
 62
     5
 10
0.0
 20
0.0
 30
0.0
 40
115.989248
 50
155.05545699999959
 51
163.5273550000004
  0
ARC
  8
DETAIL
  6
CONTINUOUS
 62
     5
 10
0.0
 20
0.0
 30
0.0
 40
115.989248
 50
168.91507499999949
 51
191.08492500000051
  0
ARC
  8
DETAIL
  6
CONTINUOUS
 62
     5
 10
0.0
 20
0.0
 30
0.0
 40
141.09139799999991
 50
128.51352700000069
 51
131.73176300000111
  0
ARC
  8
DETAIL
  6
CONTINUOUS
 62
     5
 10
0.0
 20
0.0
 30
0.0
 40
141.09139799999991
 50
124.1491900000001
 51
127.17809000000059
  0
ARC
  8
DETAIL
  6
CONTINUOUS
 62
     5
 10
0.0
 20
0.0
 30
0.0
 40
141.09139799999991
 50
133.16086799999911
 51
136.63496799999979
  0
ARC
  8
DETAIL
  6
CONTINUOUS
 62
     5
 10
0.0
 20
0.0
 30
0.0
 40
141.09139799999991
 50
138.19336200000049
 51
142.03098300000059
  0
ARC
  8
DETAIL
  6
CONTINUOUS
 62
     5
 10
0.0
 20
0.0
 30
0.0
 40
141.09139799999991
 50
143.77945299999911
 51
148.17832099999859
  0
ARC
  8
DETAIL
  6
CONTINUOUS
 62
     5
 10
0.0
 20
0.0
 30
0.0
 40
141.09139799999991
 50
90.527269000000445
 51
92.989172999999624
  0
LINE
  8
DETAIL
  6
CONTINUOUS
 62
     5
 10
-6.0591400000000144
 20
-149.743075
 30
0.0
 11
-2.5967739999999822
 21
-149.743075
 31
0.0
  0
LINE
  8
DETAIL
  6
CONTINUOUS
 62
     5
 10
-6.0591400000000144
 20
-148.4366669999998
 30
0.0
 11
-2.5967739999999822
 21
-148.4366669999998
 31
0.0
  0
LINE
  8
DETAIL
  6
CONTINUOUS
 62
     5
 10
-1.2983869999999911
 20
-105.169355
 30
0.0
 11
-7.3575270000000046
 21
-105.169355
 31
0.0
  0
LINE
  8
DETAIL
  6
CONTINUOUS
 62
     5
 10
-7.3575270000000046
 20
-102.5725809999999
 30
0.0
 11
-1.2690969999999879
 21
-102.5725809999999
 31
0.0
  0
ARC
  8
DETAIL
  6
CONTINUOUS
 62
     5
 10
0.0
 20
0.0
 30
0.0
 40
141.09139799999991
 50
267.0108270000004
 51
269.47273099999961
  0
ARC
  8
DETAIL
  6
CONTINUOUS
 62
     5
 10
0.0
 20
0.0
 30
0.0
 40
115.989248
 50
266.36312399999912
 51
269.35861600000089
  0
ARC
  8
DETAIL
  6
CONTINUOUS
 62
     5
 10
0.0
 20
0.0
 30
0.0
 40
112.526882
 50
266.25106300000152
 51
269.33887999999888
  0
LINE
  8
DETAIL
  6
CONTINUOUS
 62
     5
 10
-7.3575270000000046
 20
-142.82258100000001
 30
0.0
 11
-1.2983869999999911
 21
-142.82258100000001
 31
0.0
  0
ARC
  8
DETAIL
  6
CONTINUOUS
 62
     5
 10
25.967741999999991
 20
0.0
 30
0.0
 40
47.607526999999997
 50
229.4397020000012
 51
235.0593730000007
  0
ARC
  8
DETAIL
  6
CONTINUOUS
 62
     5
 10
0.0
 20
0.0
 30
0.0
 40
36.787634999999959
 50
258.4630410000002
 51
267.97737600000062
  0
ARC
  8
DETAIL
  6
CONTINUOUS
 62
     5
 10
0.0
 20
0.0
 30
0.0
 40
36.354838999999998
 50
258.32377499999939
 51
267.95328699999908
  0
ARC
  8
DETAIL
  6
CONTINUOUS
 62
     5
 10
0.0
 20
0.0
 30
0.0
 40
35.28667699999999
 50
257.96511399999878
 51
267.89130299999852
  0
ARC
  8
DETAIL
  6
CONTINUOUS
 62
     5
 10
0.0
 20
0.0
 30
0.0
 40
32.881081999999992
 50
257.0699270000004
 51
267.73695300000031
  0
ARC
  8
DETAIL
  6
CONTINUOUS
 62
     5
 10
-61.565266000000008
 20
-13.522964999999999
 30
0.0
 40
102.48602199999991
 50
53.981265999999593
 51
58.066938999999792
  0
ARC
  8
DETAIL
  6
CONTINUOUS
 62
     5
 10
-29.38415300000003
 20
36.072749999999978
 30
0.0
 40
28.045161
 50
11.88303999999944
 51
30.830238000000371
  0
ARC
  8
DETAIL
  6
CONTINUOUS
 62
     5
 10
0.0
 20
0.0
 30
0.0
 40
36.787634999999959
 50
92.022623999999325
 51
101.5369589999998
  0
ARC
  8
DETAIL
  6
CONTINUOUS
 62
     5
 10
0.0
 20
0.0
 30
0.0
 40
36.354838999999998
 50
92.046713000000878
 51
101.6762250000006
  0
ARC
  8
DETAIL
  6
CONTINUOUS
 62
     5
 10
0.0
 20
0.0
 30
0.0
 40
35.28667699999999
 50
92.108697000001513
 51
102.03488600000119
  0
ARC
  8
DETAIL
  6
CONTINUOUS
 62
     5
 10
0.0
 20
0.0
 30
0.0
 40
32.881081999999992
 50
92.263046999999716
 51
102.9300729999996
  0
LINE
  8
DETAIL
  6
CONTINUOUS
 62
     5
 10
-7.3575270000000046
 20
102.5725809999999
 30
0.0
 11
-1.2690969999999879
 21
102.5725809999999
 31
0.0
  0
LINE
  8
DETAIL
  6
CONTINUOUS
 62
     5
 10
-1.2983869999999911
 20
105.169355
 30
0.0
 11
-7.3575270000000046
 21
105.169355
 31
0.0
  0
ARC
  8
DETAIL
  6
CONTINUOUS
 62
     5
 10
0.0
 20
0.0
 30
0.0
 40
115.989248
 50
90.641383999999064
 51
93.636876000000882
  0
ARC
  8
DETAIL
  6
CONTINUOUS
 62
     5
 10
0.0
 20
0.0
 30
0.0
 40
112.526882
 50
90.661120000001091
 51
93.748936999998548
  0
LINE
  8
DETAIL
  6
CONTINUOUS
 62
     5
 10
-128.540323
 20
160.13440899999961
 30
0.0
 11
128.540323
 21
160.13440899999961
 31
0.0
  0
LINE
  8
DETAIL
  6
CONTINUOUS
 62
     5
 10
-7.3575270000000046
 20
151.47849500000001
 30
0.0
 11
-1.2983869999999911
 21
151.47849500000001
 31
0.0
  0
LINE
  8
DETAIL
  6
CONTINUOUS
 62
     5
 10
-7.3575270000000046
 20
142.82258100000001
 30
0.0
 11
-1.2983869999999911
 21
142.82258100000001
 31
0.0
  0
LINE
  8
DETAIL
  6
CONTINUOUS
 62
     5
 10
-128.540323
 20
160.13440899999961
 30
0.0
 11
-128.540323
 21
-85.106155000000001
 31
0.0
  0
LINE
  8
DETAIL
  6
CONTINUOUS
 62
     5
 10
-44.577956999999969
 20
159.4852149999999
 30
0.0
 11
-44.577956999999969
 21
-148.4446879999999
 31
0.0
  0
LINE
  8
DETAIL
  6
CONTINUOUS
 62
     5
 10
-41.981182999999987
 20
159.4852149999999
 30
0.0
 11
-41.981182999999987
 21
-148.4446879999999
 31
0.0
  0
LINE
  8
DETAIL
  6
CONTINUOUS
 62
     5
 10
-50.637096999999983
 20
159.4852149999999
 30
0.0
 11
-50.637096999999983
 21
-148.4446879999999
 31
0.0
  0
LINE
  8
DETAIL
  6
CONTINUOUS
 62
     5
 10
-33.325268999999992
 20
159.4852149999999
 30
0.0
 11
-33.325268999999992
 21
-148.4446879999999
 31
0.0
  0
LINE
  8
DETAIL
  6
CONTINUOUS
 62
     5
 10
-35.922043000000031
 20
159.4852149999999
 30
0.0
 11
-35.922043000000031
 21
-148.4446879999999
 31
0.0
  0
LINE
  8
DETAIL
  6
CONTINUOUS
 62
     5
 10
-53.233871000000022
 20
159.4852149999999
 30
0.0
 11
-53.233871000000022
 21
-148.4446879999999
 31
0.0
  0
LINE
  8
DETAIL
  6
CONTINUOUS
 62
     5
 10
-59.293010999999979
 20
159.4852149999999
 30
0.0
 11
-59.293010999999979
 21
-148.4446879999999
 31
0.0
  0
LINE
  8
DETAIL
  6
CONTINUOUS
 62
     5
 10
-61.889785000000018
 20
159.4852149999999
 30
0.0
 11
-61.889785000000018
 21
-148.4446879999999
 31
0.0
  0
LINE
  8
DETAIL
  6
CONTINUOUS
 62
     5
 10
-67.948925000000031
 20
159.4852149999999
 30
0.0
 11
-67.948925000000031
 21
-148.4446879999999
 31
0.0
  0
LINE
  8
DETAIL
  6
CONTINUOUS
 62
     5
 10
-70.545699000000013
 20
159.4852149999999
 30
0.0
 11
-70.545699000000013
 21
-148.4446879999999
 31
0.0
  0
LINE
  8
DETAIL
  6
CONTINUOUS
 62
     5
 10
-76.60483899999997
 20
159.4852149999999
 30
0.0
 11
-76.60483899999997
 21
-148.4446879999999
 31
0.0
  0
LINE
  8
DETAIL
  6
CONTINUOUS
 62
     5
 10
-79.201612999999952
 20
159.4852149999999
 30
0.0
 11
-79.201612999999952
 21
-148.4446879999999
 31
0.0
  0
LINE
  8
DETAIL
  6
CONTINUOUS
 62
     5
 10
-85.260752999999966
 20
159.4852149999999
 30
0.0
 11
-85.260752999999966
 21
-148.4446879999999
 31
0.0
  0
LINE
  8
DETAIL
  6
CONTINUOUS
 62
     5
 10
-87.857527000000005
 20
159.4852149999999
 30
0.0
 11
-87.857527000000005
 21
-148.4446879999999
 31
0.0
  0
LINE
  8
DETAIL
  6
CONTINUOUS
 62
     5
 10
-93.916667000000018
 20
159.4852149999999
 30
0.0
 11
-93.916667000000018
 21
-148.4446879999999
 31
0.0
  0
LINE
  8
DETAIL
  6
CONTINUOUS
 62
     5
 10
-96.513441
 20
159.4852149999999
 30
0.0
 11
-96.513441
 21
-148.4446879999999
 31
0.0
  0
LINE
  8
DETAIL
  6
CONTINUOUS
 62
     5
 10
-102.5725809999999
 20
159.4852149999999
 30
0.0
 11
-102.5725809999999
 21
-148.4446879999999
 31
0.0
  0
LINE
  8
DETAIL
  6
CONTINUOUS
 62
     5
 10
-105.169355
 20
159.4852149999999
 30
0.0
 11
-105.169355
 21
-148.4446879999999
 31
0.0
  0
LINE
  8
DETAIL
  6
CONTINUOUS
 62
     5
 10
-111.228495
 20
159.4852149999999
 30
0.0
 11
-111.228495
 21
-148.4446879999999
 31
0.0
  0
LINE
  8
DETAIL
  6
CONTINUOUS
 62
     5
 10
-113.82526899999991
 20
159.4852149999999
 30
0.0
 11
-113.82526899999991
 21
-148.4446879999999
 31
0.0
  0
LINE
  8
DETAIL
  6
CONTINUOUS
 62
     5
 10
-122.4811829999999
 20
159.4852149999999
 30
0.0
 11
-122.4811829999999
 21
-87.494997999999981
 31
0.0
  0
LINE
  8
DETAIL
  6
CONTINUOUS
 62
     5
 10
-122.4811829999999
 20
159.4852149999999
 30
0.0
 11
-122.4811829999999
 21
-95.813283000000013
 31
0.0
  0
LINE
  8
DETAIL
  6
CONTINUOUS
 62
     5
 10
-119.88440900000001
 20
159.4852149999999
 30
0.0
 11
-119.88440900000001
 21
-93.216509000000002
 31
0.0
  0
LINE
  8
DETAIL
  6
CONTINUOUS
 62
     5
 10
-27.266128999999982
 20
159.4852149999999
 30
0.0
 11
-27.266128999999982
 21
-148.4446879999999
 31
0.0
  0
LINE
  8
DETAIL
  6
CONTINUOUS
 62
     5
 10
-27.266128999999982
 20
159.4852149999999
 30
0.0
 11
-27.266128999999982
 21
-148.4446879999999
 31
0.0
  0
LINE
  8
DETAIL
  6
CONTINUOUS
 62
     5
 10
-24.669354999999999
 20
159.4852149999999
 30
0.0
 11
-24.669354999999999
 21
-148.4446879999999
 31
0.0
  0
LINE
  8
DETAIL
  6
CONTINUOUS
 62
     5
 10
-18.610214999999979
 20
159.4852149999999
 30
0.0
 11
-18.610214999999979
 21
-148.4446879999999
 31
0.0
  0
LINE
  8
DETAIL
  6
CONTINUOUS
 62
     5
 10
-18.610214999999979
 20
159.4852149999999
 30
0.0
 11
-18.610214999999979
 21
-148.4446879999999
 31
0.0
  0
LINE
  8
DETAIL
  6
CONTINUOUS
 62
     5
 10
-16.013441
 20
159.4852149999999
 30
0.0
 11
-16.013441
 21
-148.4446879999999
 31
0.0
  0
LINE
  8
DETAIL
  6
CONTINUOUS
 62
     5
 10
-9.9543009999999867
 20
159.4852149999999
 30
0.0
 11
-9.9543009999999867
 21
-148.4446879999999
 31
0.0
  0
LINE
  8
DETAIL
  6
CONTINUOUS
 62
     5
 10
-9.9543009999999867
 20
159.4852149999999
 30
0.0
 11
-9.9543009999999867
 21
-148.4446879999999
 31
0.0
  0
LINE
  8
DETAIL
  6
CONTINUOUS
 62
     5
 10
-7.3575270000000046
 20
159.4852149999999
 30
0.0
 11
-7.3575270000000046
 21
-148.4446879999999
 31
0.0
  0
ARC
  8
DETAIL
  6
CONTINUOUS
 62
     5
 10
10.819892999999981
 20
18.74060399999999
 30
0.0
 40
39.817203999999997
 50
137.65739499999901
 51
153.03761100000071
  0
LINE
  8
DETAIL
  6
CONTINUOUS
 62
     5
 10
-119.88440900000001
 20
-93.216509000000002
 30
0.0
 11
-119.88440900000001
 21
-148.4446879999999
 31
0.0
  0
LINE
  8
DETAIL
  6
CONTINUOUS
 62
     5
 10
-122.4811829999999
 20
-95.813283000000013
 30
0.0
 11
-122.4811829999999
 21
-148.4446879999999
 31
0.0
  0
LINE
  8
DETAIL
  6
CONTINUOUS
 62
     5
 10
-128.540323
 20
-85.106155000000001
 30
0.0
 11
-128.540323
 21
-148.4446879999999
 31
0.0
  0
ARC
  8
DETAIL
  6
CONTINUOUS
 62
     5
 10
-115.123656
 20
-148.4446879999999
 30
0.0
 40
1.298387
 50
270.0
 51
0.0
  0
ARC
  8
DETAIL
  6
CONTINUOUS
 62
     5
 10
-115.123656
 20
-147.13828000000001
 30
0.0
 40
1.298387
 50
270.0
 51
0.0
  0
ARC
  8
DETAIL
  6
CONTINUOUS
 62
     5
 10
-127.241936
 20
-148.4446879999999
 30
0.0
 40
1.298387
 50
180.0
 51
270.0
  0
LINE
  8
DETAIL
  6
CONTINUOUS
 62
     5
 10
-127.241936
 20
-149.743075
 30
0.0
 11
-123.77956999999969
 21
-149.743075
 31
0.0
  0
ARC
  8
DETAIL
  6
CONTINUOUS
 62
     5
 10
-127.241936
 20
-147.13828000000001
 30
0.0
 40
1.298387
 50
180.0
 51
270.0
  0
LINE
  8
DETAIL
  6
CONTINUOUS
 62
     5
 10
-127.241936
 20
-148.4366669999998
 30
0.0
 11
-123.77956999999969
 21
-148.4366669999998
 31
0.0
  0
ARC
  8
DETAIL
  6
CONTINUOUS
 62
     5
 10
-123.77956999999969
 20
-148.4446879999999
 30
0.0
 40
1.298387
 50
270.0
 51
0.0
  0
ARC
  8
DETAIL
  6
CONTINUOUS
 62
     5
 10
-123.77956999999969
 20
-147.13828000000001
 30
0.0
 40
1.298387
 50
270.0
 51
0.0
  0
ARC
  8
DETAIL
  6
CONTINUOUS
 62
     5
 10
-118.586022
 20
-148.4446879999999
 30
0.0
 40
1.298387
 50
180.0
 51
270.0
  0
LINE
  8
DETAIL
  6
CONTINUOUS
 62
     5
 10
-118.586022
 20
-149.743075
 30
0.0
 11
-115.123656
 21
-149.743075
 31
0.0
  0
ARC
  8
DETAIL
  6
CONTINUOUS
 62
     5
 10
-118.586022
 20
-147.13828000000001
 30
0.0
 40
1.298387
 50
180.0
 51
270.0
  0
LINE
  8
DETAIL
  6
CONTINUOUS
 62
     5
 10
-118.586022
 20
-148.4366669999998
 30
0.0
 11
-115.123656
 21
-148.4366669999998
 31
0.0
  0
ARC
  8
DETAIL
  6
CONTINUOUS
 62
     5
 10
-109.930108
 20
-148.4446879999999
 30
0.0
 40
1.298387
 50
180.0
 51
270.0
  0
LINE
  8
DETAIL
  6
CONTINUOUS
 62
     5
 10
-109.930108
 20
-149.743075
 30
0.0
 11
-106.4677419999999
 21
-149.743075
 31
0.0
  0
ARC
  8
DETAIL
  6
CONTINUOUS
 62
     5
 10
-109.930108
 20
-147.13828000000001
 30
0.0
 40
1.298387
 50
180.0
 51
270.0
  0
LINE
  8
DETAIL
  6
CONTINUOUS
 62
     5
 10
-109.930108
 20
-148.4366669999998
 30
0.0
 11
-106.4677419999999
 21
-148.4366669999998
 31
0.0
  0
ARC
  8
DETAIL
  6
CONTINUOUS
 62
     5
 10
-106.4677419999999
 20
-148.4446879999999
 30
0.0
 40
1.298387
 50
270.0
 51
0.0
  0
ARC
  8
DETAIL
  6
CONTINUOUS
 62
     5
 10
-106.4677419999999
 20
-147.13828000000001
 30
0.0
 40
1.298387
 50
270.0
 51
0.0
  0
LINE
  8
DETAIL
  6
CONTINUOUS
 62
     5
 10
-113.82526899999991
 20
-105.169355
 30
0.0
 11
-119.88440900000001
 21
-105.169355
 31
0.0
  0
LINE
  8
DETAIL
  6
CONTINUOUS
 62
     5
 10
-122.4811829999999
 20
-105.169355
 30
0.0
 11
-128.540323
 21
-105.169355
 31
0.0
  0
LINE
  8
DETAIL
  6
CONTINUOUS
 62
     5
 10
-105.169355
 20
-105.169355
 30
0.0
 11
-111.228495
 21
-105.169355
 31
0.0
  0
LINE
  8
DETAIL
  6
CONTINUOUS
 62
     5
 10
-111.228495
 20
-142.82258100000001
 30
0.0
 11
-105.169355
 21
-142.82258100000001
 31
0.0
  0
ARC
  8
DETAIL
  6
CONTINUOUS
 62
     5
 10
-54.532258000000013
 20
-148.4446879999999
 30
0.0
 40
1.298387
 50
270.0
 51
0.0
  0
ARC
  8
DETAIL
  6
CONTINUOUS
 62
     5
 10
-54.532258000000013
 20
-147.13828000000001
 30
0.0
 40
1.298387
 50
270.0
 51
0.0
  0
LINE
  8
DETAIL
  6
CONTINUOUS
 62
     5
 10
-53.233871000000022
 20
-105.169355
 30
0.0
 11
-59.293010999999979
 21
-105.169355
 31
0.0
  0
ARC
  8
DETAIL
  6
CONTINUOUS
 62
     5
 10
0.0
 20
0.0
 30
0.0
 40
141.09139799999991
 50
245.14991799999831
 51
247.83342400000089
  0
LINE
  8
DETAIL
  6
CONTINUOUS
 62
     5
 10
-59.293010999999979
 20
-142.82258100000001
 30
0.0
 11
-53.233871000000022
 21
-142.82258100000001
 31
0.0
  0
LINE
  8
DETAIL
  6
CONTINUOUS
 62
     5
 10
-66.650537999999983
 20
-149.743075
 30
0.0
 11
-63.188172000000009
 21
-149.743075
 31
0.0
  0
LINE
  8
DETAIL
  6
CONTINUOUS
 62
     5
 10
-66.650537999999983
 20
-148.4366669999998
 30
0.0
 11
-63.188172000000009
 21
-148.4366669999998
 31
0.0
  0
ARC
  8
DETAIL
  6
CONTINUOUS
 62
     5
 10
-64.919354999999996
 20
-149.74731199999991
 30
0.0
 40
1.947581
 50
42.295983999999848
 51
137.70401600000019
  0
ARC
  8
DETAIL
  6
CONTINUOUS
 62
     5
 10
-101.2741939999997
 20
-148.4446879999999
 30
0.0
 40
1.298387
 50
180.0
 51
270.0
  0
LINE
  8
DETAIL
  6
CONTINUOUS
 62
     5
 10
-101.2741939999997
 20
-149.743075
 30
0.0
 11
-97.811827999999991
 21
-149.743075
 31
0.0
  0
ARC
  8
DETAIL
  6
CONTINUOUS
 62
     5
 10
-101.2741939999997
 20
-147.13828000000001
 30
0.0
 40
1.298387
 50
180.0
 51
270.0
  0
LINE
  8
DETAIL
  6
CONTINUOUS
 62
     5
 10
-101.2741939999997
 20
-148.4366669999998
 30
0.0
 11
-97.811827999999991
 21
-148.4366669999998
 31
0.0
  0
ARC
  8
DETAIL
  6
CONTINUOUS
 62
     5
 10
-97.811827999999991
 20
-148.4446879999999
 30
0.0
 40
1.298387
 50
270.0
 51
0.0
  0
ARC
  8
DETAIL
  6
CONTINUOUS
 62
     5
 10
-97.811827999999991
 20
-147.13828000000001
 30
0.0
 40
1.298387
 50
270.0
 51
0.0
  0
ARC
  8
DETAIL
  6
CONTINUOUS
 62
     5
 10
-92.61827999999997
 20
-148.4446879999999
 30
0.0
 40
1.298387
 50
180.0
 51
270.0
  0
LINE
  8
DETAIL
  6
CONTINUOUS
 62
     5
 10
-92.61827999999997
 20
-149.743075
 30
0.0
 11
-89.155913999999996
 21
-149.743075
 31
0.0
  0
ARC
  8
DETAIL
  6
CONTINUOUS
 62
     5
 10
-92.61827999999997
 20
-147.13828000000001
 30
0.0
 40
1.298387
 50
180.0
 51
270.0
  0
LINE
  8
DETAIL
  6
CONTINUOUS
 62
     5
 10
-92.61827999999997
 20
-148.4366669999998
 30
0.0
 11
-89.155913999999996
 21
-148.4366669999998
 31
0.0
  0
ARC
  8
DETAIL
  6
CONTINUOUS
 62
     5
 10
-89.155913999999996
 20
-148.4446879999999
 30
0.0
 40
1.298387
 50
270.0
 51
0.0
  0
ARC
  8
DETAIL
  6
CONTINUOUS
 62
     5
 10
-89.155913999999996
 20
-147.13828000000001
 30
0.0
 40
1.298387
 50
270.0
 51
0.0
  0
ARC
  8
DETAIL
  6
CONTINUOUS
 62
     5
 10
-83.962365999999975
 20
-148.4446879999999
 30
0.0
 40
1.298387
 50
180.0
 51
270.0
  0
LINE
  8
DETAIL
  6
CONTINUOUS
 62
     5
 10
-83.962365999999975
 20
-149.743075
 30
0.0
 11
-80.5
 21
-149.743075
 31
0.0
  0
ARC
  8
DETAIL
  6
CONTINUOUS
 62
     5
 10
-83.962365999999975
 20
-147.13828000000001
 30
0.0
 40
1.298387
 50
180.0
 51
270.0
  0
LINE
  8
DETAIL
  6
CONTINUOUS
 62
     5
 10
-83.962365999999975
 20
-148.4366669999998
 30
0.0
 11
-80.5
 21
-148.4366669999998
 31
0.0
  0
ARC
  8
DETAIL
  6
CONTINUOUS
 62
     5
 10
-80.5
 20
-148.4446879999999
 30
0.0
 40
1.298387
 50
270.0
 51
0.0
  0
ARC
  8
DETAIL
  6
CONTINUOUS
 62
     5
 10
-80.5
 20
-147.13828000000001
 30
0.0
 40
1.298387
 50
270.0
 51
0.0
  0
ARC
  8
DETAIL
  6
CONTINUOUS
 62
     5
 10
-75.306451999999979
 20
-148.4446879999999
 30
0.0
 40
1.298387
 50
180.0
 51
270.0
  0
LINE
  8
DETAIL
  6
CONTINUOUS
 62
     5
 10
-75.306451999999979
 20
-149.743075
 30
0.0
 11
-71.844086000000004
 21
-149.743075
 31
0.0
  0
ARC
  8
DETAIL
  6
CONTINUOUS
 62
     5
 10
-75.306451999999979
 20
-147.13828000000001
 30
0.0
 40
1.298387
 50
180.0
 51
270.0
  0
LINE
  8
DETAIL
  6
CONTINUOUS
 62
     5
 10
-75.306451999999979
 20
-148.4366669999998
 30
0.0
 11
-71.844086000000004
 21
-148.4366669999998
 31
0.0
  0
ARC
  8
DETAIL
  6
CONTINUOUS
 62
     5
 10
-71.844086000000004
 20
-148.4446879999999
 30
0.0
 40
1.298387
 50
270.0
 51
0.0
  0
ARC
  8
DETAIL
  6
CONTINUOUS
 62
     5
 10
-71.844086000000004
 20
-147.13828000000001
 30
0.0
 40
1.298387
 50
270.0
 51
0.0
  0
ARC
  8
DETAIL
  6
CONTINUOUS
 62
     5
 10
-66.650537999999983
 20
-148.4446879999999
 30
0.0
 40
1.298387
 50
180.0
 51
270.0
  0
ARC
  8
DETAIL
  6
CONTINUOUS
 62
     5
 10
-66.650537999999983
 20
-147.13828000000001
 30
0.0
 40
1.298387
 50
180.0
 51
270.0
  0
LINE
  8
DETAIL
  6
CONTINUOUS
 62
     5
 10
-93.137634999999989
 20
-147.58333400000001
 30
0.0
 11
-93.137634999999989
 21
-148.328271
 31
0.0
  0
LINE
  8
DETAIL
  6
CONTINUOUS
 62
     5
 10
-88.636558999999977
 20
-147.58333400000001
 30
0.0
 11
-88.636558999999977
 21
-148.328271
 31
0.0
  0
LINE
  8
DETAIL
  6
CONTINUOUS
 62
     5
 10
-93.137634999999989
 20
-147.58333400000001
 30
0.0
 11
-88.636558999999977
 21
-147.58333400000001
 31
0.0
  0
ARC
  8
DETAIL
  6
CONTINUOUS
 62
     5
 10
-63.188172000000009
 20
-148.4446879999999
 30
0.0
 40
1.298387
 50
270.0
 51
0.0
  0
ARC
  8
DETAIL
  6
CONTINUOUS
 62
     5
 10
-63.188172000000009
 20
-147.13828000000001
 30
0.0
 40
1.298387
 50
270.0
 51
0.0
  0
ARC
  8
DETAIL
  6
CONTINUOUS
 62
     5
 10
-57.994623999999988
 20
-148.4446879999999
 30
0.0
 40
1.298387
 50
180.0
 51
270.0
  0
LINE
  8
DETAIL
  6
CONTINUOUS
 62
     5
 10
-57.994623999999988
 20
-149.743075
 30
0.0
 11
-54.532258000000013
 21
-149.743075
 31
0.0
  0
ARC
  8
DETAIL
  6
CONTINUOUS
 62
     5
 10
-57.994623999999988
 20
-147.13828000000001
 30
0.0
 40
1.298387
 50
180.0
 51
270.0
  0
LINE
  8
DETAIL
  6
CONTINUOUS
 62
     5
 10
-57.994623999999988
 20
-148.4366669999998
 30
0.0
 11
-54.532258000000013
 21
-148.4366669999998
 31
0.0
  0
LINE
  8
DETAIL
  6
CONTINUOUS
 62
     5
 10
-61.889785000000018
 20
-105.169355
 30
0.0
 11
-67.948925000000031
 21
-105.169355
 31
0.0
  0
ARC
  8
DETAIL
  6
CONTINUOUS
 62
     5
 10
0.0
 20
0.0
 30
0.0
 40
141.09139799999991
 50
241.21036799999979
 51
243.98220300000099
  0
LINE
  8
DETAIL
  6
CONTINUOUS
 62
     5
 10
-67.948925000000031
 20
-142.82258100000001
 30
0.0
 11
-61.889785000000018
 21
-142.82258100000001
 31
0.0
  0
LINE
  8
DETAIL
  6
CONTINUOUS
 62
     5
 10
-96.513441
 20
-105.169355
 30
0.0
 11
-102.5725809999999
 21
-105.169355
 31
0.0
  0
LINE
  8
DETAIL
  6
CONTINUOUS
 62
     5
 10
-87.857527000000005
 20
-105.169355
 30
0.0
 11
-93.916667000000018
 21
-105.169355
 31
0.0
  0
LINE
  8
DETAIL
  6
CONTINUOUS
 62
     5
 10
-79.201612999999952
 20
-105.169355
 30
0.0
 11
-85.260752999999966
 21
-105.169355
 31
0.0
  0
LINE
  8
DETAIL
  6
CONTINUOUS
 62
     5
 10
-70.545699000000013
 20
-105.169355
 30
0.0
 11
-76.60483899999997
 21
-105.169355
 31
0.0
  0
ARC
  8
DETAIL
  6
CONTINUOUS
 62
     5
 10
0.0
 20
0.0
 30
0.0
 40
141.09139799999991
 50
237.11567099999951
 51
240.0
  0
ARC
  8
DETAIL
  6
CONTINUOUS
 62
     5
 10
0.0
 20
0.0
 30
0.0
 40
141.09139799999991
 50
232.82190999999941
 51
235.85080999999991
  0
ARC
  8
DETAIL
  6
CONTINUOUS
 62
     5
 10
0.0
 20
0.0
 30
0.0
 40
141.09139799999991
 50
228.1933620000016
 51
231.48647299999931
  0
LINE
  8
DETAIL
  6
CONTINUOUS
 62
     5
 10
-102.5725809999999
 20
-142.82258100000001
 30
0.0
 11
-96.513441
 21
-142.82258100000001
 31
0.0
  0
LINE
  8
DETAIL
  6
CONTINUOUS
 62
     5
 10
-93.916667000000018
 20
-142.82258100000001
 30
0.0
 11
-87.857527000000005
 21
-142.82258100000001
 31
0.0
  0
LINE
  8
DETAIL
  6
CONTINUOUS
 62
     5
 10
-85.260752999999966
 20
-142.82258100000001
 30
0.0
 11
-79.201612999999952
 21
-142.82258100000001
 31
0.0
  0
LINE
  8
DETAIL
  6
CONTINUOUS
 62
     5
 10
-76.60483899999997
 20
-142.82258100000001
 30
0.0
 11
-70.545699000000013
 21
-142.82258100000001
 31
0.0
  0
LINE
  8
DETAIL
  6
CONTINUOUS
 62
     5
 10
-14.715054000000009
 20
-149.743075
 30
0.0
 11
-11.25268799999998
 21
-149.743075
 31
0.0
  0
LINE
  8
DETAIL
  6
CONTINUOUS
 62
     5
 10
-14.715054000000009
 20
-148.4366669999998
 30
0.0
 11
-11.25268799999998
 21
-148.4366669999998
 31
0.0
  0
ARC
  8
DETAIL
  6
CONTINUOUS
 62
     5
 10
-49.338709999999992
 20
-148.4446879999999
 30
0.0
 40
1.298387
 50
180.0
 51
270.0
  0
LINE
  8
DETAIL
  6
CONTINUOUS
 62
     5
 10
-49.338709999999992
 20
-149.743075
 30
0.0
 11
-45.876344000000017
 21
-149.743075
 31
0.0
  0
ARC
  8
DETAIL
  6
CONTINUOUS
 62
     5
 10
-49.338709999999992
 20
-147.13828000000001
 30
0.0
 40
1.298387
 50
180.0
 51
270.0
  0
LINE
  8
DETAIL
  6
CONTINUOUS
 62
     5
 10
-49.338709999999992
 20
-148.4366669999998
 30
0.0
 11
-45.876344000000017
 21
-148.4366669999998
 31
0.0
  0
ARC
  8
DETAIL
  6
CONTINUOUS
 62
     5
 10
-45.876344000000017
 20
-148.4446879999999
 30
0.0
 40
1.298387
 50
270.0
 51
0.0
  0
ARC
  8
DETAIL
  6
CONTINUOUS
 62
     5
 10
-45.876344000000017
 20
-147.13828000000001
 30
0.0
 40
1.298387
 50
270.0
 51
0.0
  0
ARC
  8
DETAIL
  6
CONTINUOUS
 62
     5
 10
-40.682796000000003
 20
-148.4446879999999
 30
0.0
 40
1.298387
 50
180.0
 51
270.0
  0
LINE
  8
DETAIL
  6
CONTINUOUS
 62
     5
 10
-40.682796000000003
 20
-149.743075
 30
0.0
 11
-37.220430000000022
 21
-149.743075
 31
0.0
  0
ARC
  8
DETAIL
  6
CONTINUOUS
 62
     5
 10
-40.682796000000003
 20
-147.13828000000001
 30
0.0
 40
1.298387
 50
180.0
 51
270.0
  0
LINE
  8
DETAIL
  6
CONTINUOUS
 62
     5
 10
-40.682796000000003
 20
-148.4366669999998
 30
0.0
 11
-37.220430000000022
 21
-148.4366669999998
 31
0.0
  0
ARC
  8
DETAIL
  6
CONTINUOUS
 62
     5
 10
-37.220430000000022
 20
-148.4446879999999
 30
0.0
 40
1.298387
 50
270.0
 51
0.0
  0
ARC
  8
DETAIL
  6
CONTINUOUS
 62
     5
 10
-37.220430000000022
 20
-147.13828000000001
 30
0.0
 40
1.298387
 50
270.0
 51
0.0
  0
ARC
  8
DETAIL
  6
CONTINUOUS
 62
     5
 10
-32.026882000000001
 20
-148.4446879999999
 30
0.0
 40
1.298387
 50
180.0
 51
270.0
  0
LINE
  8
DETAIL
  6
CONTINUOUS
 62
     5
 10
-32.026882000000001
 20
-149.743075
 30
0.0
 11
-28.564515999999969
 21
-149.743075
 31
0.0
  0
ARC
  8
DETAIL
  6
CONTINUOUS
 62
     5
 10
-32.026882000000001
 20
-147.13828000000001
 30
0.0
 40
1.298387
 50
180.0
 51
270.0
  0
LINE
  8
DETAIL
  6
CONTINUOUS
 62
     5
 10
-32.026882000000001
 20
-148.4366669999998
 30
0.0
 11
-28.564515999999969
 21
-148.4366669999998
 31
0.0
  0
ARC
  8
DETAIL
  6
CONTINUOUS
 62
     5
 10
-28.564515999999969
 20
-148.4446879999999
 30
0.0
 40
1.298387
 50
270.0
 51
0.0
  0
ARC
  8
DETAIL
  6
CONTINUOUS
 62
     5
 10
-28.564515999999969
 20
-147.13828000000001
 30
0.0
 40
1.298387
 50
270.0
 51
0.0
  0
ARC
  8
DETAIL
  6
CONTINUOUS
 62
     5
 10
-23.370968000000001
 20
-148.4446879999999
 30
0.0
 40
1.298387
 50
180.0
 51
270.0
  0
LINE
  8
DETAIL
  6
CONTINUOUS
 62
     5
 10
-23.370968000000001
 20
-149.743075
 30
0.0
 11
-19.90860199999997
 21
-149.743075
 31
0.0
  0
ARC
  8
DETAIL
  6
CONTINUOUS
 62
     5
 10
-23.370968000000001
 20
-147.13828000000001
 30
0.0
 40
1.298387
 50
180.0
 51
270.0
  0
LINE
  8
DETAIL
  6
CONTINUOUS
 62
     5
 10
-23.370968000000001
 20
-148.4366669999998
 30
0.0
 11
-19.90860199999997
 21
-148.4366669999998
 31
0.0
  0
ARC
  8
DETAIL
  6
CONTINUOUS
 62
     5
 10
-19.90860199999997
 20
-148.4446879999999
 30
0.0
 40
1.298387
 50
270.0
 51
0.0
  0
ARC
  8
DETAIL
  6
CONTINUOUS
 62
     5
 10
-19.90860199999997
 20
-147.13828000000001
 30
0.0
 40
1.298387
 50
270.0
 51
0.0
  0
ARC
  8
DETAIL
  6
CONTINUOUS
 62
     5
 10
-14.715054000000009
 20
-148.4446879999999
 30
0.0
 40
1.298387
 50
180.0
 51
270.0
  0
ARC
  8
DETAIL
  6
CONTINUOUS
 62
     5
 10
-14.715054000000009
 20
-147.13828000000001
 30
0.0
 40
1.298387
 50
180.0
 51
270.0
  0
ARC
  8
DETAIL
  6
CONTINUOUS
 62
     5
 10
-11.25268799999998
 20
-148.4446879999999
 30
0.0
 40
1.298387
 50
270.0
 51
0.0
  0
ARC
  8
DETAIL
  6
CONTINUOUS
 62
     5
 10
-11.25268799999998
 20
-147.13828000000001
 30
0.0
 40
1.298387
 50
270.0
 51
0.0
  0
ARC
  8
DETAIL
  6
CONTINUOUS
 62
     5
 10
-6.0591400000000144
 20
-148.4446879999999
 30
0.0
 40
1.298387
 50
180.0
 51
270.0
  0
ARC
  8
DETAIL
  6
CONTINUOUS
 62
     5
 10
-6.0591400000000144
 20
-147.13828000000001
 30
0.0
 40
1.298387
 50
180.0
 51
270.0
  0
LINE
  8
DETAIL
  6
CONTINUOUS
 62
     5
 10
-9.9543009999999867
 20
-105.169355
 30
0.0
 11
-16.013441
 21
-105.169355
 31
0.0
  0
ARC
  8
DETAIL
  6
CONTINUOUS
 62
     5
 10
0.0
 20
0.0
 30
0.0
 40
141.09139799999991
 50
263.48306200000093
 51
265.9542989999992
  0
ARC
  8
DETAIL
  6
CONTINUOUS
 62
     5
 10
0.0
 20
0.0
 30
0.0
 40
115.989248
 50
262.06441499999869
 51
265.07676900000098
  0
ARC
  8
DETAIL
  6
CONTINUOUS
 62
     5
 10
0.0
 20
0.0
 30
0.0
 40
112.526882
 50
261.81859500000093
 51
264.92489300000011
  0
LINE
  8
DETAIL
  6
CONTINUOUS
 62
     5
 10
-16.013441
 20
-142.82258100000001
 30
0.0
 11
-9.9543009999999867
 21
-142.82258100000001
 31
0.0
  0
LINE
  8
DETAIL
  6
CONTINUOUS
 62
     5
 10
-44.577956999999969
 20
-105.169355
 30
0.0
 11
-50.637096999999983
 21
-105.169355
 31
0.0
  0
LINE
  8
DETAIL
  6
CONTINUOUS
 62
     5
 10
-35.922043000000031
 20
-105.169355
 30
0.0
 11
-41.981182999999987
 21
-105.169355
 31
0.0
  0
LINE
  8
DETAIL
  6
CONTINUOUS
 62
     5
 10
-27.266128999999982
 20
-105.169355
 30
0.0
 11
-33.325268999999992
 21
-105.169355
 31
0.0
  0
LINE
  8
DETAIL
  6
CONTINUOUS
 62
     5
 10
-18.610214999999979
 20
-105.169355
 30
0.0
 11
-24.669354999999999
 21
-105.169355
 31
0.0
  0
ARC
  8
DETAIL
  6
CONTINUOUS
 62
     5
 10
0.0
 20
0.0
 30
0.0
 40
141.09139799999991
 50
259.93026700000081
 51
262.42049399999962
  0
ARC
  8
DETAIL
  6
CONTINUOUS
 62
     5
 10
0.0
 20
0.0
 30
0.0
 40
141.09139799999991
 50
256.33784799999989
 51
258.85739899999908
  0
ARC
  8
DETAIL
  6
CONTINUOUS
 62
     5
 10
0.0
 20
0.0
 30
0.0
 40
141.09139799999991
 50
252.6897299999996
 51
255.25004300000049
  0
ARC
  8
DETAIL
  6
CONTINUOUS
 62
     5
 10
0.0
 20
0.0
 30
0.0
 40
141.09139799999991
 50
248.96760699999959
 51
251.5817699999993
  0
ARC
  8
DETAIL
  6
CONTINUOUS
 62
     5
 10
0.0
 20
0.0
 30
0.0
 40
115.989248
 50
245.05545699999939
 51
247.39794999999921
  0
ARC
  8
DETAIL
  6
CONTINUOUS
 62
     5
 10
0.0
 20
0.0
 30
0.0
 40
115.989248
 50
248.78059600000071
 51
251.95875799999999
  0
ARC
  8
DETAIL
  6
CONTINUOUS
 62
     5
 10
0.0
 20
0.0
 30
0.0
 40
115.989248
 50
253.30281700000069
 51
256.40397800000062
  0
ARC
  8
DETAIL
  6
CONTINUOUS
 62
     5
 10
0.0
 20
0.0
 30
0.0
 40
115.989248
 50
257.72016100000133
 51
260.76711300000022
  0
ARC
  8
DETAIL
  6
CONTINUOUS
 62
     5
 10
0.0
 20
0.0
 30
0.0
 40
112.526882
 50
252.77325999999869
 51
255.9772180000015
  0
ARC
  8
DETAIL
  6
CONTINUOUS
 62
     5
 10
0.0
 20
0.0
 30
0.0
 40
112.526882
 50
257.33614399999959
 51
260.48042200000037
  0
ARC
  8
DETAIL
  6
CONTINUOUS
 62
     5
 10
-35.456512999999973
 20
-102.224474
 30
0.0
 40
4.3279569999999996
 50
222.8774259999991
 51
250.87091999999959
  0
ARC
  8
DETAIL
  6
CONTINUOUS
 62
     5
 10
0.0
 20
0.0
 30
0.0
 40
112.526882
 50
250.87091999999959
 51
251.38358900000119
  0
LINE
  8
DETAIL
  6
CONTINUOUS
 62
     5
 10
-45.010725999999977
 20
-105.169355
 30
0.0
 11
-45.010725999999977
 21
-106.89967300000001
 31
0.0
  0
LINE
  8
DETAIL
  6
CONTINUOUS
 62
     5
 10
-36.354811999999981
 20
-106.4923789999999
 30
0.0
 11
-36.354811999999981
 21
-110.1446009999998
 31
0.0
  0
LINE
  8
DETAIL
  6
CONTINUOUS
 62
     5
 10
-50.637096999999983
 20
-142.82258100000001
 30
0.0
 11
-44.577956999999969
 21
-142.82258100000001
 31
0.0
  0
LINE
  8
DETAIL
  6
CONTINUOUS
 62
     5
 10
-41.981182999999987
 20
-142.82258100000001
 30
0.0
 11
-35.922043000000031
 21
-142.82258100000001
 31
0.0
  0
LINE
  8
DETAIL
  6
CONTINUOUS
 62
     5
 10
-33.325268999999992
 20
-142.82258100000001
 30
0.0
 11
-27.266128999999982
 21
-142.82258100000001
 31
0.0
  0
LINE
  8
DETAIL
  6
CONTINUOUS
 62
     5
 10
-24.669354999999999
 20
-142.82258100000001
 30
0.0
 11
-18.610214999999979
 21
-142.82258100000001
 31
0.0
  0
ARC
  8
DETAIL
  6
CONTINUOUS
 62
     5
 10
0.0
 20
0.0
 30
0.0
 40
115.989248
 50
196.4726449999996
 51
204.94454300000041
  0
ARC
  8
DETAIL
  6
CONTINUOUS
 62
     5
 10
0.0
 20
0.0
 30
0.0
 40
112.526882
 50
188.71224500000031
 51
200.83390399999959
  0
LINE
  8
DETAIL
  6
CONTINUOUS
 62
     5
 10
-119.88440900000001
 20
-102.5725809999999
 30
0.0
 11
-113.795979
 21
-102.5725809999999
 31
0.0
  0
ARC
  8
DETAIL
  6
CONTINUOUS
 62
     5
 10
0.0
 20
0.0
 30
0.0
 40
141.09139799999991
 50
211.82167900000141
 51
216.22054700000101
  0
LINE
  8
DETAIL
  6
CONTINUOUS
 62
     5
 10
-128.540323
 20
-102.5725809999999
 30
0.0
 11
-122.451893
 21
-102.5725809999999
 31
0.0
  0
ARC
  8
DETAIL
  6
CONTINUOUS
 62
     5
 10
0.0
 20
0.0
 30
0.0
 40
141.09139799999991
 50
204.3501210000004
 51
209.76161999999971
  0
LINE
  8
DETAIL
  6
CONTINUOUS
 62
     5
 10
-111.228495
 20
-102.5725809999999
 30
0.0
 11
-105.14006499999969
 21
-102.5725809999999
 31
0.0
  0
ARC
  8
DETAIL
  6
CONTINUOUS
 62
     5
 10
0.0
 20
0.0
 30
0.0
 40
141.09139799999991
 50
217.96901699999941
 51
221.80663799999951
  0
ARC
  8
DETAIL
  6
CONTINUOUS
 62
     5
 10
0.0
 20
0.0
 30
0.0
 40
36.354838999999998
 50
243.86573200000069
 51
254.10891799999931
  0
ARC
  8
DETAIL
  6
CONTINUOUS
 62
     5
 10
0.0
 20
0.0
 30
0.0
 40
35.28667699999999
 50
243.01161700000111
 51
253.61453999999969
  0
ARC
  8
DETAIL
  6
CONTINUOUS
 62
     5
 10
42.493864000000031
 20
-46.555601999999993
 30
0.0
 40
102.48602199999991
 50
172.04702
 51
173.3036720000002
  0
ARC
  8
DETAIL
  6
CONTINUOUS
 62
     5
 10
42.493864000000031
 20
-46.555601999999993
 30
0.0
 40
102.48602199999991
 50
186.6963279999998
 51
200.92375300000029
  0
LINE
  8
DETAIL
  6
CONTINUOUS
 62
     5
 10
-59.293010999999979
 20
-102.5725809999999
 30
0.0
 11
-53.204580999999962
 21
-102.5725809999999
 31
0.0
  0
ARC
  8
DETAIL
  6
CONTINUOUS
 62
     5
 10
-53.056985999999988
 20
-94.297209000000009
 30
0.0
 40
4.3279569999999996
 50
240.63541299999909
 51
267.65765399999992
  0
ARC
  8
DETAIL
  6
CONTINUOUS
 62
     5
 10
0.0
 20
0.0
 30
0.0
 40
115.989248
 50
215.93322299999889
 51
220.75897800000001
  0
LINE
  8
DETAIL
  6
CONTINUOUS
 62
     5
 10
-67.948925000000031
 20
-102.5725809999999
 30
0.0
 11
-61.860495000000007
 21
-102.5725809999999
 31
0.0
  0
ARC
  8
DETAIL
  6
CONTINUOUS
 62
     5
 10
0.0
 20
0.0
 30
0.0
 40
115.989248
 50
234.13899599999999
 51
237.752196999999
  0
ARC
  8
DETAIL
  6
CONTINUOUS
 62
     5
 10
0.0
 20
0.0
 30
0.0
 40
112.526882
 50
232.85414199999991
 51
236.63298699999939
  0
LINE
  8
DETAIL
  6
CONTINUOUS
 62
     5
 10
-102.5725809999999
 20
-102.5725809999999
 30
0.0
 11
-96.484150999999997
 21
-102.5725809999999
 31
0.0
  0
LINE
  8
DETAIL
  6
CONTINUOUS
 62
     5
 10
-93.916667000000018
 20
-102.5725809999999
 30
0.0
 11
-87.828237000000001
 21
-102.5725809999999
 31
0.0
  0
LINE
  8
DETAIL
  6
CONTINUOUS
 62
     5
 10
-85.260752999999966
 20
-102.5725809999999
 30
0.0
 11
-79.172323000000006
 21
-102.5725809999999
 31
0.0
  0
LINE
  8
DETAIL
  6
CONTINUOUS
 62
     5
 10
-76.60483899999997
 20
-102.5725809999999
 30
0.0
 11
-70.51640900000001
 21
-102.5725809999999
 31
0.0
  0
ARC
  8
DETAIL
  6
CONTINUOUS
 62
     5
 10
0.0
 20
0.0
 30
0.0
 40
141.09139799999991
 50
223.36503200000021
 51
226.63496800000109
  0
ARC
  8
DETAIL
  6
CONTINUOUS
 62
     5
 10
0.0
 20
0.0
 30
0.0
 40
115.989248
 50
222.6864780000007
 51
226.93435599999981
  0
ARC
  8
DETAIL
  6
CONTINUOUS
 62
     5
 10
0.0
 20
0.0
 30
0.0
 40
115.989248
 50
228.66596899999851
 51
232.5398890000005
  0
ARC
  8
DETAIL
  6
CONTINUOUS
 62
     5
 10
0.0
 20
0.0
 30
0.0
 40
112.526882
 50
220.73882300000039
 51
225.2635980000002
  0
ARC
  8
DETAIL
  6
CONTINUOUS
 62
     5
 10
0.0
 20
0.0
 30
0.0
 40
112.526882
 50
227.09621700000201
 51
231.17652400000009
  0
ARC
  8
DETAIL
  6
CONTINUOUS
 62
     5
 10
0.0
 20
0.0
 30
0.0
 40
115.989248
 50
239.2566039999999
 51
242.16898199999929
  0
ARC
  8
DETAIL
  6
CONTINUOUS
 62
     5
 10
0.0
 20
0.0
 30
0.0
 40
112.526882
 50
238.20220600000081
 51
240.63541299999909
  0
ARC
  8
DETAIL
  6
CONTINUOUS
 62
     5
 10
0.0
 20
0.0
 30
0.0
 40
115.989248
 50
207.83101800000119
 51
213.6860120000006
  0
ARC
  8
DETAIL
  6
CONTINUOUS
 62
     5
 10
0.0
 20
0.0
 30
0.0
 40
112.526882
 50
204.28117099999929
 51
210.9415460000011
  0
ARC
  8
DETAIL
  6
CONTINUOUS
 62
     5
 10
0.0
 20
0.0
 30
0.0
 40
112.526882
 50
213.42418899999851
 51
218.6689410000009
  0
LINE
  8
DETAIL
  6
CONTINUOUS
 62
     5
 10
-16.013441
 20
-102.5725809999999
 30
0.0
 11
-9.9250109999999836
 21
-102.5725809999999
 31
0.0
  0
ARC
  8
DETAIL
  6
CONTINUOUS
 62
     5
 10
-21.639785000000021
 20
0.0
 30
0.0
 40
39.817203999999997
 50
278.12332999999961
 51
287.06630999999868
  0
ARC
  8
DETAIL
  6
CONTINUOUS
 62
     5
 10
0.0
 20
0.0
 30
0.0
 40
36.787634999999959
 50
244.19598900000111
 51
254.30072699999889
  0
ARC
  8
DETAIL
  6
CONTINUOUS
 62
     5
 10
41.310568999999987
 20
-62.233226999999999
 30
0.0
 40
90.887096999999997
 50
179.3580069999999
 51
199.09063000000009
  0
LINE
  8
DETAIL
  6
CONTINUOUS
 62
     5
 10
-50.637096999999983
 20
-102.5725809999999
 30
0.0
 11
-44.548667000000023
 21
-102.5725809999999
 31
0.0
  0
LINE
  8
DETAIL
  6
CONTINUOUS
 62
     5
 10
-41.981182999999987
 20
-102.5725809999999
 30
0.0
 11
-35.892752999999971
 21
-102.5725809999999
 31
0.0
  0
LINE
  8
DETAIL
  6
CONTINUOUS
 62
     5
 10
-33.325268999999992
 20
-102.5725809999999
 30
0.0
 11
-27.236838999999971
 21
-102.5725809999999
 31
0.0
  0
LINE
  8
DETAIL
  6
CONTINUOUS
 62
     5
 10
-24.669354999999999
 20
-102.5725809999999
 30
0.0
 11
-18.580924999999979
 21
-102.5725809999999
 31
0.0
  0
ARC
  8
DETAIL
  6
CONTINUOUS
 62
     5
 10
42.493864000000031
 20
-46.555601999999993
 30
0.0
 40
102.48602199999991
 50
204.67112300000119
 51
206.54882600000019
  0
ARC
  8
DETAIL
  6
CONTINUOUS
 62
     5
 10
-53.056985999999988
 20
-94.297209000000009
 30
0.0
 40
4.3279569999999996
 50
303.99563499999908
 51
26.54882600000024
  0
ARC
  8
DETAIL
  6
CONTINUOUS
 62
     5
 10
41.310568999999987
 20
-62.233226999999999
 30
0.0
 40
90.887096999999997
 50
203.5902300000007
 51
206.34916400000131
  0
LINE
  8
DETAIL
  6
CONTINUOUS
 62
     5
 10
-45.010725999999977
 20
-90.677882000000011
 30
0.0
 11
-45.010725999999977
 21
-102.5725809999999
 31
0.0
  0
ARC
  8
DETAIL
  6
CONTINUOUS
 62
     5
 10
-21.639785000000021
 20
0.0
 30
0.0
 40
39.817203999999997
 50
252.93369000000129
 51
261.87667000000039
  0
ARC
  8
DETAIL
  6
CONTINUOUS
 62
     5
 10
-21.639785000000021
 20
0.0
 30
0.0
 40
39.817203999999997
 50
265.63632100000149
 51
274.36367899999851
  0
ARC
  8
DETAIL
  6
CONTINUOUS
 62
     5
 10
-21.639785000000021
 20
0.0
 30
0.0
 40
39.817203999999997
 50
239.27823199999801
 51
248.97988699999979
  0
ARC
  8
DETAIL
  6
CONTINUOUS
 62
     5
 10
13.393169
 20
-60.171445000000013
 30
0.0
 40
62.322581000000007
 50
158.46266
 51
162.538153999999
  0
ARC
  8
DETAIL
  6
CONTINUOUS
 62
     5
 10
23.43120900000002
 20
-64.020211000000018
 30
0.0
 40
73.055914000000001
 50
162.02108999999911
 51
177.79930399999989
  0
ARC
  8
DETAIL
  6
CONTINUOUS
 62
     5
 10
-21.639785000000021
 20
0.0
 30
0.0
 40
39.817203999999997
 50
291.02011300000021
 51
294.71985099999972
  0
ARC
  8
DETAIL
  6
CONTINUOUS
 62
     5
 10
4.2350149999999758
 20
-56.304853000000008
 30
0.0
 40
67.862366000000009
 50
147.87012499999989
 51
157.422158
  0
ARC
  8
DETAIL
  6
CONTINUOUS
 62
     5
 10
-50.43378100000001
 20
-33.573230999999993
 30
0.0
 40
8.6559139999999992
 50
157.422158
 51
172.04702
  0
ARC
  8
DETAIL
  6
CONTINUOUS
 62
     5
 10
0.0
 20
0.0
 30
0.0
 40
32.881081999999992
 50
146.0201880000001
 51
213.9798119999999
  0
ARC
  8
DETAIL
  6
CONTINUOUS
 62
     5
 10
0.0
 20
0.0
 30
0.0
 40
32.881081999999992
 50
240.8557029999983
 51
252.37796700000149
  0
ARC
  8
DETAIL
  6
CONTINUOUS
 62
     5
 10
-13.03151300000002
 20
-47.245929999999987
 30
0.0
 40
48.646236999999999
 50
130.4276120000016
 51
140.7647859999993
  0
ARC
  8
DETAIL
  6
CONTINUOUS
 62
     5
 10
0.0
 20
0.0
 30
0.0
 40
35.28667699999999
 50
199.19325699999999
 51
219.40273900000031
  0
ARC
  8
DETAIL
  6
CONTINUOUS
 62
     5
 10
0.0
 20
0.0
 30
0.0
 40
36.354838999999998
 50
203.5564640000006
 51
221.40962199999959
  0
ARC
  8
DETAIL
  6
CONTINUOUS
 62
     5
 10
0.0
 20
0.0
 30
0.0
 40
36.787634999999959
 50
205.057615
 51
222.16827099999981
  0
ARC
  8
DETAIL
  6
CONTINUOUS
 62
     5
 10
-16.547841999999999
 20
-43.483798000000007
 30
0.0
 40
28.045161
 50
133.69517500000009
 51
150.83023800000061
  0
ARC
  8
DETAIL
  6
CONTINUOUS
 62
     5
 10
13.393169
 20
-60.171445000000013
 30
0.0
 40
62.322581000000007
 50
150.85037599999839
 51
152.6868379999996
  0
ARC
  8
DETAIL
  6
CONTINUOUS
 62
     5
 10
0.0
 20
0.0
 30
0.0
 40
35.28667699999999
 50
202.2462449999999
 51
219.40273900000031
  0
ARC
  8
DETAIL
  6
CONTINUOUS
 62
     5
 10
0.0
 20
0.0
 30
0.0
 40
36.787634999999959
 50
205.057615
 51
222.16827099999981
  0
ARC
  8
DETAIL
  6
CONTINUOUS
 62
     5
 10
0.0
 20
0.0
 30
0.0
 40
36.354838999999998
 50
203.5564640000006
 51
221.40962199999959
  0
ARC
  8
DETAIL
  6
CONTINUOUS
 62
     5
 10
0.0
 20
0.0
 30
0.0
 40
36.787634999999959
 50
227.88751899999949
 51
239.61005799999859
  0
ARC
  8
DETAIL
  6
CONTINUOUS
 62
     5
 10
0.0
 20
0.0
 30
0.0
 40
36.354838999999998
 50
227.26788999999789
 51
239.2092120000016
  0
ARC
  8
DETAIL
  6
CONTINUOUS
 62
     5
 10
0.0
 20
0.0
 30
0.0
 40
35.28667699999999
 50
225.64416099999971
 51
238.17000700000011
  0
ARC
  8
DETAIL
  6
CONTINUOUS
 62
     5
 10
0.0
 20
0.0
 30
0.0
 40
32.881081999999992
 50
221.38711000000001
 51
235.52924699999889
  0
ARC
  8
DETAIL
  6
CONTINUOUS
 62
     5
 10
0.0
 20
0.0
 30
0.0
 40
32.881081999999992
 50
201.94134499999939
 51
213.9798119999999
  0
ARC
  8
DETAIL
  6
CONTINUOUS
 62
     5
 10
0.0
 20
0.0
 30
0.0
 40
36.354838999999998
 50
105.89108200000069
 51
116.1342679999993
  0
ARC
  8
DETAIL
  6
CONTINUOUS
 62
     5
 10
0.0
 20
0.0
 30
0.0
 40
36.787634999999959
 50
105.6992730000011
 51
115.80401099999889
  0
ARC
  8
DETAIL
  6
CONTINUOUS
 62
     5
 10
0.0
 20
0.0
 30
0.0
 40
35.28667699999999
 50
106.38546000000029
 51
116.98838299999861
  0
ARC
  8
DETAIL
  6
CONTINUOUS
 62
     5
 10
0.0
 20
0.0
 30
0.0
 40
32.881081999999992
 50
107.62203299999859
 51
119.1442970000018
  0
ARC
  8
DETAIL
  6
CONTINUOUS
 62
     5
 10
0.0
 20
0.0
 30
0.0
 40
36.787634999999959
 50
137.83172900000019
 51
154.942385
  0
ARC
  8
DETAIL
  6
CONTINUOUS
 62
     5
 10
0.0
 20
0.0
 30
0.0
 40
36.354838999999998
 50
138.59037800000041
 51
156.4435359999994
  0
ARC
  8
DETAIL
  6
CONTINUOUS
 62
     5
 10
0.0
 20
0.0
 30
0.0
 40
35.28667699999999
 50
140.59726099999969
 51
160.80674299999981
  0
ARC
  8
DETAIL
  6
CONTINUOUS
 62
     5
 10
10.819892999999981
 20
18.74060399999999
 30
0.0
 40
39.817203999999997
 50
163.04257399999969
 51
174.71985100000009
  0
ARC
  8
DETAIL
  6
CONTINUOUS
 62
     5
 10
0.0
 20
0.0
 30
0.0
 40
32.881081999999992
 50
124.4707530000012
 51
138.61288999999999
  0
ARC
  8
DETAIL
  6
CONTINUOUS
 62
     5
 10
0.0
 20
0.0
 30
0.0
 40
35.28667699999999
 50
121.8299929999999
 51
134.3558390000002
  0
ARC
  8
DETAIL
  6
CONTINUOUS
 62
     5
 10
0.0
 20
0.0
 30
0.0
 40
36.354838999999998
 50
120.7907879999984
 51
132.73211000000211
  0
ARC
  8
DETAIL
  6
CONTINUOUS
 62
     5
 10
0.0
 20
0.0
 30
0.0
 40
36.787634999999959
 50
120.3899419999986
 51
132.1124810000004
  0
ARC
  8
DETAIL
  6
CONTINUOUS
 62
     5
 10
0.0
 20
0.0
 30
0.0
 40
32.881081999999992
 50
146.0201880000001
 51
158.05865500000061
  0
ARC
  8
DETAIL
  6
CONTINUOUS
 62
     5
 10
0.0
 20
0.0
 30
0.0
 40
35.28667699999999
 50
140.59726099999969
 51
149.8065100000004
  0
ARC
  8
DETAIL
  6
CONTINUOUS
 62
     5
 10
0.0
 20
0.0
 30
0.0
 40
36.354838999999998
 50
138.59037800000041
 51
147.02798800000011
  0
ARC
  8
DETAIL
  6
CONTINUOUS
 62
     5
 10
0.0
 20
0.0
 30
0.0
 40
36.787634999999959
 50
137.83172900000019
 51
146.00298199999921
  0
LINE
  8
DETAIL
  6
CONTINUOUS
 62
     5
 10
-113.82526899999991
 20
105.169355
 30
0.0
 11
-117.0585419999996
 21
105.169355
 31
0.0
  0
LINE
  8
DETAIL
  6
CONTINUOUS
 62
     5
 10
-117.0585419999996
 20
102.5725809999999
 30
0.0
 11
-113.82526899999991
 21
102.5725809999999
 31
0.0
  0
ARC
  8
DETAIL
  6
CONTINUOUS
 62
     5
 10
0.0
 20
0.0
 30
0.0
 40
141.09139799999991
 50
150.23838000000029
 51
155.6498789999996
  0
LINE
  8
DETAIL
  6
CONTINUOUS
 62
     5
 10
-128.540323
 20
102.5725809999999
 30
0.0
 11
-122.451893
 21
102.5725809999999
 31
0.0
  0
LINE
  8
DETAIL
  6
CONTINUOUS
 62
     5
 10
-122.4811829999999
 20
105.169355
 30
0.0
 11
-128.540323
 21
105.169355
 31
0.0
  0
LINE
  8
DETAIL
  6
CONTINUOUS
 62
     5
 10
-119.88440900000001
 20
102.5725809999999
 30
0.0
 11
-117.0585419999996
 21
102.5725809999999
 31
0.0
  0
LINE
  8
DETAIL
  6
CONTINUOUS
 62
     5
 10
-117.0585419999996
 20
105.169355
 30
0.0
 11
-119.88440900000001
 21
105.169355
 31
0.0
  0
LINE
  8
DETAIL
  6
CONTINUOUS
 62
     5
 10
-105.169355
 20
105.169355
 30
0.0
 11
-111.228495
 21
105.169355
 31
0.0
  0
LINE
  8
DETAIL
  6
CONTINUOUS
 62
     5
 10
-111.228495
 20
102.5725809999999
 30
0.0
 11
-105.169355
 21
102.5725809999999
 31
0.0
  0
LINE
  8
DETAIL
  6
CONTINUOUS
 62
     5
 10
-119.88440900000001
 20
151.47849500000001
 30
0.0
 11
-113.82526899999991
 21
151.47849500000001
 31
0.0
  0
LINE
  8
DETAIL
  6
CONTINUOUS
 62
     5
 10
-119.88440900000001
 20
142.82258100000001
 30
0.0
 11
-113.82526899999991
 21
142.82258100000001
 31
0.0
  0
ARC
  8
DETAIL
  6
CONTINUOUS
 62
     5
 10
-121.83199
 20
159.4852149999999
 30
0.0
 40
0.6491940000000001
 50
90.0
 51
180.0
  0
LINE
  8
DETAIL
  6
CONTINUOUS
 62
     5
 10
-128.540323
 20
151.47849500000001
 30
0.0
 11
-122.4811829999999
 21
151.47849500000001
 31
0.0
  0
ARC
  8
DETAIL
  6
CONTINUOUS
 62
     5
 10
-121.83199
 20
159.4852149999999
 30
0.0
 40
0.6491940000000001
 50
90.0
 51
180.0
  0
ARC
  8
DETAIL
  6
CONTINUOUS
 62
     5
 10
-120.533602
 20
159.4852149999999
 30
0.0
 40
0.6491940000000001
 50
0.0
 51
90.0
  0
LINE
  8
DETAIL
  6
CONTINUOUS
 62
     5
 10
-124.21236599999961
 20
144.5537639999996
 30
0.0
 11
-124.21236599999961
 21
151.47849500000001
 31
0.0
  0
ARC
  8
DETAIL
  6
CONTINUOUS
 62
     5
 10
-122.4811829999999
 20
144.5537639999996
 30
0.0
 40
1.731182999999997
 50
180.0
 51
270.0
  0
ARC
  8
DETAIL
  6
CONTINUOUS
 62
     5
 10
-113.1760759999999
 20
159.4852149999999
 30
0.0
 40
0.6491940000000001
 50
90.0
 51
180.0
  0
ARC
  8
DETAIL
  6
CONTINUOUS
 62
     5
 10
-113.1760759999999
 20
159.4852149999999
 30
0.0
 40
0.6491940000000001
 50
90.0
 51
180.0
  0
ARC
  8
DETAIL
  6
CONTINUOUS
 62
     5
 10
-111.87768799999991
 20
159.4852149999999
 30
0.0
 40
0.6491940000000001
 50
0.0
 51
90.0
  0
ARC
  8
DETAIL
  6
CONTINUOUS
 62
     5
 10
-104.520162
 20
159.4852149999999
 30
0.0
 40
0.6491940000000001
 50
90.0
 51
180.0
  0
LINE
  8
DETAIL
  6
CONTINUOUS
 62
     5
 10
-111.228495
 20
151.47849500000001
 30
0.0
 11
-105.169355
 21
151.47849500000001
 31
0.0
  0
ARC
  8
DETAIL
  6
CONTINUOUS
 62
     5
 10
-104.520162
 20
159.4852149999999
 30
0.0
 40
0.6491940000000001
 50
90.0
 51
180.0
  0
LINE
  8
DETAIL
  6
CONTINUOUS
 62
     5
 10
-111.228495
 20
142.82258100000001
 30
0.0
 11
-105.169355
 21
142.82258100000001
 31
0.0
  0
ARC
  8
DETAIL
  6
CONTINUOUS
 62
     5
 10
0.0
 20
0.0
 30
0.0
 40
112.526882
 50
104.0227819999985
 51
107.2267399999983
  0
ARC
  8
DETAIL
  6
CONTINUOUS
 62
     5
 10
0.0
 20
0.0
 30
0.0
 40
115.989248
 50
108.0412419999999
 51
111.2194039999993
  0
ARC
  8
DETAIL
  6
CONTINUOUS
 62
     5
 10
-74.550838999999996
 20
-4.6593890000000044
 30
0.0
 40
90.887096999999997
 50
76.435290999998898
 51
80.335609999999576
  0
ARC
  8
DETAIL
  6
CONTINUOUS
 62
     5
 10
-61.565266000000008
 20
-13.522964999999999
 30
0.0
 40
102.48602199999991
 50
85.337109000001433
 51
86.548826000000901
  0
LINE
  8
DETAIL
  6
CONTINUOUS
 62
     5
 10
-53.233871000000022
 20
105.169355
 30
0.0
 11
-59.293010999999979
 21
105.169355
 31
0.0
  0
LINE
  8
DETAIL
  6
CONTINUOUS
 62
     5
 10
-59.293010999999979
 20
102.5725809999999
 30
0.0
 11
-53.233871000000022
 21
102.5725809999999
 31
0.0
  0
ARC
  8
DETAIL
  6
CONTINUOUS
 62
     5
 10
-74.550838999999996
 20
-4.6593890000000044
 30
0.0
 40
90.887096999999997
 50
81.992351000001136
 51
85.834444000000516
  0
LINE
  8
DETAIL
  6
CONTINUOUS
 62
     5
 10
-61.889785000000018
 20
105.169355
 30
0.0
 11
-67.948925000000031
 21
105.169355
 31
0.0
  0
LINE
  8
DETAIL
  6
CONTINUOUS
 62
     5
 10
-67.948925000000031
 20
102.5725809999999
 30
0.0
 11
-61.889785000000018
 21
102.5725809999999
 31
0.0
  0
ARC
  8
DETAIL
  6
CONTINUOUS
 62
     5
 10
-74.550838999999996
 20
-4.6593890000000044
 30
0.0
 40
90.887096999999997
 50
87.47431700000098
 51
87.516928999998868
  0
ARC
  8
DETAIL
  6
CONTINUOUS
 62
     5
 10
0.0
 20
0.0
 30
0.0
 40
112.526882
 50
134.7364019999998
 51
139.26117699999961
  0
ARC
  8
DETAIL
  6
CONTINUOUS
 62
     5
 10
0.0
 20
0.0
 30
0.0
 40
112.526882
 50
130.8709199999989
 51
132.90378299999799
  0
ARC
  8
DETAIL
  6
CONTINUOUS
 62
     5
 10
-70.800735000000032
 20
81.818477999999971
 30
0.0
 40
4.3279569999999996
 50
87.516928999998868
 51
130.8709199999989
  0
LINE
  8
DETAIL
  6
CONTINUOUS
 62
     5
 10
-96.513441
 20
105.169355
 30
0.0
 11
-102.5725809999999
 21
105.169355
 31
0.0
  0
LINE
  8
DETAIL
  6
CONTINUOUS
 62
     5
 10
-102.5725809999999
 20
102.5725809999999
 30
0.0
 11
-96.513441
 21
102.5725809999999
 31
0.0
  0
LINE
  8
DETAIL
  6
CONTINUOUS
 62
     5
 10
-87.857527000000005
 20
105.169355
 30
0.0
 11
-93.916667000000018
 21
105.169355
 31
0.0
  0
LINE
  8
DETAIL
  6
CONTINUOUS
 62
     5
 10
-93.916667000000018
 20
102.5725809999999
 30
0.0
 11
-87.857527000000005
 21
102.5725809999999
 31
0.0
  0
LINE
  8
DETAIL
  6
CONTINUOUS
 62
     5
 10
-79.201612999999952
 20
105.169355
 30
0.0
 11
-85.260752999999966
 21
105.169355
 31
0.0
  0
LINE
  8
DETAIL
  6
CONTINUOUS
 62
     5
 10
-85.260752999999966
 20
102.5725809999999
 30
0.0
 11
-79.201612999999952
 21
102.5725809999999
 31
0.0
  0
LINE
  8
DETAIL
  6
CONTINUOUS
 62
     5
 10
-70.545699000000013
 20
105.169355
 30
0.0
 11
-76.60483899999997
 21
105.169355
 31
0.0
  0
LINE
  8
DETAIL
  6
CONTINUOUS
 62
     5
 10
-76.60483899999997
 20
102.5725809999999
 30
0.0
 11
-70.545699000000013
 21
102.5725809999999
 31
0.0
  0
ARC
  8
DETAIL
  6
CONTINUOUS
 62
     5
 10
-55.13528500000001
 20
93.097302000000013
 30
0.0
 40
4.3279569999999996
 50
165.44952399999929
 51
266.54882600000087
  0
LINE
  8
DETAIL
  6
CONTINUOUS
 62
     5
 10
-16.013441
 20
102.5725809999999
 30
0.0
 11
-9.9250109999999836
 21
102.5725809999999
 31
0.0
  0
LINE
  8
DETAIL
  6
CONTINUOUS
 62
     5
 10
-9.9543009999999867
 20
105.169355
 30
0.0
 11
-16.013441
 21
105.169355
 31
0.0
  0
ARC
  8
DETAIL
  6
CONTINUOUS
 62
     5
 10
10.819892999999981
 20
18.74060399999999
 30
0.0
 40
39.817203999999997
 50
121.4489809999997
 51
132.36979899999889
  0
ARC
  8
DETAIL
  6
CONTINUOUS
 62
     5
 10
-61.565266000000008
 20
-13.522964999999999
 30
0.0
 40
102.48602199999991
 50
59.762182999997719
 51
63.610651000001397
  0
ARC
  8
DETAIL
  6
CONTINUOUS
 62
     5
 10
-67.158733999999981
 20
11.71808399999998
 30
0.0
 40
73.055914000000001
 50
42.021090000000498
 51
45.566237999999153
  0
ARC
  8
DETAIL
  6
CONTINUOUS
 62
     5
 10
-67.158733999999981
 20
11.71808399999998
 30
0.0
 40
73.055914000000001
 50
48.353015999999798
 51
54.436786000001383
  0
ARC
  8
DETAIL
  6
CONTINUOUS
 62
     5
 10
-74.550838999999996
 20
-4.6593890000000044
 30
0.0
 40
90.887096999999997
 50
70.744486999999083
 51
74.745035000000712
  0
ARC
  8
DETAIL
  6
CONTINUOUS
 62
     5
 10
-74.550838999999996
 20
-4.6593890000000044
 30
0.0
 40
90.887096999999997
 50
64.848096999999967
 51
69.000922000001552
  0
ARC
  8
DETAIL
  6
CONTINUOUS
 62
     5
 10
-74.550838999999996
 20
-4.6593890000000044
 30
0.0
 40
90.887096999999997
 50
59.358006999999539
 51
63.02568599999816
  0
ARC
  8
DETAIL
  6
CONTINUOUS
 62
     5
 10
-61.565266000000008
 20
-13.522964999999999
 30
0.0
 40
102.48602199999991
 50
75.509947999998985
 51
78.983580999998381
  0
ARC
  8
DETAIL
  6
CONTINUOUS
 62
     5
 10
-61.565266000000008
 20
-13.522964999999999
 30
0.0
 40
102.48602199999991
 50
65.924326000000235
 51
68.89923899999954
  0
ARC
  8
DETAIL
  6
CONTINUOUS
 62
     5
 10
-61.565266000000008
 20
-13.522964999999999
 30
0.0
 40
102.48602199999991
 50
72.157869000000758
 51
74.0052220000006
  0
ARC
  8
DETAIL
  6
CONTINUOUS
 62
     5
 10
-61.565266000000008
 20
-13.522964999999999
 30
0.0
 40
102.48602199999991
 50
80.459051999998778
 51
83.878867000000596
  0
LINE
  8
DETAIL
  6
CONTINUOUS
 62
     5
 10
-44.577956999999969
 20
105.169355
 30
0.0
 11
-50.637096999999983
 21
105.169355
 31
0.0
  0
LINE
  8
DETAIL
  6
CONTINUOUS
 62
     5
 10
-50.637096999999983
 20
102.5725809999999
 30
0.0
 11
-44.577956999999969
 21
102.5725809999999
 31
0.0
  0
LINE
  8
DETAIL
  6
CONTINUOUS
 62
     5
 10
-35.922043000000031
 20
105.169355
 30
0.0
 11
-41.981182999999987
 21
105.169355
 31
0.0
  0
LINE
  8
DETAIL
  6
CONTINUOUS
 62
     5
 10
-41.981182999999987
 20
102.5725809999999
 30
0.0
 11
-35.922043000000031
 21
102.5725809999999
 31
0.0
  0
LINE
  8
DETAIL
  6
CONTINUOUS
 62
     5
 10
-27.266128999999982
 20
105.169355
 30
0.0
 11
-33.325268999999992
 21
105.169355
 31
0.0
  0
LINE
  8
DETAIL
  6
CONTINUOUS
 62
     5
 10
-33.325268999999992
 20
102.5725809999999
 30
0.0
 11
-27.236838999999971
 21
102.5725809999999
 31
0.0
  0
LINE
  8
DETAIL
  6
CONTINUOUS
 62
     5
 10
-24.669354999999999
 20
102.5725809999999
 30
0.0
 11
-18.580924999999979
 21
102.5725809999999
 31
0.0
  0
LINE
  8
DETAIL
  6
CONTINUOUS
 62
     5
 10
-18.610214999999979
 20
105.169355
 30
0.0
 11
-24.669354999999999
 21
105.169355
 31
0.0
  0
ARC
  8
DETAIL
  6
CONTINUOUS
 62
     5
 10
-67.158733999999981
 20
11.71808399999998
 30
0.0
 40
73.055914000000001
 50
56.903158000000253
 51
57.799303999998187
  0
ARC
  8
DETAIL
  6
CONTINUOUS
 62
     5
 10
-61.565266000000008
 20
-13.522964999999999
 30
0.0
 40
102.48602199999991
 50
65.22027499999939
 51
68.89923899999954
  0
ARC
  8
DETAIL
  6
CONTINUOUS
 62
     5
 10
-61.565266000000008
 20
-13.522964999999999
 30
0.0
 40
102.48602199999991
 50
70.447444999998496
 51
72.354728999998756
  0
ARC
  8
DETAIL
  6
CONTINUOUS
 62
     5
 10
-58.806584999999977
 20
18.486898
 30
0.0
 40
62.322581000000007
 50
38.384478999999438
 51
42.538154000001079
  0
ARC
  8
DETAIL
  6
CONTINUOUS
 62
     5
 10
-58.806584999999977
 20
18.486898
 30
0.0
 40
62.322581000000007
 50
30.85037600000032
 51
34.357905000001303
  0
ARC
  8
DETAIL
  6
CONTINUOUS
 62
     5
 10
0.0
 20
0.0
 30
0.0
 40
141.09139799999991
 50
112.1665759999991
 51
114.85008200000171
  0
LINE
  8
DETAIL
  6
CONTINUOUS
 62
     5
 10
-59.293010999999979
 20
151.47849500000001
 30
0.0
 11
-53.233871000000022
 21
151.47849500000001
 31
0.0
  0
LINE
  8
DETAIL
  6
CONTINUOUS
 62
     5
 10
-59.293010999999979
 20
142.82258100000001
 30
0.0
 11
-53.233871000000022
 21
142.82258100000001
 31
0.0
  0
ARC
  8
DETAIL
  6
CONTINUOUS
 62
     5
 10
0.0
 20
0.0
 30
0.0
 40
141.09139799999991
 50
116.01779699999901
 51
118.7896320000003
  0
ARC
  8
DETAIL
  6
CONTINUOUS
 62
     5
 10
0.0
 20
0.0
 30
0.0
 40
141.09139799999991
 50
119.9999999999996
 51
122.88432900000051
  0
LINE
  8
DETAIL
  6
CONTINUOUS
 62
     5
 10
-67.948925000000031
 20
151.47849500000001
 30
0.0
 11
-61.889785000000018
 21
151.47849500000001
 31
0.0
  0
LINE
  8
DETAIL
  6
CONTINUOUS
 62
     5
 10
-67.948925000000031
 20
142.82258100000001
 30
0.0
 11
-61.889785000000018
 21
142.82258100000001
 31
0.0
  0
ARC
  8
DETAIL
  6
CONTINUOUS
 62
     5
 10
-103.2217739999999
 20
159.4852149999999
 30
0.0
 40
0.6491940000000001
 50
0.0
 51
90.0
  0
ARC
  8
DETAIL
  6
CONTINUOUS
 62
     5
 10
-95.864247999999975
 20
159.4852149999999
 30
0.0
 40
0.6491940000000001
 50
90.0
 51
180.0
  0
LINE
  8
DETAIL
  6
CONTINUOUS
 62
     5
 10
-102.5725809999999
 20
151.47849500000001
 30
0.0
 11
-96.513441
 21
151.47849500000001
 31
0.0
  0
ARC
  8
DETAIL
  6
CONTINUOUS
 62
     5
 10
-95.864247999999975
 20
159.4852149999999
 30
0.0
 40
0.6491940000000001
 50
90.0
 51
180.0
  0
ARC
  8
DETAIL
  6
CONTINUOUS
 62
     5
 10
-94.565859999999986
 20
159.4852149999999
 30
0.0
 40
0.6491940000000001
 50
0.0
 51
90.0
  0
ARC
  8
DETAIL
  6
CONTINUOUS
 62
     5
 10
-87.208333999999979
 20
159.4852149999999
 30
0.0
 40
0.6491940000000001
 50
90.0
 51
180.0
  0
LINE
  8
DETAIL
  6
CONTINUOUS
 62
     5
 10
-93.916667000000018
 20
151.47849500000001
 30
0.0
 11
-87.857527000000005
 21
151.47849500000001
 31
0.0
  0
ARC
  8
DETAIL
  6
CONTINUOUS
 62
     5
 10
-87.208333999999979
 20
159.4852149999999
 30
0.0
 40
0.6491940000000001
 50
90.0
 51
180.0
  0
ARC
  8
DETAIL
  6
CONTINUOUS
 62
     5
 10
-85.909945999999991
 20
159.4852149999999
 30
0.0
 40
0.6491940000000001
 50
0.0
 51
90.0
  0
ARC
  8
DETAIL
  6
CONTINUOUS
 62
     5
 10
-78.552419999999984
 20
159.4852149999999
 30
0.0
 40
0.6491940000000001
 50
90.0
 51
180.0
  0
LINE
  8
DETAIL
  6
CONTINUOUS
 62
     5
 10
-85.260752999999966
 20
151.47849500000001
 30
0.0
 11
-79.201612999999952
 21
151.47849500000001
 31
0.0
  0
ARC
  8
DETAIL
  6
CONTINUOUS
 62
     5
 10
-78.552419999999984
 20
159.4852149999999
 30
0.0
 40
0.6491940000000001
 50
90.0
 51
180.0
  0
ARC
  8
DETAIL
  6
CONTINUOUS
 62
     5
 10
-77.254031999999995
 20
159.4852149999999
 30
0.0
 40
0.6491940000000001
 50
0.0
 51
90.0
  0
ARC
  8
DETAIL
  6
CONTINUOUS
 62
     5
 10
-69.896505999999988
 20
159.4852149999999
 30
0.0
 40
0.6491940000000001
 50
90.0
 51
180.0
  0
LINE
  8
DETAIL
  6
CONTINUOUS
 62
     5
 10
-76.60483899999997
 20
151.47849500000001
 30
0.0
 11
-70.545699000000013
 21
151.47849500000001
 31
0.0
  0
ARC
  8
DETAIL
  6
CONTINUOUS
 62
     5
 10
-69.896505999999988
 20
159.4852149999999
 30
0.0
 40
0.6491940000000001
 50
90.0
 51
180.0
  0
ARC
  8
DETAIL
  6
CONTINUOUS
 62
     5
 10
-68.598117999999999
 20
159.4852149999999
 30
0.0
 40
0.6491940000000001
 50
0.0
 51
90.0
  0
ARC
  8
DETAIL
  6
CONTINUOUS
 62
     5
 10
-86.559140000000014
 20
149.74731199999991
 30
0.0
 40
1.947581
 50
311.81031499999932
 51
48.189685000000651
  0
LINE
  8
DETAIL
  6
CONTINUOUS
 62
     5
 10
-102.5725809999999
 20
142.82258100000001
 30
0.0
 11
-96.513441
 21
142.82258100000001
 31
0.0
  0
LINE
  8
DETAIL
  6
CONTINUOUS
 62
     5
 10
-93.916667000000018
 20
142.82258100000001
 30
0.0
 11
-87.857527000000005
 21
142.82258100000001
 31
0.0
  0
LINE
  8
DETAIL
  6
CONTINUOUS
 62
     5
 10
-85.260752999999966
 20
142.82258100000001
 30
0.0
 11
-79.201612999999952
 21
142.82258100000001
 31
0.0
  0
LINE
  8
DETAIL
  6
CONTINUOUS
 62
     5
 10
-76.60483899999997
 20
142.82258100000001
 30
0.0
 11
-70.545699000000013
 21
142.82258100000001
 31
0.0
  0
ARC
  8
DETAIL
  6
CONTINUOUS
 62
     5
 10
-86.559140000000014
 20
149.74731199999991
 30
0.0
 40
1.947581
 50
131.81031499999929
 51
228.18968500000059
  0
ARC
  8
DETAIL
  6
CONTINUOUS
 62
     5
 10
-61.240591999999992
 20
159.4852149999999
 30
0.0
 40
0.6491940000000001
 50
90.0
 51
180.0
  0
ARC
  8
DETAIL
  6
CONTINUOUS
 62
     5
 10
-61.240591999999992
 20
159.4852149999999
 30
0.0
 40
0.6491940000000001
 50
90.0
 51
180.0
  0
ARC
  8
DETAIL
  6
CONTINUOUS
 62
     5
 10
-59.942203999999997
 20
159.4852149999999
 30
0.0
 40
0.6491940000000001
 50
0.0
 51
90.0
  0
ARC
  8
DETAIL
  6
CONTINUOUS
 62
     5
 10
0.0
 20
0.0
 30
0.0
 40
115.989248
 50
94.923230999998992
 51
97.935585000001225
  0
ARC
  8
DETAIL
  6
CONTINUOUS
 62
     5
 10
0.0
 20
0.0
 30
0.0
 40
141.09139799999991
 50
94.045701000000804
 51
96.516937999999101
  0
ARC
  8
DETAIL
  6
CONTINUOUS
 62
     5
 10
0.0
 20
0.0
 30
0.0
 40
112.526882
 50
95.075106999999875
 51
98.181404999999131
  0
ARC
  8
DETAIL
  6
CONTINUOUS
 62
     5
 10
0.0
 20
0.0
 30
0.0
 40
115.989248
 50
99.23288699999982
 51
102.2798389999987
  0
ARC
  8
DETAIL
  6
CONTINUOUS
 62
     5
 10
0.0
 20
0.0
 30
0.0
 40
115.989248
 50
103.59602199999929
 51
106.6971829999994
  0
ARC
  8
DETAIL
  6
CONTINUOUS
 62
     5
 10
0.0
 20
0.0
 30
0.0
 40
141.09139799999991
 50
108.4182300000007
 51
111.0323930000004
  0
ARC
  8
DETAIL
  6
CONTINUOUS
 62
     5
 10
0.0
 20
0.0
 30
0.0
 40
141.09139799999991
 50
104.7499569999995
 51
107.3102700000004
  0
ARC
  8
DETAIL
  6
CONTINUOUS
 62
     5
 10
0.0
 20
0.0
 30
0.0
 40
141.09139799999991
 50
101.14260100000089
 51
103.66215200000011
  0
ARC
  8
DETAIL
  6
CONTINUOUS
 62
     5
 10
0.0
 20
0.0
 30
0.0
 40
141.09139799999991
 50
97.579506000000407
 51
100.0697329999992
  0
ARC
  8
DETAIL
  6
CONTINUOUS
 62
     5
 10
0.0
 20
0.0
 30
0.0
 40
112.526882
 50
99.519577999999598
 51
102.66385600000039
  0
LINE
  8
DETAIL
  6
CONTINUOUS
 62
     5
 10
-16.013441
 20
151.47849500000001
 30
0.0
 11
-9.9543009999999867
 21
151.47849500000001
 31
0.0
  0
LINE
  8
DETAIL
  6
CONTINUOUS
 62
     5
 10
-16.013441
 20
142.82258100000001
 30
0.0
 11
-9.9543009999999867
 21
142.82258100000001
 31
0.0
  0
ARC
  8
DETAIL
  6
CONTINUOUS
 62
     5
 10
-52.584677999999997
 20
159.4852149999999
 30
0.0
 40
0.6491940000000001
 50
90.0
 51
180.0
  0
ARC
  8
DETAIL
  6
CONTINUOUS
 62
     5
 10
-52.584677999999997
 20
159.4852149999999
 30
0.0
 40
0.6491940000000001
 50
90.0
 51
180.0
  0
ARC
  8
DETAIL
  6
CONTINUOUS
 62
     5
 10
-51.286290000000008
 20
159.4852149999999
 30
0.0
 40
0.6491940000000001
 50
0.0
 51
90.0
  0
ARC
  8
DETAIL
  6
CONTINUOUS
 62
     5
 10
-43.928764000000001
 20
159.4852149999999
 30
0.0
 40
0.6491940000000001
 50
90.0
 51
180.0
  0
LINE
  8
DETAIL
  6
CONTINUOUS
 62
     5
 10
-50.637096999999983
 20
151.47849500000001
 30
0.0
 11
-44.577956999999969
 21
151.47849500000001
 31
0.0
  0
ARC
  8
DETAIL
  6
CONTINUOUS
 62
     5
 10
-43.928764000000001
 20
159.4852149999999
 30
0.0
 40
0.6491940000000001
 50
90.0
 51
180.0
  0
ARC
  8
DETAIL
  6
CONTINUOUS
 62
     5
 10
-42.630376000000012
 20
159.4852149999999
 30
0.0
 40
0.6491940000000001
 50
0.0
 51
90.0
  0
ARC
  8
DETAIL
  6
CONTINUOUS
 62
     5
 10
-35.272850000000012
 20
159.4852149999999
 30
0.0
 40
0.6491940000000001
 50
90.0
 51
180.0
  0
LINE
  8
DETAIL
  6
CONTINUOUS
 62
     5
 10
-41.981182999999987
 20
151.47849500000001
 30
0.0
 11
-35.922043000000031
 21
151.47849500000001
 31
0.0
  0
ARC
  8
DETAIL
  6
CONTINUOUS
 62
     5
 10
-35.272850000000012
 20
159.4852149999999
 30
0.0
 40
0.6491940000000001
 50
90.0
 51
180.0
  0
ARC
  8
DETAIL
  6
CONTINUOUS
 62
     5
 10
-33.974462000000017
 20
159.4852149999999
 30
0.0
 40
0.6491940000000001
 50
0.0
 51
90.0
  0
ARC
  8
DETAIL
  6
CONTINUOUS
 62
     5
 10
-26.61693600000001
 20
159.4852149999999
 30
0.0
 40
0.6491940000000001
 50
90.0
 51
180.0
  0
LINE
  8
DETAIL
  6
CONTINUOUS
 62
     5
 10
-33.325268999999992
 20
151.47849500000001
 30
0.0
 11
-27.266128999999982
 21
151.47849500000001
 31
0.0
  0
ARC
  8
DETAIL
  6
CONTINUOUS
 62
     5
 10
-26.61693600000001
 20
159.4852149999999
 30
0.0
 40
0.6491940000000001
 50
90.0
 51
180.0
  0
ARC
  8
DETAIL
  6
CONTINUOUS
 62
     5
 10
-25.318548000000021
 20
159.4852149999999
 30
0.0
 40
0.6491940000000001
 50
0.0
 51
90.0
  0
ARC
  8
DETAIL
  6
CONTINUOUS
 62
     5
 10
-17.96102200000001
 20
159.4852149999999
 30
0.0
 40
0.6491940000000001
 50
90.0
 51
180.0
  0
LINE
  8
DETAIL
  6
CONTINUOUS
 62
     5
 10
-24.669354999999999
 20
151.47849500000001
 30
0.0
 11
-18.610214999999979
 21
151.47849500000001
 31
0.0
  0
ARC
  8
DETAIL
  6
CONTINUOUS
 62
     5
 10
-17.96102200000001
 20
159.4852149999999
 30
0.0
 40
0.6491940000000001
 50
90.0
 51
180.0
  0
ARC
  8
DETAIL
  6
CONTINUOUS
 62
     5
 10
-16.662634000000029
 20
159.4852149999999
 30
0.0
 40
0.6491940000000001
 50
0.0
 51
90.0
  0
LINE
  8
DETAIL
  6
CONTINUOUS
 62
     5
 10
-50.637096999999983
 20
142.82258100000001
 30
0.0
 11
-44.577956999999969
 21
142.82258100000001
 31
0.0
  0
LINE
  8
DETAIL
  6
CONTINUOUS
 62
     5
 10
-41.981182999999987
 20
142.82258100000001
 30
0.0
 11
-35.922043000000031
 21
142.82258100000001
 31
0.0
  0
LINE
  8
DETAIL
  6
CONTINUOUS
 62
     5
 10
-33.325268999999992
 20
142.82258100000001
 30
0.0
 11
-27.266128999999982
 21
142.82258100000001
 31
0.0
  0
LINE
  8
DETAIL
  6
CONTINUOUS
 62
     5
 10
-24.669354999999999
 20
142.82258100000001
 30
0.0
 11
-18.610214999999979
 21
142.82258100000001
 31
0.0
  0
ARC
  8
DETAIL
  6
CONTINUOUS
 62
     5
 10
-9.3051080000000184
 20
159.4852149999999
 30
0.0
 40
0.6491940000000001
 50
90.0
 51
180.0
  0
ARC
  8
DETAIL
  6
CONTINUOUS
 62
     5
 10
-9.3051080000000184
 20
159.4852149999999
 30
0.0
 40
0.6491940000000001
 50
90.0
 51
180.0
  0
ARC
  8
DETAIL
  6
CONTINUOUS
 62
     5
 10
-8.006719999999973
 20
159.4852149999999
 30
0.0
 40
0.6491940000000001
 50
0.0
 51
90.0
  0
LINE
  8
DETAIL
  6
CONTINUOUS
 62
     5
 10
128.540323
 20
160.13440899999961
 30
0.0
 11
128.540323
 21
-142.75749899999991
 31
0.0
  0
LINE
  8
DETAIL
  6
CONTINUOUS
 62
     5
 10
-1.2983869999999911
 20
159.4852149999999
 30
0.0
 11
-1.2983869999999911
 21
-148.4446879999999
 31
0.0
  0
LINE
  8
DETAIL
  6
CONTINUOUS
 62
     5
 10
-1.2983869999999911
 20
159.4852149999999
 30
0.0
 11
-1.2983869999999911
 21
-148.4446879999999
 31
0.0
  0
LINE
  8
DETAIL
  6
CONTINUOUS
 62
     5
 10
1.2983869999999911
 20
159.4852149999999
 30
0.0
 11
1.2983869999999911
 21
-148.4446879999999
 31
0.0
  0
LINE
  8
DETAIL
  6
CONTINUOUS
 62
     5
 10
7.3575270000000046
 20
159.4852149999999
 30
0.0
 11
7.3575270000000046
 21
-148.4446879999999
 31
0.0
  0
LINE
  8
DETAIL
  6
CONTINUOUS
 62
     5
 10
7.3575270000000046
 20
159.4852149999999
 30
0.0
 11
7.3575270000000046
 21
-148.4446879999999
 31
0.0
  0
LINE
  8
DETAIL
  6
CONTINUOUS
 62
     5
 10
9.9543009999999867
 20
159.4852149999999
 30
0.0
 11
9.9543009999999867
 21
-148.4446879999999
 31
0.0
  0
LINE
  8
DETAIL
  6
CONTINUOUS
 62
     5
 10
16.013441
 20
159.4852149999999
 30
0.0
 11
16.013441
 21
-148.4446879999999
 31
0.0
  0
LINE
  8
DETAIL
  6
CONTINUOUS
 62
     5
 10
16.013441
 20
159.4852149999999
 30
0.0
 11
16.013441
 21
-148.4446879999999
 31
0.0
  0
LINE
  8
DETAIL
  6
CONTINUOUS
 62
     5
 10
18.610214999999979
 20
159.4852149999999
 30
0.0
 11
18.610214999999979
 21
-148.4446879999999
 31
0.0
  0
LINE
  8
DETAIL
  6
CONTINUOUS
 62
     5
 10
24.669354999999999
 20
159.4852149999999
 30
0.0
 11
24.669354999999999
 21
-148.4446879999999
 31
0.0
  0
LINE
  8
DETAIL
  6
CONTINUOUS
 62
     5
 10
24.669354999999999
 20
159.4852149999999
 30
0.0
 11
24.669354999999999
 21
-148.4446879999999
 31
0.0
  0
LINE
  8
DETAIL
  6
CONTINUOUS
 62
     5
 10
27.266128999999982
 20
159.4852149999999
 30
0.0
 11
27.266128999999982
 21
-148.4446879999999
 31
0.0
  0
LINE
  8
DETAIL
  6
CONTINUOUS
 62
     5
 10
33.325268999999992
 20
159.4852149999999
 30
0.0
 11
33.325268999999992
 21
-148.4446879999999
 31
0.0
  0
LINE
  8
DETAIL
  6
CONTINUOUS
 62
     5
 10
33.325268999999992
 20
159.4852149999999
 30
0.0
 11
33.325268999999992
 21
-148.4446879999999
 31
0.0
  0
LINE
  8
DETAIL
  6
CONTINUOUS
 62
     5
 10
35.922043000000031
 20
159.4852149999999
 30
0.0
 11
35.922043000000031
 21
-148.4446879999999
 31
0.0
  0
LINE
  8
DETAIL
  6
CONTINUOUS
 62
     5
 10
41.981182999999987
 20
159.4852149999999
 30
0.0
 11
41.981182999999987
 21
-148.4446879999999
 31
0.0
  0
LINE
  8
DETAIL
  6
CONTINUOUS
 62
     5
 10
41.981182999999987
 20
159.4852149999999
 30
0.0
 11
41.981182999999987
 21
-148.4446879999999
 31
0.0
  0
LINE
  8
DETAIL
  6
CONTINUOUS
 62
     5
 10
44.577956999999969
 20
159.4852149999999
 30
0.0
 11
44.577956999999969
 21
-148.4446879999999
 31
0.0
  0
LINE
  8
DETAIL
  6
CONTINUOUS
 62
     5
 10
50.637096999999983
 20
159.4852149999999
 30
0.0
 11
50.637096999999983
 21
-148.4446879999999
 31
0.0
  0
LINE
  8
DETAIL
  6
CONTINUOUS
 62
     5
 10
50.637096999999983
 20
159.4852149999999
 30
0.0
 11
50.637096999999983
 21
-148.4446879999999
 31
0.0
  0
LINE
  8
DETAIL
  6
CONTINUOUS
 62
     5
 10
53.233871000000022
 20
159.4852149999999
 30
0.0
 11
53.233871000000022
 21
-148.4446879999999
 31
0.0
  0
LINE
  8
DETAIL
  6
CONTINUOUS
 62
     5
 10
59.293010999999979
 20
159.4852149999999
 30
0.0
 11
59.293010999999979
 21
-148.4446879999999
 31
0.0
  0
LINE
  8
DETAIL
  6
CONTINUOUS
 62
     5
 10
59.293010999999979
 20
159.4852149999999
 30
0.0
 11
59.293010999999979
 21
-148.4446879999999
 31
0.0
  0
LINE
  8
DETAIL
  6
CONTINUOUS
 62
     5
 10
61.889785000000018
 20
159.4852149999999
 30
0.0
 11
61.889785000000018
 21
-148.4446879999999
 31
0.0
  0
LINE
  8
DETAIL
  6
CONTINUOUS
 62
     5
 10
67.948925000000031
 20
159.4852149999999
 30
0.0
 11
67.948925000000031
 21
-148.4446879999999
 31
0.0
  0
LINE
  8
DETAIL
  6
CONTINUOUS
 62
     5
 10
67.948925000000031
 20
159.4852149999999
 30
0.0
 11
67.948925000000031
 21
-148.4446879999999
 31
0.0
  0
LINE
  8
DETAIL
  6
CONTINUOUS
 62
     5
 10
70.545699000000013
 20
159.4852149999999
 30
0.0
 11
70.545699000000013
 21
-148.4446879999999
 31
0.0
  0
LINE
  8
DETAIL
  6
CONTINUOUS
 62
     5
 10
76.60483899999997
 20
159.4852149999999
 30
0.0
 11
76.60483899999997
 21
-148.4446879999999
 31
0.0
  0
LINE
  8
DETAIL
  6
CONTINUOUS
 62
     5
 10
76.60483899999997
 20
159.4852149999999
 30
0.0
 11
76.60483899999997
 21
-148.4446879999999
 31
0.0
  0
LINE
  8
DETAIL
  6
CONTINUOUS
 62
     5
 10
79.201612999999952
 20
159.4852149999999
 30
0.0
 11
79.201612999999952
 21
-148.4446879999999
 31
0.0
  0
LINE
  8
DETAIL
  6
CONTINUOUS
 62
     5
 10
85.260752999999966
 20
159.4852149999999
 30
0.0
 11
85.260752999999966
 21
-148.4446879999999
 31
0.0
  0
LINE
  8
DETAIL
  6
CONTINUOUS
 62
     5
 10
85.260752999999966
 20
159.4852149999999
 30
0.0
 11
85.260752999999966
 21
-148.4446879999999
 31
0.0
  0
LINE
  8
DETAIL
  6
CONTINUOUS
 62
     5
 10
87.857527000000005
 20
159.4852149999999
 30
0.0
 11
87.857527000000005
 21
-148.4446879999999
 31
0.0
  0
LINE
  8
DETAIL
  6
CONTINUOUS
 62
     5
 10
93.916667000000018
 20
159.4852149999999
 30
0.0
 11
93.916667000000018
 21
-148.4446879999999
 31
0.0
  0
LINE
  8
DETAIL
  6
CONTINUOUS
 62
     5
 10
93.916667000000018
 20
159.4852149999999
 30
0.0
 11
93.916667000000018
 21
-148.4446879999999
 31
0.0
  0
LINE
  8
DETAIL
  6
CONTINUOUS
 62
     5
 10
96.513441
 20
159.4852149999999
 30
0.0
 11
96.513441
 21
-148.4446879999999
 31
0.0
  0
LINE
  8
DETAIL
  6
CONTINUOUS
 62
     5
 10
102.5725809999999
 20
159.4852149999999
 30
0.0
 11
102.5725809999999
 21
-148.4446879999999
 31
0.0
  0
LINE
  8
DETAIL
  6
CONTINUOUS
 62
     5
 10
102.5725809999999
 20
159.4852149999999
 30
0.0
 11
102.5725809999999
 21
-148.4446879999999
 31
0.0
  0
LINE
  8
DETAIL
  6
CONTINUOUS
 62
     5
 10
105.169355
 20
159.4852149999999
 30
0.0
 11
105.169355
 21
-148.4446879999999
 31
0.0
  0
LINE
  8
DETAIL
  6
CONTINUOUS
 62
     5
 10
111.228495
 20
159.4852149999999
 30
0.0
 11
111.228495
 21
-148.4446879999999
 31
0.0
  0
LINE
  8
DETAIL
  6
CONTINUOUS
 62
     5
 10
111.228495
 20
159.4852149999999
 30
0.0
 11
111.228495
 21
-148.4446879999999
 31
0.0
  0
LINE
  8
DETAIL
  6
CONTINUOUS
 62
     5
 10
113.82526899999991
 20
159.4852149999999
 30
0.0
 11
113.82526899999991
 21
-22.30053100000001
 31
0.0
  0
LINE
  8
DETAIL
  6
CONTINUOUS
 62
     5
 10
119.88440900000001
 20
159.4852149999999
 30
0.0
 11
119.88440900000001
 21
-148.4446879999999
 31
0.0
  0
LINE
  8
DETAIL
  6
CONTINUOUS
 62
     5
 10
119.88440900000001
 20
159.4852149999999
 30
0.0
 11
119.88440900000001
 21
-148.4446879999999
 31
0.0
  0
LINE
  8
DETAIL
  6
CONTINUOUS
 62
     5
 10
122.4811829999999
 20
159.4852149999999
 30
0.0
 11
122.4811829999999
 21
-148.4446879999999
 31
0.0
  0
ARC
  8
DETAIL
  6
CONTINUOUS
 62
     5
 10
-12.98387100000002
 20
22.488723999999991
 30
0.0
 40
47.607526999999997
 50
13.41201199999969
 51
32.279331000001292
  0
ARC
  8
DETAIL
  6
CONTINUOUS
 62
     5
 10
0.0
 20
0.0
 30
0.0
 40
115.989248
 50
16.472644999999591
 51
24.94454300000044
  0
ARC
  8
DETAIL
  6
CONTINUOUS
 62
     5
 10
0.0
 20
0.0
 30
0.0
 40
112.526882
 50
10.870919999999829
 51
20.833903999999681
  0
LINE
  8
DETAIL
  6
CONTINUOUS
 62
     5
 10
113.82526899999991
 20
-22.30053100000001
 30
0.0
 11
113.82526899999991
 21
-148.4446879999999
 31
0.0
  0
ARC
  8
DETAIL
  6
CONTINUOUS
 62
     5
 10
97.811827999999991
 20
-148.4446879999999
 30
0.0
 40
1.298387
 50
180.0
 51
270.0
  0
ARC
  8
DETAIL
  6
CONTINUOUS
 62
     5
 10
97.811827999999991
 20
-147.13828000000001
 30
0.0
 40
1.298387
 50
180.0
 51
270.0
  0
LINE
  8
DETAIL
  6
CONTINUOUS
 62
     5
 10
102.5725809999999
 20
-105.169355
 30
0.0
 11
96.513441
 21
-105.169355
 31
0.0
  0
LINE
  8
DETAIL
  6
CONTINUOUS
 62
     5
 10
96.513441
 20
-142.82258100000001
 30
0.0
 11
102.5725809999999
 21
-142.82258100000001
 31
0.0
  0
LINE
  8
DETAIL
  6
CONTINUOUS
 62
     5
 10
45.876344000000017
 20
-149.743075
 30
0.0
 11
49.338709999999992
 21
-149.743075
 31
0.0
  0
LINE
  8
DETAIL
  6
CONTINUOUS
 62
     5
 10
45.876344000000017
 20
-148.4366669999998
 30
0.0
 11
49.338709999999992
 21
-148.4366669999998
 31
0.0
  0
LINE
  8
DETAIL
  6
CONTINUOUS
 62
     5
 10
50.637096999999983
 20
-105.169355
 30
0.0
 11
44.577956999999969
 21
-105.169355
 31
0.0
  0
ARC
  8
DETAIL
  6
CONTINUOUS
 62
     5
 10
0.0
 20
0.0
 30
0.0
 40
141.09139799999991
 50
288.41823000000068
 51
291.03239300000041
  0
ARC
  8
DETAIL
  6
CONTINUOUS
 62
     5
 10
0.0
 20
0.0
 30
0.0
 40
115.989248
 50
292.60205000000047
 51
294.94454300000052
  0
LINE
  8
DETAIL
  6
CONTINUOUS
 62
     5
 10
44.577956999999969
 20
-142.82258100000001
 30
0.0
 11
50.637096999999983
 21
-142.82258100000001
 31
0.0
  0
ARC
  8
DETAIL
  6
CONTINUOUS
 62
     5
 10
37.220430000000022
 20
-148.4446879999999
 30
0.0
 40
1.298387
 50
180.0
 51
270.0
  0
ARC
  8
DETAIL
  6
CONTINUOUS
 62
     5
 10
37.220430000000022
 20
-147.13828000000001
 30
0.0
 40
1.298387
 50
180.0
 51
270.0
  0
ARC
  8
DETAIL
  6
CONTINUOUS
 62
     5
 10
-2.5967739999999822
 20
-148.4446879999999
 30
0.0
 40
1.298387
 50
270.0
 51
0.0
  0
ARC
  8
DETAIL
  6
CONTINUOUS
 62
     5
 10
-2.5967739999999822
 20
-147.13828000000001
 30
0.0
 40
1.298387
 50
270.0
 51
0.0
  0
ARC
  8
DETAIL
  6
CONTINUOUS
 62
     5
 10
2.5967739999999822
 20
-148.4446879999999
 30
0.0
 40
1.298387
 50
180.0
 51
270.0
  0
LINE
  8
DETAIL
  6
CONTINUOUS
 62
     5
 10
2.5967739999999822
 20
-149.743075
 30
0.0
 11
6.0591400000000144
 21
-149.743075
 31
0.0
  0
ARC
  8
DETAIL
  6
CONTINUOUS
 62
     5
 10
2.5967739999999822
 20
-147.13828000000001
 30
0.0
 40
1.298387
 50
180.0
 51
270.0
  0
LINE
  8
DETAIL
  6
CONTINUOUS
 62
     5
 10
2.5967739999999822
 20
-148.4366669999998
 30
0.0
 11
6.0591400000000144
 21
-148.4366669999998
 31
0.0
  0
ARC
  8
DETAIL
  6
CONTINUOUS
 62
     5
 10
6.0591400000000144
 20
-148.4446879999999
 30
0.0
 40
1.298387
 50
270.0
 51
0.0
  0
ARC
  8
DETAIL
  6
CONTINUOUS
 62
     5
 10
6.0591400000000144
 20
-147.13828000000001
 30
0.0
 40
1.298387
 50
270.0
 51
0.0
  0
ARC
  8
DETAIL
  6
CONTINUOUS
 62
     5
 10
11.25268799999998
 20
-148.4446879999999
 30
0.0
 40
1.298387
 50
180.0
 51
270.0
  0
LINE
  8
DETAIL
  6
CONTINUOUS
 62
     5
 10
11.25268799999998
 20
-149.743075
 30
0.0
 11
14.715054000000009
 21
-149.743075
 31
0.0
  0
ARC
  8
DETAIL
  6
CONTINUOUS
 62
     5
 10
11.25268799999998
 20
-147.13828000000001
 30
0.0
 40
1.298387
 50
180.0
 51
270.0
  0
LINE
  8
DETAIL
  6
CONTINUOUS
 62
     5
 10
11.25268799999998
 20
-148.4366669999998
 30
0.0
 11
14.715054000000009
 21
-148.4366669999998
 31
0.0
  0
ARC
  8
DETAIL
  6
CONTINUOUS
 62
     5
 10
14.715054000000009
 20
-148.4446879999999
 30
0.0
 40
1.298387
 50
270.0
 51
0.0
  0
ARC
  8
DETAIL
  6
CONTINUOUS
 62
     5
 10
14.715054000000009
 20
-147.13828000000001
 30
0.0
 40
1.298387
 50
270.0
 51
0.0
  0
ARC
  8
DETAIL
  6
CONTINUOUS
 62
     5
 10
19.90860199999997
 20
-148.4446879999999
 30
0.0
 40
1.298387
 50
180.0
 51
270.0
  0
LINE
  8
DETAIL
  6
CONTINUOUS
 62
     5
 10
19.90860199999997
 20
-149.743075
 30
0.0
 11
23.370968000000001
 21
-149.743075
 31
0.0
  0
ARC
  8
DETAIL
  6
CONTINUOUS
 62
     5
 10
19.90860199999997
 20
-147.13828000000001
 30
0.0
 40
1.298387
 50
180.0
 51
270.0
  0
LINE
  8
DETAIL
  6
CONTINUOUS
 62
     5
 10
19.90860199999997
 20
-148.4366669999998
 30
0.0
 11
23.370968000000001
 21
-148.4366669999998
 31
0.0
  0
ARC
  8
DETAIL
  6
CONTINUOUS
 62
     5
 10
23.370968000000001
 20
-148.4446879999999
 30
0.0
 40
1.298387
 50
270.0
 51
0.0
  0
ARC
  8
DETAIL
  6
CONTINUOUS
 62
     5
 10
23.370968000000001
 20
-147.13828000000001
 30
0.0
 40
1.298387
 50
270.0
 51
0.0
  0
ARC
  8
DETAIL
  6
CONTINUOUS
 62
     5
 10
28.564515999999969
 20
-148.4446879999999
 30
0.0
 40
1.298387
 50
180.0
 51
270.0
  0
LINE
  8
DETAIL
  6
CONTINUOUS
 62
     5
 10
28.564515999999969
 20
-149.743075
 30
0.0
 11
32.026882000000001
 21
-149.743075
 31
0.0
  0
ARC
  8
DETAIL
  6
CONTINUOUS
 62
     5
 10
28.564515999999969
 20
-147.13828000000001
 30
0.0
 40
1.298387
 50
180.0
 51
270.0
  0
LINE
  8
DETAIL
  6
CONTINUOUS
 62
     5
 10
28.564515999999969
 20
-148.4366669999998
 30
0.0
 11
32.026882000000001
 21
-148.4366669999998
 31
0.0
  0
ARC
  8
DETAIL
  6
CONTINUOUS
 62
     5
 10
32.026882000000001
 20
-148.4446879999999
 30
0.0
 40
1.298387
 50
270.0
 51
0.0
  0
ARC
  8
DETAIL
  6
CONTINUOUS
 62
     5
 10
32.026882000000001
 20
-147.13828000000001
 30
0.0
 40
1.298387
 50
270.0
 51
0.0
  0
LINE
  8
DETAIL
  6
CONTINUOUS
 62
     5
 10
37.220430000000022
 20
-149.743075
 30
0.0
 11
40.682796000000003
 21
-149.743075
 31
0.0
  0
LINE
  8
DETAIL
  6
CONTINUOUS
 62
     5
 10
37.220430000000022
 20
-148.4366669999998
 30
0.0
 11
40.682796000000003
 21
-148.4366669999998
 31
0.0
  0
ARC
  8
DETAIL
  6
CONTINUOUS
 62
     5
 10
40.682796000000003
 20
-148.4446879999999
 30
0.0
 40
1.298387
 50
270.0
 51
0.0
  0
ARC
  8
DETAIL
  6
CONTINUOUS
 62
     5
 10
40.682796000000003
 20
-147.13828000000001
 30
0.0
 40
1.298387
 50
270.0
 51
0.0
  0
ARC
  8
DETAIL
  6
CONTINUOUS
 62
     5
 10
45.876344000000017
 20
-148.4446879999999
 30
0.0
 40
1.298387
 50
180.0
 51
270.0
  0
ARC
  8
DETAIL
  6
CONTINUOUS
 62
     5
 10
45.876344000000017
 20
-147.13828000000001
 30
0.0
 40
1.298387
 50
180.0
 51
270.0
  0
LINE
  8
DETAIL
  6
CONTINUOUS
 62
     5
 10
41.981182999999987
 20
-105.169355
 30
0.0
 11
35.922043000000031
 21
-105.169355
 31
0.0
  0
ARC
  8
DETAIL
  6
CONTINUOUS
 62
     5
 10
0.0
 20
0.0
 30
0.0
 40
141.09139799999991
 50
284.74995699999948
 51
287.3102700000004
  0
ARC
  8
DETAIL
  6
CONTINUOUS
 62
     5
 10
0.0
 20
0.0
 30
0.0
 40
115.989248
 50
288.0412419999999
 51
291.21940399999932
  0
ARC
  8
DETAIL
  6
CONTINUOUS
 62
     5
 10
0.0
 20
0.0
 30
0.0
 40
112.526882
 50
288.61641099999838
 51
290.83390399999882
  0
LINE
  8
DETAIL
  6
CONTINUOUS
 62
     5
 10
35.922043000000031
 20
-142.82258100000001
 30
0.0
 11
41.981182999999987
 21
-142.82258100000001
 31
0.0
  0
LINE
  8
DETAIL
  6
CONTINUOUS
 62
     5
 10
7.3575270000000046
 20
-105.169355
 30
0.0
 11
1.2983869999999911
 21
-105.169355
 31
0.0
  0
LINE
  8
DETAIL
  6
CONTINUOUS
 62
     5
 10
16.013441
 20
-105.169355
 30
0.0
 11
9.9543009999999867
 21
-105.169355
 31
0.0
  0
LINE
  8
DETAIL
  6
CONTINUOUS
 62
     5
 10
24.669354999999999
 20
-105.169355
 30
0.0
 11
18.610214999999979
 21
-105.169355
 31
0.0
  0
LINE
  8
DETAIL
  6
CONTINUOUS
 62
     5
 10
33.325268999999992
 20
-105.169355
 30
0.0
 11
27.266128999999982
 21
-105.169355
 31
0.0
  0
ARC
  8
DETAIL
  6
CONTINUOUS
 62
     5
 10
0.0
 20
0.0
 30
0.0
 40
141.09139799999991
 50
281.14260100000081
 51
283.66215200000011
  0
ARC
  8
DETAIL
  6
CONTINUOUS
 62
     5
 10
0.0
 20
0.0
 30
0.0
 40
141.09139799999991
 50
277.57950600000038
 51
280.06973299999919
  0
ARC
  8
DETAIL
  6
CONTINUOUS
 62
     5
 10
0.0
 20
0.0
 30
0.0
 40
141.09139799999991
 50
274.0457010000008
 51
276.51693799999907
  0
ARC
  8
DETAIL
  6
CONTINUOUS
 62
     5
 10
0.0
 20
0.0
 30
0.0
 40
141.09139799999991
 50
270.52726900000039
 51
272.9891729999996
  0
ARC
  8
DETAIL
  6
CONTINUOUS
 62
     5
 10
0.0
 20
0.0
 30
0.0
 40
115.989248
 50
270.64138399999911
 51
273.63687600000088
  0
ARC
  8
DETAIL
  6
CONTINUOUS
 62
     5
 10
0.0
 20
0.0
 30
0.0
 40
115.989248
 50
274.92323099999902
 51
277.93558500000131
  0
ARC
  8
DETAIL
  6
CONTINUOUS
 62
     5
 10
0.0
 20
0.0
 30
0.0
 40
115.989248
 50
279.23288699999978
 51
282.27983899999867
  0
ARC
  8
DETAIL
  6
CONTINUOUS
 62
     5
 10
0.0
 20
0.0
 30
0.0
 40
115.989248
 50
283.59602199999932
 51
286.69718299999943
  0
ARC
  8
DETAIL
  6
CONTINUOUS
 62
     5
 10
0.0
 20
0.0
 30
0.0
 40
112.526882
 50
270.66112000000112
 51
273.74893699999848
  0
ARC
  8
DETAIL
  6
CONTINUOUS
 62
     5
 10
0.0
 20
0.0
 30
0.0
 40
112.526882
 50
275.07510699999978
 51
278.18140499999907
  0
ARC
  8
DETAIL
  6
CONTINUOUS
 62
     5
 10
0.0
 20
0.0
 30
0.0
 40
112.526882
 50
279.51957799999963
 51
282.66385600000041
  0
ARC
  8
DETAIL
  6
CONTINUOUS
 62
     5
 10
0.0
 20
0.0
 30
0.0
 40
112.526882
 50
284.02278199999847
 51
287.2267400000012
  0
LINE
  8
DETAIL
  6
CONTINUOUS
 62
     5
 10
1.2983869999999911
 20
-142.82258100000001
 30
0.0
 11
7.3575270000000046
 21
-142.82258100000001
 31
0.0
  0
LINE
  8
DETAIL
  6
CONTINUOUS
 62
     5
 10
9.9543009999999867
 20
-142.82258100000001
 30
0.0
 11
16.013441
 21
-142.82258100000001
 31
0.0
  0
LINE
  8
DETAIL
  6
CONTINUOUS
 62
     5
 10
18.610214999999979
 20
-142.82258100000001
 30
0.0
 11
24.669354999999999
 21
-142.82258100000001
 31
0.0
  0
LINE
  8
DETAIL
  6
CONTINUOUS
 62
     5
 10
27.266128999999982
 20
-142.82258100000001
 30
0.0
 11
33.325268999999992
 21
-142.82258100000001
 31
0.0
  0
LINE
  8
DETAIL
  6
CONTINUOUS
 62
     5
 10
36.354864999999961
 20
-106.492361
 30
0.0
 11
36.354864999999961
 21
-110.14458399999999
 31
0.0
  0
LINE
  8
DETAIL
  6
CONTINUOUS
 62
     5
 10
45.010779000000007
 20
-106.89965100000001
 30
0.0
 11
45.010779000000007
 21
-105.169355
 31
0.0
  0
ARC
  8
DETAIL
  6
CONTINUOUS
 62
     5
 10
49.338709999999992
 20
-148.4446879999999
 30
0.0
 40
1.298387
 50
270.0
 51
0.0
  0
ARC
  8
DETAIL
  6
CONTINUOUS
 62
     5
 10
49.338709999999992
 20
-147.13828000000001
 30
0.0
 40
1.298387
 50
270.0
 51
0.0
  0
ARC
  8
DETAIL
  6
CONTINUOUS
 62
     5
 10
54.532258000000013
 20
-148.4446879999999
 30
0.0
 40
1.298387
 50
180.0
 51
270.0
  0
LINE
  8
DETAIL
  6
CONTINUOUS
 62
     5
 10
54.532258000000013
 20
-149.743075
 30
0.0
 11
57.994623999999988
 21
-149.743075
 31
0.0
  0
ARC
  8
DETAIL
  6
CONTINUOUS
 62
     5
 10
54.532258000000013
 20
-147.13828000000001
 30
0.0
 40
1.298387
 50
180.0
 51
270.0
  0
LINE
  8
DETAIL
  6
CONTINUOUS
 62
     5
 10
54.532258000000013
 20
-148.4366669999998
 30
0.0
 11
57.994623999999988
 21
-148.4366669999998
 31
0.0
  0
ARC
  8
DETAIL
  6
CONTINUOUS
 62
     5
 10
57.994623999999988
 20
-148.4446879999999
 30
0.0
 40
1.298387
 50
270.0
 51
0.0
  0
ARC
  8
DETAIL
  6
CONTINUOUS
 62
     5
 10
57.994623999999988
 20
-147.13828000000001
 30
0.0
 40
1.298387
 50
270.0
 51
0.0
  0
ARC
  8
DETAIL
  6
CONTINUOUS
 62
     5
 10
63.188172000000009
 20
-148.4446879999999
 30
0.0
 40
1.298387
 50
180.0
 51
270.0
  0
LINE
  8
DETAIL
  6
CONTINUOUS
 62
     5
 10
63.188172000000009
 20
-149.743075
 30
0.0
 11
66.650537999999983
 21
-149.743075
 31
0.0
  0
ARC
  8
DETAIL
  6
CONTINUOUS
 62
     5
 10
63.188172000000009
 20
-147.13828000000001
 30
0.0
 40
1.298387
 50
180.0
 51
270.0
  0
LINE
  8
DETAIL
  6
CONTINUOUS
 62
     5
 10
63.188172000000009
 20
-148.4366669999998
 30
0.0
 11
66.650537999999983
 21
-148.4366669999998
 31
0.0
  0
ARC
  8
DETAIL
  6
CONTINUOUS
 62
     5
 10
66.650537999999983
 20
-148.4446879999999
 30
0.0
 40
1.298387
 50
270.0
 51
0.0
  0
ARC
  8
DETAIL
  6
CONTINUOUS
 62
     5
 10
66.650537999999983
 20
-147.13828000000001
 30
0.0
 40
1.298387
 50
270.0
 51
0.0
  0
ARC
  8
DETAIL
  6
CONTINUOUS
 62
     5
 10
71.844086000000004
 20
-148.4446879999999
 30
0.0
 40
1.298387
 50
180.0
 51
270.0
  0
LINE
  8
DETAIL
  6
CONTINUOUS
 62
     5
 10
71.844086000000004
 20
-149.743075
 30
0.0
 11
75.306451999999979
 21
-149.743075
 31
0.0
  0
ARC
  8
DETAIL
  6
CONTINUOUS
 62
     5
 10
71.844086000000004
 20
-147.13828000000001
 30
0.0
 40
1.298387
 50
180.0
 51
270.0
  0
LINE
  8
DETAIL
  6
CONTINUOUS
 62
     5
 10
71.844086000000004
 20
-148.4366669999998
 30
0.0
 11
75.306451999999979
 21
-148.4366669999998
 31
0.0
  0
ARC
  8
DETAIL
  6
CONTINUOUS
 62
     5
 10
75.306451999999979
 20
-148.4446879999999
 30
0.0
 40
1.298387
 50
270.0
 51
0.0
  0
ARC
  8
DETAIL
  6
CONTINUOUS
 62
     5
 10
75.306451999999979
 20
-147.13828000000001
 30
0.0
 40
1.298387
 50
270.0
 51
0.0
  0
ARC
  8
DETAIL
  6
CONTINUOUS
 62
     5
 10
80.5
 20
-148.4446879999999
 30
0.0
 40
1.298387
 50
180.0
 51
270.0
  0
LINE
  8
DETAIL
  6
CONTINUOUS
 62
     5
 10
80.5
 20
-149.743075
 30
0.0
 11
83.962365999999975
 21
-149.743075
 31
0.0
  0
ARC
  8
DETAIL
  6
CONTINUOUS
 62
     5
 10
80.5
 20
-147.13828000000001
 30
0.0
 40
1.298387
 50
180.0
 51
270.0
  0
LINE
  8
DETAIL
  6
CONTINUOUS
 62
     5
 10
80.5
 20
-148.4366669999998
 30
0.0
 11
83.962365999999975
 21
-148.4366669999998
 31
0.0
  0
ARC
  8
DETAIL
  6
CONTINUOUS
 62
     5
 10
83.962365999999975
 20
-148.4446879999999
 30
0.0
 40
1.298387
 50
270.0
 51
0.0
  0
ARC
  8
DETAIL
  6
CONTINUOUS
 62
     5
 10
83.962365999999975
 20
-147.13828000000001
 30
0.0
 40
1.298387
 50
270.0
 51
0.0
  0
ARC
  8
DETAIL
  6
CONTINUOUS
 62
     5
 10
64.919354999999996
 20
-149.74731199999991
 30
0.0
 40
1.947581
 50
42.295983999999848
 51
137.70401600000019
  0
LINE
  8
DETAIL
  6
CONTINUOUS
 62
     5
 10
59.293010999999979
 20
-105.169355
 30
0.0
 11
53.233871000000022
 21
-105.169355
 31
0.0
  0
LINE
  8
DETAIL
  6
CONTINUOUS
 62
     5
 10
67.948925000000031
 20
-105.169355
 30
0.0
 11
61.889785000000018
 21
-105.169355
 31
0.0
  0
LINE
  8
DETAIL
  6
CONTINUOUS
 62
     5
 10
76.60483899999997
 20
-105.169355
 30
0.0
 11
70.545699000000013
 21
-105.169355
 31
0.0
  0
LINE
  8
DETAIL
  6
CONTINUOUS
 62
     5
 10
85.260752999999966
 20
-105.169355
 30
0.0
 11
79.201612999999952
 21
-105.169355
 31
0.0
  0
ARC
  8
DETAIL
  6
CONTINUOUS
 62
     5
 10
0.0
 20
0.0
 30
0.0
 40
141.09139799999991
 50
304.14919000000009
 51
307.17809000000062
  0
ARC
  8
DETAIL
  6
CONTINUOUS
 62
     5
 10
0.0
 20
0.0
 30
0.0
 40
141.09139799999991
 50
299.99999999999949
 51
302.88432900000049
  0
ARC
  8
DETAIL
  6
CONTINUOUS
 62
     5
 10
0.0
 20
0.0
 30
0.0
 40
141.09139799999991
 50
296.01779699999901
 51
298.78963200000032
  0
ARC
  8
DETAIL
  6
CONTINUOUS
 62
     5
 10
0.0
 20
0.0
 30
0.0
 40
141.09139799999991
 50
292.16657599999922
 51
294.85008199999811
  0
LINE
  8
DETAIL
  6
CONTINUOUS
 62
     5
 10
53.233871000000022
 20
-142.82258100000001
 30
0.0
 11
59.293010999999979
 21
-142.82258100000001
 31
0.0
  0
LINE
  8
DETAIL
  6
CONTINUOUS
 62
     5
 10
61.889785000000018
 20
-142.82258100000001
 30
0.0
 11
67.948925000000031
 21
-142.82258100000001
 31
0.0
  0
LINE
  8
DETAIL
  6
CONTINUOUS
 62
     5
 10
70.545699000000013
 20
-142.82258100000001
 30
0.0
 11
76.60483899999997
 21
-142.82258100000001
 31
0.0
  0
LINE
  8
DETAIL
  6
CONTINUOUS
 62
     5
 10
79.201612999999952
 20
-142.82258100000001
 30
0.0
 11
85.260752999999966
 21
-142.82258100000001
 31
0.0
  0
ARC
  8
DETAIL
  6
CONTINUOUS
 62
     5
 10
89.155913999999996
 20
-148.4446879999999
 30
0.0
 40
1.298387
 50
180.0
 51
270.0
  0
LINE
  8
DETAIL
  6
CONTINUOUS
 62
     5
 10
89.155913999999996
 20
-149.743075
 30
0.0
 11
92.61827999999997
 21
-149.743075
 31
0.0
  0
ARC
  8
DETAIL
  6
CONTINUOUS
 62
     5
 10
89.155913999999996
 20
-147.13828000000001
 30
0.0
 40
1.298387
 50
180.0
 51
270.0
  0
LINE
  8
DETAIL
  6
CONTINUOUS
 62
     5
 10
89.155913999999996
 20
-148.4366669999998
 30
0.0
 11
92.61827999999997
 21
-148.4366669999998
 31
0.0
  0
ARC
  8
DETAIL
  6
CONTINUOUS
 62
     5
 10
92.61827999999997
 20
-148.4446879999999
 30
0.0
 40
1.298387
 50
270.0
 51
0.0
  0
ARC
  8
DETAIL
  6
CONTINUOUS
 62
     5
 10
92.61827999999997
 20
-147.13828000000001
 30
0.0
 40
1.298387
 50
270.0
 51
0.0
  0
LINE
  8
DETAIL
  6
CONTINUOUS
 62
     5
 10
93.137634999999989
 20
-147.58333400000001
 30
0.0
 11
88.636558999999977
 21
-147.58333400000001
 31
0.0
  0
LINE
  8
DETAIL
  6
CONTINUOUS
 62
     5
 10
88.636558999999977
 20
-147.58333400000001
 30
0.0
 11
88.636558999999977
 21
-148.328271
 31
0.0
  0
LINE
  8
DETAIL
  6
CONTINUOUS
 62
     5
 10
93.137634999999989
 20
-147.58333400000001
 30
0.0
 11
93.137634999999989
 21
-148.328271
 31
0.0
  0
LINE
  8
DETAIL
  6
CONTINUOUS
 62
     5
 10
93.916667000000018
 20
-105.169355
 30
0.0
 11
87.857527000000005
 21
-105.169355
 31
0.0
  0
ARC
  8
DETAIL
  6
CONTINUOUS
 62
     5
 10
0.0
 20
0.0
 30
0.0
 40
141.09139799999991
 50
308.51352700000069
 51
311.73176300000108
  0
LINE
  8
DETAIL
  6
CONTINUOUS
 62
     5
 10
87.857527000000005
 20
-142.82258100000001
 30
0.0
 11
93.916667000000018
 21
-142.82258100000001
 31
0.0
  0
LINE
  8
DETAIL
  6
CONTINUOUS
 62
     5
 10
128.540323
 20
-142.75749899999991
 30
0.0
 11
128.540323
 21
-148.4446879999999
 31
0.0
  0
LINE
  8
DETAIL
  6
CONTINUOUS
 62
     5
 10
97.811827999999991
 20
-149.743075
 30
0.0
 11
101.2741939999997
 21
-149.743075
 31
0.0
  0
LINE
  8
DETAIL
  6
CONTINUOUS
 62
     5
 10
97.811827999999991
 20
-148.4366669999998
 30
0.0
 11
101.2741939999997
 21
-148.4366669999998
 31
0.0
  0
ARC
  8
DETAIL
  6
CONTINUOUS
 62
     5
 10
101.2741939999997
 20
-148.4446879999999
 30
0.0
 40
1.298387
 50
270.0
 51
0.0
  0
ARC
  8
DETAIL
  6
CONTINUOUS
 62
     5
 10
101.2741939999997
 20
-147.13828000000001
 30
0.0
 40
1.298387
 50
270.0
 51
0.0
  0
ARC
  8
DETAIL
  6
CONTINUOUS
 62
     5
 10
106.4677419999999
 20
-148.4446879999999
 30
0.0
 40
1.298387
 50
180.0
 51
270.0
  0
LINE
  8
DETAIL
  6
CONTINUOUS
 62
     5
 10
106.4677419999999
 20
-149.743075
 30
0.0
 11
109.930108
 21
-149.743075
 31
0.0
  0
ARC
  8
DETAIL
  6
CONTINUOUS
 62
     5
 10
106.4677419999999
 20
-147.13828000000001
 30
0.0
 40
1.298387
 50
180.0
 51
270.0
  0
LINE
  8
DETAIL
  6
CONTINUOUS
 62
     5
 10
106.4677419999999
 20
-148.4366669999998
 30
0.0
 11
109.930108
 21
-148.4366669999998
 31
0.0
  0
ARC
  8
DETAIL
  6
CONTINUOUS
 62
     5
 10
109.930108
 20
-148.4446879999999
 30
0.0
 40
1.298387
 50
270.0
 51
0.0
  0
ARC
  8
DETAIL
  6
CONTINUOUS
 62
     5
 10
109.930108
 20
-147.13828000000001
 30
0.0
 40
1.298387
 50
270.0
 51
0.0
  0
ARC
  8
DETAIL
  6
CONTINUOUS
 62
     5
 10
115.123656
 20
-148.4446879999999
 30
0.0
 40
1.298387
 50
180.0
 51
270.0
  0
LINE
  8
DETAIL
  6
CONTINUOUS
 62
     5
 10
115.123656
 20
-149.743075
 30
0.0
 11
118.586022
 21
-149.743075
 31
0.0
  0
ARC
  8
DETAIL
  6
CONTINUOUS
 62
     5
 10
115.123656
 20
-147.13828000000001
 30
0.0
 40
1.298387
 50
180.0
 51
270.0
  0
LINE
  8
DETAIL
  6
CONTINUOUS
 62
     5
 10
115.123656
 20
-148.4366669999998
 30
0.0
 11
118.586022
 21
-148.4366669999998
 31
0.0
  0
ARC
  8
DETAIL
  6
CONTINUOUS
 62
     5
 10
118.586022
 20
-148.4446879999999
 30
0.0
 40
1.298387
 50
270.0
 51
0.0
  0
ARC
  8
DETAIL
  6
CONTINUOUS
 62
     5
 10
118.586022
 20
-147.13828000000001
 30
0.0
 40
1.298387
 50
270.0
 51
0.0
  0
ARC
  8
DETAIL
  6
CONTINUOUS
 62
     5
 10
123.77956999999969
 20
-148.4446879999999
 30
0.0
 40
1.298387
 50
180.0
 51
270.0
  0
ARC
  8
DETAIL
  6
CONTINUOUS
 62
     5
 10
123.77956999999969
 20
-147.13828000000001
 30
0.0
 40
1.298387
 50
180.0
 51
270.0
  0
ARC
  8
DETAIL
  6
CONTINUOUS
 62
     5
 10
127.241936
 20
-148.4446879999999
 30
0.0
 40
1.298387
 50
270.0
 51
0.0
  0
ARC
  8
DETAIL
  6
CONTINUOUS
 62
     5
 10
127.241936
 20
-147.13828000000001
 30
0.0
 40
1.298387
 50
270.0
 51
0.0
  0
LINE
  8
DETAIL
  6
CONTINUOUS
 62
     5
 10
123.77956999999969
 20
-148.4366669999998
 30
0.0
 11
127.241936
 21
-148.4366669999998
 31
0.0
  0
LINE
  8
DETAIL
  6
CONTINUOUS
 62
     5
 10
123.77956999999969
 20
-149.743075
 30
0.0
 11
127.241936
 21
-149.743075
 31
0.0
  0
LINE
  8
DETAIL
  6
CONTINUOUS
 62
     5
 10
111.228495
 20
-105.169355
 30
0.0
 11
105.169355
 21
-105.169355
 31
0.0
  0
LINE
  8
DETAIL
  6
CONTINUOUS
 62
     5
 10
119.88440900000001
 20
-105.169355
 30
0.0
 11
113.82526899999991
 21
-105.169355
 31
0.0
  0
LINE
  8
DETAIL
  6
CONTINUOUS
 62
     5
 10
128.540323
 20
-105.169355
 30
0.0
 11
122.4811829999999
 21
-105.169355
 31
0.0
  0
LINE
  8
DETAIL
  6
CONTINUOUS
 62
     5
 10
105.169355
 20
-142.82258100000001
 30
0.0
 11
111.228495
 21
-142.82258100000001
 31
0.0
  0
ARC
  8
DETAIL
  6
CONTINUOUS
 62
     5
 10
19.071401999999981
 20
60.078567000000021
 30
0.0
 40
102.48602199999991
 50
319.08089799999931
 51
326.54882600000059
  0
LINE
  8
DETAIL
  6
CONTINUOUS
 62
     5
 10
96.513441
 20
-102.5725809999999
 30
0.0
 11
102.601871
 21
-102.5725809999999
 31
0.0
  0
ARC
  8
DETAIL
  6
CONTINUOUS
 62
     5
 10
0.0
 20
0.0
 30
0.0
 40
115.989248
 50
326.3139879999992
 51
332.16898199999872
  0
ARC
  8
DETAIL
  6
CONTINUOUS
 62
     5
 10
0.0
 20
0.0
 30
0.0
 40
112.526882
 50
329.0584539999989
 51
335.71882900000048
  0
ARC
  8
DETAIL
  6
CONTINUOUS
 62
     5
 10
33.240271000000007
 20
66.892614999999978
 30
0.0
 40
90.887096999999997
 50
314.12078800000012
 51
319.71520700000048
  0
ARC
  8
DETAIL
  6
CONTINUOUS
 62
     5
 10
36.08072199999998
 20
-26.910022999999999
 30
0.0
 40
7.7903229999999981
 50
143.28338300000061
 51
249.2860790000002
  0
ARC
  8
DETAIL
  6
CONTINUOUS
 62
     5
 10
23.370994
 20
-42.306578999999999
 30
0.0
 40
12.983871000000001
 50
39.944686999997678
 51
53.696428000000438
  0
ARC
  8
DETAIL
  6
CONTINUOUS
 62
     5
 10
0.0
 20
0.0
 30
0.0
 40
36.354838999999998
 50
285.89108200000072
 51
296.13426799999928
  0
ARC
  8
DETAIL
  6
CONTINUOUS
 62
     5
 10
0.0
 20
0.0
 30
0.0
 40
35.28667699999999
 50
286.38546000000031
 51
296.98838299999858
  0
LINE
  8
DETAIL
  6
CONTINUOUS
 62
     5
 10
45.010779000000007
 20
-20.636732999999989
 30
0.0
 11
45.010779000000007
 21
-36.022653999999989
 31
0.0
  0
LINE
  8
DETAIL
  6
CONTINUOUS
 62
     5
 10
44.577956999999969
 20
-102.5725809999999
 30
0.0
 11
50.666386999999993
 21
-102.5725809999999
 31
0.0
  0
ARC
  8
DETAIL
  6
CONTINUOUS
 62
     5
 10
0.0
 20
0.0
 30
0.0
 40
112.526882
 50
294.28117100000139
 51
296.74368400000168
  0
ARC
  8
DETAIL
  6
CONTINUOUS
 62
     5
 10
25.967741999999991
 20
0.0
 30
0.0
 40
47.607526999999997
 50
293.01107800000131
 51
301.21036999999973
  0
ARC
  8
DETAIL
  6
CONTINUOUS
 62
     5
 10
46.643926000000022
 20
31.820058000000021
 30
0.0
 40
67.862366000000009
 50
268.25544599999898
 51
273.37335900000079
  0
LINE
  8
DETAIL
  6
CONTINUOUS
 62
     5
 10
35.922043000000031
 20
-102.5725809999999
 30
0.0
 11
42.01047299999999
 21
-102.5725809999999
 31
0.0
  0
LINE
  8
DETAIL
  6
CONTINUOUS
 62
     5
 10
1.2983869999999911
 20
-102.5725809999999
 30
0.0
 11
7.3868170000000077
 21
-102.5725809999999
 31
0.0
  0
LINE
  8
DETAIL
  6
CONTINUOUS
 62
     5
 10
9.9543009999999867
 20
-102.5725809999999
 30
0.0
 11
16.042731
 21
-102.5725809999999
 31
0.0
  0
LINE
  8
DETAIL
  6
CONTINUOUS
 62
     5
 10
18.610214999999979
 20
-102.5725809999999
 30
0.0
 11
24.698644999999999
 21
-102.5725809999999
 31
0.0
  0
LINE
  8
DETAIL
  6
CONTINUOUS
 62
     5
 10
27.266128999999982
 20
-102.5725809999999
 30
0.0
 11
33.354558999999988
 21
-102.5725809999999
 31
0.0
  0
ARC
  8
DETAIL
  6
CONTINUOUS
 62
     5
 10
25.967741999999991
 20
0.0
 30
0.0
 40
47.607526999999997
 50
282.06908299999918
 51
289.6554809999991
  0
ARC
  8
DETAIL
  6
CONTINUOUS
 62
     5
 10
47.431932000000018
 20
12.337343000000001
 30
0.0
 40
48.646236999999999
 50
256.31381400000163
 51
260.76478599999962
  0
ARC
  8
DETAIL
  6
CONTINUOUS
 62
     5
 10
25.967741999999991
 20
0.0
 30
0.0
 40
47.607526999999997
 50
238.7896299999999
 51
246.98892199999869
  0
ARC
  8
DETAIL
  6
CONTINUOUS
 62
     5
 10
25.967741999999991
 20
0.0
 30
0.0
 40
47.607526999999997
 50
250.3445190000009
 51
257.9309170000007
  0
ARC
  8
DETAIL
  6
CONTINUOUS
 62
     5
 10
25.967741999999991
 20
0.0
 30
0.0
 40
47.607526999999997
 50
261.10956499999878
 51
268.43719399999912
  0
ARC
  8
DETAIL
  6
CONTINUOUS
 62
     5
 10
25.967741999999991
 20
0.0
 30
0.0
 40
47.607526999999997
 50
271.56280600000088
 51
278.89043500000122
  0
ARC
  8
DETAIL
  6
CONTINUOUS
 62
     5
 10
0.0
 20
0.0
 30
0.0
 40
36.787634999999959
 50
272.02262399999933
 51
281.5369589999998
  0
ARC
  8
DETAIL
  6
CONTINUOUS
 62
     5
 10
0.0
 20
0.0
 30
0.0
 40
36.354838999999998
 50
272.04671300000092
 51
281.67622500000061
  0
ARC
  8
DETAIL
  6
CONTINUOUS
 62
     5
 10
0.0
 20
0.0
 30
0.0
 40
35.28667699999999
 50
272.10869699999819
 51
282.03488600000122
  0
ARC
  8
DETAIL
  6
CONTINUOUS
 62
     5
 10
0.0
 20
0.0
 30
0.0
 40
36.787634999999959
 50
285.69927300000109
 51
295.80401099999892
  0
ARC
  8
DETAIL
  6
CONTINUOUS
 62
     5
 10
46.643926000000022
 20
31.820058000000021
 30
0.0
 40
67.862366000000009
 50
264.06317900000153
 51
266.06017100000111
  0
LINE
  8
DETAIL
  6
CONTINUOUS
 62
     5
 10
53.233871000000022
 20
-102.5725809999999
 30
0.0
 11
59.322300999999982
 21
-102.5725809999999
 31
0.0
  0
LINE
  8
DETAIL
  6
CONTINUOUS
 62
     5
 10
61.889785000000018
 20
-102.5725809999999
 30
0.0
 11
67.978214999999977
 21
-102.5725809999999
 31
0.0
  0
LINE
  8
DETAIL
  6
CONTINUOUS
 62
     5
 10
70.545699000000013
 20
-102.5725809999999
 30
0.0
 11
76.63412900000003
 21
-102.5725809999999
 31
0.0
  0
LINE
  8
DETAIL
  6
CONTINUOUS
 62
     5
 10
79.201612999999952
 20
-102.5725809999999
 30
0.0
 11
85.290043000000026
 21
-102.5725809999999
 31
0.0
  0
ARC
  8
DETAIL
  6
CONTINUOUS
 62
     5
 10
0.0
 20
0.0
 30
0.0
 40
115.989248
 50
297.83101800000048
 51
300.74339600000008
  0
ARC
  8
DETAIL
  6
CONTINUOUS
 62
     5
 10
0.0
 20
0.0
 30
0.0
 40
115.989248
 50
302.24780300000111
 51
305.86100399999998
  0
ARC
  8
DETAIL
  6
CONTINUOUS
 62
     5
 10
0.0
 20
0.0
 30
0.0
 40
115.989248
 50
307.46011099999947
 51
311.33403100000152
  0
ARC
  8
DETAIL
  6
CONTINUOUS
 62
     5
 10
0.0
 20
0.0
 30
0.0
 40
115.989248
 50
313.06564400000019
 51
317.31352199999918
  0
ARC
  8
DETAIL
  6
CONTINUOUS
 62
     5
 10
0.0
 20
0.0
 30
0.0
 40
112.526882
 50
298.2342119999995
 51
301.79779399999921
  0
ARC
  8
DETAIL
  6
CONTINUOUS
 62
     5
 10
0.0
 20
0.0
 30
0.0
 40
112.526882
 50
303.36701300000061
 51
307.14585800000009
  0
ARC
  8
DETAIL
  6
CONTINUOUS
 62
     5
 10
0.0
 20
0.0
 30
0.0
 40
112.526882
 50
308.82347599999991
 51
312.90378299999799
  0
ARC
  8
DETAIL
  6
CONTINUOUS
 62
     5
 10
0.0
 20
0.0
 30
0.0
 40
112.526882
 50
314.73640199999983
 51
319.26117699999958
  0
ARC
  8
DETAIL
  6
CONTINUOUS
 62
     5
 10
25.967741999999991
 20
0.0
 30
0.0
 40
47.607526999999997
 50
304.94062699999932
 51
314.70790100000039
  0
ARC
  8
DETAIL
  6
CONTINUOUS
 62
     5
 10
46.643926000000022
 20
31.820058000000021
 30
0.0
 40
67.862366000000009
 50
275.57263200000148
 51
277.42215799999968
  0
ARC
  8
DETAIL
  6
CONTINUOUS
 62
     5
 10
54.292161000000021
 20
-26.890319999999999
 30
0.0
 40
8.6559139999999992
 50
277.42215799999968
 51
292.04701999999992
  0
ARC
  8
DETAIL
  6
CONTINUOUS
 62
     5
 10
19.071401999999981
 20
60.078567000000021
 30
0.0
 40
102.48602199999991
 50
292.04701999999992
 51
293.10762100000039
  0
ARC
  8
DETAIL
  6
CONTINUOUS
 62
     5
 10
0.0
 20
0.0
 30
0.0
 40
115.989248
 50
319.24102199999987
 51
324.06677700000103
  0
LINE
  8
DETAIL
  6
CONTINUOUS
 62
     5
 10
87.857527000000005
 20
-102.5725809999999
 30
0.0
 11
93.945957000000021
 21
-102.5725809999999
 31
0.0
  0
ARC
  8
DETAIL
  6
CONTINUOUS
 62
     5
 10
0.0
 20
0.0
 30
0.0
 40
112.526882
 50
321.33105899999907
 51
326.57581099999823
  0
ARC
  8
DETAIL
  6
CONTINUOUS
 62
     5
 10
10.819892999999981
 20
-18.74060399999999
 30
0.0
 40
39.817203999999997
 50
357.83986900000059
 51
32.023996000000061
  0
ARC
  8
DETAIL
  6
CONTINUOUS
 62
     5
 10
45.931994000000032
 20
7.4110469999999964
 30
0.0
 40
28.045161
 50
267.23264900000061
 51
270.83023800000097
  0
ARC
  8
DETAIL
  6
CONTINUOUS
 62
     5
 10
0.0
 20
0.0
 30
0.0
 40
36.354838999999998
 50
351.1502749999994
 51
8.8497250000006318
  0
ARC
  8
DETAIL
  6
CONTINUOUS
 62
     5
 10
0.0
 20
0.0
 30
0.0
 40
36.787634999999959
 50
347.5462990000006
 51
12.45370099999939
  0
ARC
  8
DETAIL
  6
CONTINUOUS
 62
     5
 10
0.0
 20
0.0
 30
0.0
 40
32.881081999999992
 50
326.02018800000008
 51
33.979811999999889
  0
ARC
  8
DETAIL
  6
CONTINUOUS
 62
     5
 10
35.326997000000013
 20
-25.002489999999991
 30
0.0
 40
6.0591400000000002
 50
71.883040000000392
 51
84.364103000000355
  0
ARC
  8
DETAIL
  6
CONTINUOUS
 62
     5
 10
31.828011
 20
-26.706799999999991
 30
0.0
 40
5.1935479999999981
 50
322.02617500000082
 51
37.973824999999238
  0
ARC
  8
DETAIL
  6
CONTINUOUS
 62
     5
 10
35.326997000000013
 20
-25.002489999999991
 30
0.0
 40
6.0591400000000002
 50
109.29093200000089
 51
144.7112570000007
  0
ARC
  8
DETAIL
  6
CONTINUOUS
 62
     5
 10
0.0
 20
0.0
 30
0.0
 40
37.22043
 50
323.28338300000058
 51
324.71125700000073
  0
ARC
  8
DETAIL
  6
CONTINUOUS
 62
     5
 10
31.827901000000001
 20
-26.706837000000011
 30
0.0
 40
3.4623659999999981
 50
64.37561500000001
 51
295.62438500000002
  0
LINE
  8
DETAIL
  6
CONTINUOUS
 62
     5
 10
31.827901000000001
 20
-26.706845999999981
 30
0.0
 11
33.052031999999997
 21
-25.482714999999981
 31
0.0
  0
LINE
  8
DETAIL
  6
CONTINUOUS
 62
     5
 10
31.827901000000001
 20
-26.706848999999981
 30
0.0
 11
30.603825000000029
 21
-25.48272
 31
0.0
  0
LINE
  8
DETAIL
  6
CONTINUOUS
 62
     5
 10
31.827901000000001
 20
-26.706827000000001
 30
0.0
 11
33.052031999999997
 21
-27.930958
 31
0.0
  0
LINE
  8
DETAIL
  6
CONTINUOUS
 62
     5
 10
31.827901000000001
 20
-26.706822999999989
 30
0.0
 11
30.603825000000029
 21
-27.930952999999992
 31
0.0
  0
ARC
  8
DETAIL
  6
CONTINUOUS
 62
     5
 10
31.828011
 20
-26.706799999999991
 30
0.0
 40
5.1935479999999981
 50
246.623174000001
 51
286.7557240000005
  0
ARC
  8
DETAIL
  6
CONTINUOUS
 62
     5
 10
0.0
 20
0.0
 30
0.0
 40
32.881081999999992
 50
272.26304699999969
 51
282.9300729999996
  0
ARC
  8
DETAIL
  6
CONTINUOUS
 62
     5
 10
0.0
 20
0.0
 30
0.0
 40
32.881081999999992
 50
287.62203299999862
 51
299.14429699999801
  0
ARC
  8
DETAIL
  6
CONTINUOUS
 62
     5
 10
0.0
 20
0.0
 30
0.0
 40
36.787634999999959
 50
300.38994200000138
 51
312.1124810000004
  0
ARC
  8
DETAIL
  6
CONTINUOUS
 62
     5
 10
0.0
 20
0.0
 30
0.0
 40
36.354838999999998
 50
300.79078799999837
 51
312.73211000000089
  0
ARC
  8
DETAIL
  6
CONTINUOUS
 62
     5
 10
0.0
 20
0.0
 30
0.0
 40
35.28667699999999
 50
301.82999299999989
 51
314.35583900000017
  0
ARC
  8
DETAIL
  6
CONTINUOUS
 62
     5
 10
0.0
 20
0.0
 30
0.0
 40
32.881081999999992
 50
304.47075300000108
 51
318.61288999999999
  0
ARC
  8
DETAIL
  6
CONTINUOUS
 62
     5
 10
0.0
 20
0.0
 30
0.0
 40
36.787634999999959
 50
317.83172900000022
 51
334.94238499999977
  0
ARC
  8
DETAIL
  6
CONTINUOUS
 62
     5
 10
0.0
 20
0.0
 30
0.0
 40
36.354838999999998
 50
318.59037800000038
 51
336.44353599999943
  0
ARC
  8
DETAIL
  6
CONTINUOUS
 62
     5
 10
0.0
 20
0.0
 30
0.0
 40
35.28667699999999
 50
320.59726099999978
 51
340.80674299999993
  0
ARC
  8
DETAIL
  6
CONTINUOUS
 62
     5
 10
45.931994000000032
 20
7.4110469999999964
 30
0.0
 40
28.045161
 50
251.88304000000039
 51
261.90162200000088
  0
ARC
  8
DETAIL
  6
CONTINUOUS
 62
     5
 10
10.819892999999981
 20
-18.74060399999999
 30
0.0
 40
39.817203999999997
 50
38.499950000000979
 51
50.917792999999683
  0
ARC
  8
DETAIL
  6
CONTINUOUS
 62
     5
 10
3.9892929999999751
 20
43.095321000000013
 30
0.0
 40
6.0591400000000002
 50
243.63378899999961
 51
264.71125700000039
  0
ARC
  8
DETAIL
  6
CONTINUOUS
 62
     5
 10
0.0
 20
0.0
 30
0.0
 40
37.22043
 50
83.338509999998507
 51
84.711257000000472
  0
ARC
  8
DETAIL
  6
CONTINUOUS
 62
     5
 10
5.2644020000000182
 20
44.701833999999963
 30
0.0
 40
7.7903229999999981
 50
263.28338299999882
 51
285.58589300000159
  0
ARC
  8
DETAIL
  6
CONTINUOUS
 62
     5
 10
0.0
 20
0.0
 30
0.0
 40
35.28667699999999
 50
19.193257000000159
 51
39.402739000000281
  0
ARC
  8
DETAIL
  6
CONTINUOUS
 62
     5
 10
0.0
 20
0.0
 30
0.0
 40
36.354838999999998
 50
23.556464000000641
 51
41.409621999999587
  0
ARC
  8
DETAIL
  6
CONTINUOUS
 62
     5
 10
0.0
 20
0.0
 30
0.0
 40
36.787634999999959
 50
25.057615000000158
 51
42.16827099999982
  0
ARC
  8
DETAIL
  6
CONTINUOUS
 62
     5
 10
0.0
 20
0.0
 30
0.0
 40
36.787634999999959
 50
47.887518999999607
 51
59.610057999998602
  0
ARC
  8
DETAIL
  6
CONTINUOUS
 62
     5
 10
0.0
 20
0.0
 30
0.0
 40
36.354838999999998
 50
47.26788999999787
 51
59.209212000001571
  0
ARC
  8
DETAIL
  6
CONTINUOUS
 62
     5
 10
0.0
 20
0.0
 30
0.0
 40
35.28667699999999
 50
45.644160999999798
 51
58.170007000000062
  0
ARC
  8
DETAIL
  6
CONTINUOUS
 62
     5
 10
0.0
 20
0.0
 30
0.0
 40
32.881081999999992
 50
41.387109999999943
 51
55.529246999998797
  0
ARC
  8
DETAIL
  6
CONTINUOUS
 62
     5
 10
0.0
 20
0.0
 30
0.0
 40
32.881081999999992
 50
60.855702999998257
 51
72.377967000001405
  0
ARC
  8
DETAIL
  6
CONTINUOUS
 62
     5
 10
0.0
 20
0.0
 30
0.0
 40
35.28667699999999
 50
63.011617000001422
 51
73.614539999999693
  0
ARC
  8
DETAIL
  6
CONTINUOUS
 62
     5
 10
0.0
 20
0.0
 30
0.0
 40
36.354838999999998
 50
63.865732000000683
 51
74.108917999999321
  0
ARC
  8
DETAIL
  6
CONTINUOUS
 62
     5
 10
0.0
 20
0.0
 30
0.0
 40
36.787634999999959
 50
64.195989000001063
 51
74.300726999998915
  0
ARC
  8
DETAIL
  6
CONTINUOUS
 62
     5
 10
0.0
 20
0.0
 30
0.0
 40
32.881081999999992
 50
77.069927000000405
 51
87.736953000000284
  0
ARC
  8
DETAIL
  6
CONTINUOUS
 62
     5
 10
0.0
 20
0.0
 30
0.0
 40
35.28667699999999
 50
77.965113999998835
 51
87.891302999998487
  0
ARC
  8
DETAIL
  6
CONTINUOUS
 62
     5
 10
0.0
 20
0.0
 30
0.0
 40
36.787634999999959
 50
78.463041000000189
 51
87.977376000000689
  0
ARC
  8
DETAIL
  6
CONTINUOUS
 62
     5
 10
0.0
 20
0.0
 30
0.0
 40
36.354838999999998
 50
78.323774999999401
 51
87.953286999999122
  0
ARC
  8
DETAIL
  6
CONTINUOUS
 62
     5
 10
45.413415999999977
 20
41.684547000000009
 30
0.0
 40
62.322581000000007
 50
277.20867799999837
 51
282.53815400000002
  0
ARC
  8
DETAIL
  6
CONTINUOUS
 62
     5
 10
43.727525000000007
 20
52.302127999999982
 30
0.0
 40
73.055914000000001
 50
284.39513600000072
 51
289.36264199999908
  0
ARC
  8
DETAIL
  6
CONTINUOUS
 62
     5
 10
19.071401999999981
 20
60.078567000000021
 30
0.0
 40
102.48602199999991
 50
294.69560000000041
 51
298.48436499999991
  0
ARC
  8
DETAIL
  6
CONTINUOUS
 62
     5
 10
19.071401999999981
 20
60.078567000000021
 30
0.0
 40
102.48602199999991
 50
300.14941899999923
 51
304.15117599999911
  0
ARC
  8
DETAIL
  6
CONTINUOUS
 62
     5
 10
43.727525000000007
 20
52.302127999999982
 30
0.0
 40
73.055914000000001
 50
291.53632799999889
 51
296.74557399999981
  0
ARC
  8
DETAIL
  6
CONTINUOUS
 62
     5
 10
19.071401999999981
 20
60.078567000000021
 30
0.0
 40
102.48602199999991
 50
305.92432600000058
 51
310.22852300000147
  0
ARC
  8
DETAIL
  6
CONTINUOUS
 62
     5
 10
33.240271000000007
 20
66.892614999999978
 30
0.0
 40
90.887096999999997
 50
300.37763900000169
 51
304.9152239999994
  0
ARC
  8
DETAIL
  6
CONTINUOUS
 62
     5
 10
45.413415999999977
 20
41.684547000000009
 30
0.0
 40
62.322581000000007
 50
270.85037600000112
 51
274.80799100000098
  0
ARC
  8
DETAIL
  6
CONTINUOUS
 62
     5
 10
43.727525000000007
 20
52.302127999999982
 30
0.0
 40
73.055914000000001
 50
282.02109000000041
 51
282.3018909999987
  0
ARC
  8
DETAIL
  6
CONTINUOUS
 62
     5
 10
33.240271000000007
 20
66.892614999999978
 30
0.0
 40
90.887096999999997
 50
306.9369059999986
 51
311.8822449999999
  0
ARC
  8
DETAIL
  6
CONTINUOUS
 62
     5
 10
19.071401999999981
 20
60.078567000000021
 30
0.0
 40
102.48602199999991
 50
312.15786899999938
 51
316.91132399999822
  0
ARC
  8
DETAIL
  6
CONTINUOUS
 62
     5
 10
0.0
 20
0.0
 30
0.0
 40
115.989248
 50
335.05545699999948
 51
343.52735500000051
  0
ARC
  8
DETAIL
  6
CONTINUOUS
 62
     5
 10
0.0
 20
0.0
 30
0.0
 40
112.526882
 50
339.16609600000032
 51
351.28775499999938
  0
LINE
  8
DETAIL
  6
CONTINUOUS
 62
     5
 10
105.169355
 20
-102.5725809999999
 30
0.0
 11
111.257785
 21
-102.5725809999999
 31
0.0
  0
LINE
  8
DETAIL
  6
CONTINUOUS
 62
     5
 10
113.82526899999991
 20
-102.5725809999999
 30
0.0
 11
119.9136989999997
 21
-102.5725809999999
 31
0.0
  0
LINE
  8
DETAIL
  6
CONTINUOUS
 62
     5
 10
122.4811829999999
 20
-102.5725809999999
 30
0.0
 11
128.56961299999961
 21
-102.5725809999999
 31
0.0
  0
ARC
  8
DETAIL
  6
CONTINUOUS
 62
     5
 10
0.0
 20
0.0
 30
0.0
 40
141.09139799999991
 50
323.77945299999902
 51
328.17832099999862
  0
ARC
  8
DETAIL
  6
CONTINUOUS
 62
     5
 10
0.0
 20
0.0
 30
0.0
 40
141.09139799999991
 50
318.19336200000049
 51
322.03098300000062
  0
ARC
  8
DETAIL
  6
CONTINUOUS
 62
     5
 10
0.0
 20
0.0
 30
0.0
 40
141.09139799999991
 50
313.36503199999879
 51
316.63496799999979
  0
ARC
  8
DETAIL
  6
CONTINUOUS
 62
     5
 10
0.0
 20
0.0
 30
0.0
 40
141.09139799999991
 50
330.23838000000029
 51
335.64987899999949
  0
ARC
  8
DETAIL
  6
CONTINUOUS
 62
     5
 10
0.0
 20
0.0
 30
0.0
 40
115.989248
 50
348.91507499999938
 51
11.08492500000054
  0
ARC
  8
DETAIL
  6
CONTINUOUS
 62
     5
 10
0.0
 20
0.0
 30
0.0
 40
115.989248
 50
348.91507499999938
 51
11.08492500000054
  0
ARC
  8
DETAIL
  6
CONTINUOUS
 62
     5
 10
33.240271000000007
 20
66.892614999999978
 30
0.0
 40
90.887096999999997
 50
322.31760500000081
 51
327.516929
  0
ARC
  8
DETAIL
  6
CONTINUOUS
 62
     5
 10
108.19227099999991
 20
1.199905999999999
 30
0.0
 40
4.3279569999999996
 50
45.449524000001503
 51
146.54882600000059
  0
ARC
  8
DETAIL
  6
CONTINUOUS
 62
     5
 10
106.257248
 20
20.405995999999991
 30
0.0
 40
4.3279569999999996
 50
327.516929
 51
10.870919999999829
  0
ARC
  8
DETAIL
  6
CONTINUOUS
 62
     5
 10
0.0
 20
0.0
 30
0.0
 40
115.989248
 50
27.831018000001389
 51
33.686012000000581
  0
ARC
  8
DETAIL
  6
CONTINUOUS
 62
     5
 10
0.0
 20
0.0
 30
0.0
 40
112.526882
 50
24.281170999999489
 51
30.941546000001061
  0
LINE
  8
DETAIL
  6
CONTINUOUS
 62
     5
 10
96.513441
 20
102.5725809999999
 30
0.0
 11
102.601871
 21
102.5725809999999
 31
0.0
  0
LINE
  8
DETAIL
  6
CONTINUOUS
 62
     5
 10
102.5725809999999
 20
105.169355
 30
0.0
 11
96.513441
 21
105.169355
 31
0.0
  0
ARC
  8
DETAIL
  6
CONTINUOUS
 62
     5
 10
0.0
 20
0.0
 30
0.0
 40
141.09139799999991
 50
43.365032000000191
 51
46.839132000000923
  0
ARC
  8
DETAIL
  6
CONTINUOUS
 62
     5
 10
95.864247999999975
 20
159.4852149999999
 30
0.0
 40
0.6491940000000001
 50
0.0
 51
90.0
  0
LINE
  8
DETAIL
  6
CONTINUOUS
 62
     5
 10
96.513441
 20
151.47849500000001
 30
0.0
 11
102.5725809999999
 21
151.47849500000001
 31
0.0
  0
LINE
  8
DETAIL
  6
CONTINUOUS
 62
     5
 10
96.513441
 20
142.82258100000001
 30
0.0
 11
102.5725809999999
 21
142.82258100000001
 31
0.0
  0
ARC
  8
DETAIL
  6
CONTINUOUS
 62
     5
 10
0.0
 20
0.0
 30
0.0
 40
115.989248
 50
68.780596000000756
 51
71.95875800000006
  0
ARC
  8
DETAIL
  6
CONTINUOUS
 62
     5
 10
0.0
 20
0.0
 30
0.0
 40
112.526882
 50
72.773259999998729
 51
75.977218000001542
  0
LINE
  8
DETAIL
  6
CONTINUOUS
 62
     5
 10
36.354864999999961
 20
110.14458399999999
 30
0.0
 11
36.354864999999961
 21
106.492361
 31
0.0
  0
ARC
  8
DETAIL
  6
CONTINUOUS
 62
     5
 10
0.0
 20
0.0
 30
0.0
 40
141.09139799999991
 50
48.268236999998877
 51
51.486472999999322
  0
LINE
  8
DETAIL
  6
CONTINUOUS
 62
     5
 10
44.577956999999969
 20
102.5725809999999
 30
0.0
 11
50.666386999999993
 21
102.5725809999999
 31
0.0
  0
LINE
  8
DETAIL
  6
CONTINUOUS
 62
     5
 10
50.637096999999983
 20
105.169355
 30
0.0
 11
44.577956999999969
 21
105.169355
 31
0.0
  0
ARC
  8
DETAIL
  6
CONTINUOUS
 62
     5
 10
0.0
 20
0.0
 30
0.0
 40
115.989248
 50
65.055456999999564
 51
67.397949999999128
  0
ARC
  8
DETAIL
  6
CONTINUOUS
 62
     5
 10
0.0
 20
0.0
 30
0.0
 40
112.526882
 50
63.256315999998307
 51
65.718828999998578
  0
ARC
  8
DETAIL
  6
CONTINUOUS
 62
     5
 10
-0.1228310000000192
 20
-0.0869509999999991
 30
0.0
 40
38.951613000000002
 50
78.928004999999686
 51
85.559755000001061
  0
LINE
  8
DETAIL
  6
CONTINUOUS
 62
     5
 10
-2.0922899999999909
 20
42.327028000000041
 30
0.0
 11
-1.2983869999999911
 21
42.327028000000041
 31
0.0
  0
ARC
  8
DETAIL
  6
CONTINUOUS
 62
     5
 10
-0.1228310000000192
 20
41.461435999999992
 30
0.0
 40
5.1935479999999981
 50
4.0727310000003021
 51
74.118379999999533
  0
ARC
  8
DETAIL
  6
CONTINUOUS
 62
     5
 10
9.3746300000000247
 20
42.137679999999989
 30
0.0
 40
4.3279569999999996
 50
184.07273100000029
 51
242.2209280000001
  0
LINE
  8
DETAIL
  6
CONTINUOUS
 62
     5
 10
1.694910999999991
 20
40.595844999999997
 30
0.0
 11
1.911309000000017
 21
40.595844999999997
 31
0.0
  0
LINE
  8
DETAIL
  6
CONTINUOUS
 62
     5
 10
1.911309000000017
 20
42.327028000000041
 30
0.0
 11
1.911309000000017
 21
40.595844999999997
 31
0.0
  0
ARC
  8
DETAIL
  6
CONTINUOUS
 62
     5
 10
2.993297999999982
 20
40.042243999999982
 30
0.0
 40
1.298387
 50
180.0
 51
265.55975500000108
  0
LINE
  8
DETAIL
  6
CONTINUOUS
 62
     5
 10
1.694910999999991
 20
41.894231999999988
 30
0.0
 11
1.2983869999999911
 21
41.894231999999988
 31
0.0
  0
LINE
  8
DETAIL
  6
CONTINUOUS
 62
     5
 10
1.694910999999991
 20
41.894231999999988
 30
0.0
 11
1.694910999999991
 21
40.042243999999982
 31
0.0
  0
ARC
  8
DETAIL
  6
CONTINUOUS
 62
     5
 10
-0.1228310000000192
 20
41.461435999999992
 30
0.0
 40
5.1935479999999981
 50
103.08223500000101
 51
124.4350009999995
  0
LINE
  8
DETAIL
  6
CONTINUOUS
 62
     5
 10
1.2983869999999911
 20
42.327028000000041
 30
0.0
 11
1.911309000000017
 21
42.327028000000041
 31
0.0
  0
LINE
  8
DETAIL
  6
CONTINUOUS
 62
     5
 10
-1.2983869999999911
 20
41.894231999999988
 30
0.0
 11
-1.9405729999999719
 21
41.894231999999988
 31
0.0
  0
ARC
  8
DETAIL
  6
CONTINUOUS
 62
     5
 10
-12.98387100000002
 20
22.488723999999991
 30
0.0
 40
47.607526999999997
 50
64.705394999999058
 51
72.54239699999907
  0
ARC
  8
DETAIL
  6
CONTINUOUS
 62
     5
 10
-12.98387100000002
 20
22.488723999999991
 30
0.0
 40
47.607526999999997
 50
52.476200999998099
 51
61.195781999998317
  0
ARC
  8
DETAIL
  6
CONTINUOUS
 62
     5
 10
-12.98387100000002
 20
22.488723999999991
 30
0.0
 40
47.607526999999997
 50
37.729451000000793
 51
48.422203999998018
  0
ARC
  8
DETAIL
  6
CONTINUOUS
 62
     5
 10
-50.878940999999998
 20
24.484795999999989
 30
0.0
 40
67.862366000000009
 50
30.88988200000113
 51
37.422157999998838
  0
ARC
  8
DETAIL
  6
CONTINUOUS
 62
     5
 10
5.2644020000000182
 20
44.701833999999963
 30
0.0
 40
7.7903229999999981
 50
307.01442000000111
 51
13.86895699999924
  0
ARC
  8
DETAIL
  6
CONTINUOUS
 62
     5
 10
-3.8583810000000081
 20
60.463551000000002
 30
0.0
 40
8.6559139999999992
 50
37.422157999998838
 51
52.047020000000273
  0
ARC
  8
DETAIL
  6
CONTINUOUS
 62
     5
 10
-50.878940999999998
 20
24.484795999999989
 30
0.0
 40
67.862366000000009
 50
24.063179000000229
 51
26.30847399999978
  0
ARC
  8
DETAIL
  6
CONTINUOUS
 62
     5
 10
-61.565266000000008
 20
-13.522964999999999
 30
0.0
 40
102.48602199999991
 50
52.047020000000273
 51
52.16514800000089
  0
ARC
  8
DETAIL
  6
CONTINUOUS
 62
     5
 10
-34.400418999999999
 20
34.908587000000011
 30
0.0
 40
48.646236999999999
 50
13.86895699999924
 51
20.764785999999681
  0
ARC
  8
DETAIL
  6
CONTINUOUS
 62
     5
 10
3.9892929999999751
 20
43.095321000000013
 30
0.0
 40
6.0591400000000002
 50
191.8830399999994
 51
209.2286170000001
  0
LINE
  8
DETAIL
  6
CONTINUOUS
 62
     5
 10
35.922043000000031
 20
102.5725809999999
 30
0.0
 11
42.01047299999999
 21
102.5725809999999
 31
0.0
  0
LINE
  8
DETAIL
  6
CONTINUOUS
 62
     5
 10
41.981182999999987
 20
105.169355
 30
0.0
 11
35.922043000000031
 21
105.169355
 31
0.0
  0
ARC
  8
DETAIL
  6
CONTINUOUS
 62
     5
 10
0.0
 20
0.0
 30
0.0
 40
112.526882
 50
69.166096000001147
 51
71.383589000001209
  0
LINE
  8
DETAIL
  6
CONTINUOUS
 62
     5
 10
1.2983869999999911
 20
102.5725809999999
 30
0.0
 11
7.3868170000000077
 21
102.5725809999999
 31
0.0
  0
LINE
  8
DETAIL
  6
CONTINUOUS
 62
     5
 10
7.3575270000000046
 20
105.169355
 30
0.0
 11
1.2983869999999911
 21
105.169355
 31
0.0
  0
LINE
  8
DETAIL
  6
CONTINUOUS
 62
     5
 10
9.9543009999999867
 20
102.5725809999999
 30
0.0
 11
16.042731
 21
102.5725809999999
 31
0.0
  0
LINE
  8
DETAIL
  6
CONTINUOUS
 62
     5
 10
16.013441
 20
105.169355
 30
0.0
 11
9.9543009999999867
 21
105.169355
 31
0.0
  0
LINE
  8
DETAIL
  6
CONTINUOUS
 62
     5
 10
18.610214999999979
 20
102.5725809999999
 30
0.0
 11
24.698644999999999
 21
102.5725809999999
 31
0.0
  0
LINE
  8
DETAIL
  6
CONTINUOUS
 62
     5
 10
24.669354999999999
 20
105.169355
 30
0.0
 11
18.610214999999979
 21
105.169355
 31
0.0
  0
LINE
  8
DETAIL
  6
CONTINUOUS
 62
     5
 10
27.266128999999982
 20
102.5725809999999
 30
0.0
 11
33.354558999999988
 21
102.5725809999999
 31
0.0
  0
LINE
  8
DETAIL
  6
CONTINUOUS
 62
     5
 10
33.325268999999992
 20
105.169355
 30
0.0
 11
27.266128999999982
 21
105.169355
 31
0.0
  0
LINE
  8
DETAIL
  6
CONTINUOUS
 62
     5
 10
45.010779000000007
 20
106.89965100000001
 30
0.0
 11
45.010779000000007
 21
103.13257900000001
 31
0.0
  0
LINE
  8
DETAIL
  6
CONTINUOUS
 62
     5
 10
53.233871000000022
 20
102.5725809999999
 30
0.0
 11
59.322300999999982
 21
102.5725809999999
 31
0.0
  0
LINE
  8
DETAIL
  6
CONTINUOUS
 62
     5
 10
59.293010999999979
 20
105.169355
 30
0.0
 11
53.233871000000022
 21
105.169355
 31
0.0
  0
LINE
  8
DETAIL
  6
CONTINUOUS
 62
     5
 10
61.889785000000018
 20
102.5725809999999
 30
0.0
 11
67.978214999999977
 21
102.5725809999999
 31
0.0
  0
LINE
  8
DETAIL
  6
CONTINUOUS
 62
     5
 10
67.948925000000031
 20
105.169355
 30
0.0
 11
61.889785000000018
 21
105.169355
 31
0.0
  0
LINE
  8
DETAIL
  6
CONTINUOUS
 62
     5
 10
70.545699000000013
 20
102.5725809999999
 30
0.0
 11
76.63412900000003
 21
102.5725809999999
 31
0.0
  0
LINE
  8
DETAIL
  6
CONTINUOUS
 62
     5
 10
76.60483899999997
 20
105.169355
 30
0.0
 11
70.545699000000013
 21
105.169355
 31
0.0
  0
LINE
  8
DETAIL
  6
CONTINUOUS
 62
     5
 10
79.201612999999952
 20
102.5725809999999
 30
0.0
 11
85.290043000000026
 21
102.5725809999999
 31
0.0
  0
LINE
  8
DETAIL
  6
CONTINUOUS
 62
     5
 10
85.260752999999966
 20
105.169355
 30
0.0
 11
79.201612999999952
 21
105.169355
 31
0.0
  0
ARC
  8
DETAIL
  6
CONTINUOUS
 62
     5
 10
0.0
 20
0.0
 30
0.0
 40
115.989248
 50
59.256603999999882
 51
62.168981999999353
  0
ARC
  8
DETAIL
  6
CONTINUOUS
 62
     5
 10
0.0
 20
0.0
 30
0.0
 40
115.989248
 50
42.686478000000747
 51
46.934355999999781
  0
ARC
  8
DETAIL
  6
CONTINUOUS
 62
     5
 10
0.0
 20
0.0
 30
0.0
 40
115.989248
 50
54.138995999999992
 51
57.752196999998958
  0
ARC
  8
DETAIL
  6
CONTINUOUS
 62
     5
 10
0.0
 20
0.0
 30
0.0
 40
115.989248
 50
48.665968999998547
 51
52.539889000000542
  0
ARC
  8
DETAIL
  6
CONTINUOUS
 62
     5
 10
0.0
 20
0.0
 30
0.0
 40
112.526882
 50
40.738823000000401
 51
45.263598000000179
  0
ARC
  8
DETAIL
  6
CONTINUOUS
 62
     5
 10
0.0
 20
0.0
 30
0.0
 40
112.526882
 50
47.096217000002028
 51
51.1765240000001
  0
ARC
  8
DETAIL
  6
CONTINUOUS
 62
     5
 10
0.0
 20
0.0
 30
0.0
 40
112.526882
 50
52.854141999999882
 51
56.632986999999403
  0
ARC
  8
DETAIL
  6
CONTINUOUS
 62
     5
 10
0.0
 20
0.0
 30
0.0
 40
112.526882
 50
58.202206000000757
 51
61.76578800000047
  0
ARC
  8
DETAIL
  6
CONTINUOUS
 62
     5
 10
0.0
 20
0.0
 30
0.0
 40
115.989248
 50
35.933222999998968
 51
38.973207000000187
  0
ARC
  8
DETAIL
  6
CONTINUOUS
 62
     5
 10
0.0
 20
0.0
 30
0.0
 40
112.526882
 50
33.424189000001817
 51
38.668941000000892
  0
LINE
  8
DETAIL
  6
CONTINUOUS
 62
     5
 10
87.857527000000005
 20
102.5725809999999
 30
0.0
 11
93.945957000000021
 21
102.5725809999999
 31
0.0
  0
LINE
  8
DETAIL
  6
CONTINUOUS
 62
     5
 10
93.916667000000018
 20
105.169355
 30
0.0
 11
87.857527000000005
 21
105.169355
 31
0.0
  0
ARC
  8
DETAIL
  6
CONTINUOUS
 62
     5
 10
0.0
 20
0.0
 30
0.0
 40
115.989248
 50
39.577904000000018
 51
40.758978000000063
  0
ARC
  8
DETAIL
  6
CONTINUOUS
 62
     5
 10
0.0
 20
0.0
 30
0.0
 40
141.09139799999991
 50
68.967606999999589
 51
71.581769999999295
  0
LINE
  8
DETAIL
  6
CONTINUOUS
 62
     5
 10
44.577956999999969
 20
151.47849500000001
 30
0.0
 11
50.637096999999983
 21
151.47849500000001
 31
0.0
  0
LINE
  8
DETAIL
  6
CONTINUOUS
 62
     5
 10
44.577956999999969
 20
142.82258100000001
 30
0.0
 11
50.637096999999983
 21
142.82258100000001
 31
0.0
  0
ARC
  8
DETAIL
  6
CONTINUOUS
 62
     5
 10
0.0
 20
0.0
 30
0.0
 40
141.09139799999991
 50
87.010827000000376
 51
89.47273099999957
  0
ARC
  8
DETAIL
  6
CONTINUOUS
 62
     5
 10
0.0
 20
0.0
 30
0.0
 40
141.09139799999991
 50
72.689729999999585
 51
75.25004300000046
  0
ARC
  8
DETAIL
  6
CONTINUOUS
 62
     5
 10
0.0
 20
0.0
 30
0.0
 40
115.989248
 50
86.363123999999132
 51
89.358616000000936
  0
ARC
  8
DETAIL
  6
CONTINUOUS
 62
     5
 10
0.0
 20
0.0
 30
0.0
 40
115.989248
 50
82.064414999998775
 51
85.076769000001036
  0
ARC
  8
DETAIL
  6
CONTINUOUS
 62
     5
 10
0.0
 20
0.0
 30
0.0
 40
115.989248
 50
77.720161000001326
 51
80.767113000000194
  0
ARC
  8
DETAIL
  6
CONTINUOUS
 62
     5
 10
0.0
 20
0.0
 30
0.0
 40
115.989248
 50
73.302817000000644
 51
76.403978000000691
  0
ARC
  8
DETAIL
  6
CONTINUOUS
 62
     5
 10
0.0
 20
0.0
 30
0.0
 40
141.09139799999991
 50
83.483062000000899
 51
85.954298999999182
  0
ARC
  8
DETAIL
  6
CONTINUOUS
 62
     5
 10
0.0
 20
0.0
 30
0.0
 40
141.09139799999991
 50
79.930267000000811
 51
82.420493999999593
  0
ARC
  8
DETAIL
  6
CONTINUOUS
 62
     5
 10
0.0
 20
0.0
 30
0.0
 40
141.09139799999991
 50
76.337847999999937
 51
78.857398999999162
  0
ARC
  8
DETAIL
  6
CONTINUOUS
 62
     5
 10
0.0
 20
0.0
 30
0.0
 40
112.526882
 50
86.251063000001452
 51
89.338879999998909
  0
ARC
  8
DETAIL
  6
CONTINUOUS
 62
     5
 10
0.0
 20
0.0
 30
0.0
 40
112.526882
 50
81.818595000000883
 51
84.924893000000139
  0
ARC
  8
DETAIL
  6
CONTINUOUS
 62
     5
 10
0.0
 20
0.0
 30
0.0
 40
112.526882
 50
77.336143999999578
 51
80.480422000000416
  0
LINE
  8
DETAIL
  6
CONTINUOUS
 62
     5
 10
35.922043000000031
 20
151.47849500000001
 30
0.0
 11
41.981182999999987
 21
151.47849500000001
 31
0.0
  0
LINE
  8
DETAIL
  6
CONTINUOUS
 62
     5
 10
35.922043000000031
 20
142.82258100000001
 30
0.0
 11
41.981182999999987
 21
142.82258100000001
 31
0.0
  0
ARC
  8
DETAIL
  6
CONTINUOUS
 62
     5
 10
-0.6491940000000227
 20
159.4852149999999
 30
0.0
 40
0.6491940000000001
 50
90.0
 51
180.0
  0
ARC
  8
DETAIL
  6
CONTINUOUS
 62
     5
 10
-0.6491940000000227
 20
159.4852149999999
 30
0.0
 40
0.6491940000000001
 50
90.0
 51
180.0
  0
ARC
  8
DETAIL
  6
CONTINUOUS
 62
     5
 10
0.6491940000000227
 20
159.4852149999999
 30
0.0
 40
0.6491940000000001
 50
0.0
 51
90.0
  0
ARC
  8
DETAIL
  6
CONTINUOUS
 62
     5
 10
8.006719999999973
 20
159.4852149999999
 30
0.0
 40
0.6491940000000001
 50
90.0
 51
180.0
  0
LINE
  8
DETAIL
  6
CONTINUOUS
 62
     5
 10
1.2983869999999911
 20
151.47849500000001
 30
0.0
 11
7.3575270000000046
 21
151.47849500000001
 31
0.0
  0
ARC
  8
DETAIL
  6
CONTINUOUS
 62
     5
 10
8.006719999999973
 20
159.4852149999999
 30
0.0
 40
0.6491940000000001
 50
90.0
 51
180.0
  0
ARC
  8
DETAIL
  6
CONTINUOUS
 62
     5
 10
9.3051080000000184
 20
159.4852149999999
 30
0.0
 40
0.6491940000000001
 50
0.0
 51
90.0
  0
ARC
  8
DETAIL
  6
CONTINUOUS
 62
     5
 10
16.662634000000029
 20
159.4852149999999
 30
0.0
 40
0.6491940000000001
 50
90.0
 51
180.0
  0
LINE
  8
DETAIL
  6
CONTINUOUS
 62
     5
 10
9.9543009999999867
 20
151.47849500000001
 30
0.0
 11
16.013441
 21
151.47849500000001
 31
0.0
  0
ARC
  8
DETAIL
  6
CONTINUOUS
 62
     5
 10
16.662634000000029
 20
159.4852149999999
 30
0.0
 40
0.6491940000000001
 50
90.0
 51
180.0
  0
ARC
  8
DETAIL
  6
CONTINUOUS
 62
     5
 10
17.96102200000001
 20
159.4852149999999
 30
0.0
 40
0.6491940000000001
 50
0.0
 51
90.0
  0
ARC
  8
DETAIL
  6
CONTINUOUS
 62
     5
 10
25.318548000000021
 20
159.4852149999999
 30
0.0
 40
0.6491940000000001
 50
90.0
 51
180.0
  0
LINE
  8
DETAIL
  6
CONTINUOUS
 62
     5
 10
18.610214999999979
 20
151.47849500000001
 30
0.0
 11
24.669354999999999
 21
151.47849500000001
 31
0.0
  0
ARC
  8
DETAIL
  6
CONTINUOUS
 62
     5
 10
25.318548000000021
 20
159.4852149999999
 30
0.0
 40
0.6491940000000001
 50
90.0
 51
180.0
  0
ARC
  8
DETAIL
  6
CONTINUOUS
 62
     5
 10
26.61693600000001
 20
159.4852149999999
 30
0.0
 40
0.6491940000000001
 50
0.0
 51
90.0
  0
ARC
  8
DETAIL
  6
CONTINUOUS
 62
     5
 10
33.974462000000017
 20
159.4852149999999
 30
0.0
 40
0.6491940000000001
 50
90.0
 51
180.0
  0
LINE
  8
DETAIL
  6
CONTINUOUS
 62
     5
 10
27.266128999999982
 20
151.47849500000001
 30
0.0
 11
33.325268999999992
 21
151.47849500000001
 31
0.0
  0
ARC
  8
DETAIL
  6
CONTINUOUS
 62
     5
 10
33.974462000000017
 20
159.4852149999999
 30
0.0
 40
0.6491940000000001
 50
90.0
 51
180.0
  0
ARC
  8
DETAIL
  6
CONTINUOUS
 62
     5
 10
35.272850000000012
 20
159.4852149999999
 30
0.0
 40
0.6491940000000001
 50
0.0
 51
90.0
  0
LINE
  8
DETAIL
  6
CONTINUOUS
 62
     5
 10
1.2983869999999911
 20
142.82258100000001
 30
0.0
 11
7.3575270000000046
 21
142.82258100000001
 31
0.0
  0
LINE
  8
DETAIL
  6
CONTINUOUS
 62
     5
 10
9.9543009999999867
 20
142.82258100000001
 30
0.0
 11
16.013441
 21
142.82258100000001
 31
0.0
  0
LINE
  8
DETAIL
  6
CONTINUOUS
 62
     5
 10
18.610214999999979
 20
142.82258100000001
 30
0.0
 11
24.669354999999999
 21
142.82258100000001
 31
0.0
  0
LINE
  8
DETAIL
  6
CONTINUOUS
 62
     5
 10
27.266128999999982
 20
142.82258100000001
 30
0.0
 11
33.325268999999992
 21
142.82258100000001
 31
0.0
  0
ARC
  8
DETAIL
  6
CONTINUOUS
 62
     5
 10
42.630376000000012
 20
159.4852149999999
 30
0.0
 40
0.6491940000000001
 50
90.0
 51
180.0
  0
ARC
  8
DETAIL
  6
CONTINUOUS
 62
     5
 10
42.630376000000012
 20
159.4852149999999
 30
0.0
 40
0.6491940000000001
 50
90.0
 51
180.0
  0
ARC
  8
DETAIL
  6
CONTINUOUS
 62
     5
 10
43.928764000000001
 20
159.4852149999999
 30
0.0
 40
0.6491940000000001
 50
0.0
 51
90.0
  0
ARC
  8
DETAIL
  6
CONTINUOUS
 62
     5
 10
0.0
 20
0.0
 30
0.0
 40
141.09139799999991
 50
65.14991799999828
 51
67.833424000000889
  0
ARC
  8
DETAIL
  6
CONTINUOUS
 62
     5
 10
0.0
 20
0.0
 30
0.0
 40
141.09139799999991
 50
61.21036799999974
 51
63.982203000001
  0
ARC
  8
DETAIL
  6
CONTINUOUS
 62
     5
 10
0.0
 20
0.0
 30
0.0
 40
141.09139799999991
 50
57.115670999999473
 51
60.000000000000433
  0
ARC
  8
DETAIL
  6
CONTINUOUS
 62
     5
 10
0.0
 20
0.0
 30
0.0
 40
141.09139799999991
 50
52.821909999999392
 51
55.850809999999932
  0
ARC
  8
DETAIL
  6
CONTINUOUS
 62
     5
 10
51.286290000000008
 20
159.4852149999999
 30
0.0
 40
0.6491940000000001
 50
90.0
 51
180.0
  0
ARC
  8
DETAIL
  6
CONTINUOUS
 62
     5
 10
51.286290000000008
 20
159.4852149999999
 30
0.0
 40
0.6491940000000001
 50
90.0
 51
180.0
  0
ARC
  8
DETAIL
  6
CONTINUOUS
 62
     5
 10
52.584677999999997
 20
159.4852149999999
 30
0.0
 40
0.6491940000000001
 50
0.0
 51
90.0
  0
ARC
  8
DETAIL
  6
CONTINUOUS
 62
     5
 10
59.942203999999997
 20
159.4852149999999
 30
0.0
 40
0.6491940000000001
 50
90.0
 51
180.0
  0
LINE
  8
DETAIL
  6
CONTINUOUS
 62
     5
 10
53.233871000000022
 20
151.47849500000001
 30
0.0
 11
59.293010999999979
 21
151.47849500000001
 31
0.0
  0
ARC
  8
DETAIL
  6
CONTINUOUS
 62
     5
 10
59.942203999999997
 20
159.4852149999999
 30
0.0
 40
0.6491940000000001
 50
90.0
 51
180.0
  0
ARC
  8
DETAIL
  6
CONTINUOUS
 62
     5
 10
61.240591999999992
 20
159.4852149999999
 30
0.0
 40
0.6491940000000001
 50
0.0
 51
90.0
  0
ARC
  8
DETAIL
  6
CONTINUOUS
 62
     5
 10
68.598117999999999
 20
159.4852149999999
 30
0.0
 40
0.6491940000000001
 50
90.0
 51
180.0
  0
LINE
  8
DETAIL
  6
CONTINUOUS
 62
     5
 10
61.889785000000018
 20
151.47849500000001
 30
0.0
 11
67.948925000000031
 21
151.47849500000001
 31
0.0
  0
ARC
  8
DETAIL
  6
CONTINUOUS
 62
     5
 10
68.598117999999999
 20
159.4852149999999
 30
0.0
 40
0.6491940000000001
 50
90.0
 51
180.0
  0
ARC
  8
DETAIL
  6
CONTINUOUS
 62
     5
 10
69.896505999999988
 20
159.4852149999999
 30
0.0
 40
0.6491940000000001
 50
0.0
 51
90.0
  0
ARC
  8
DETAIL
  6
CONTINUOUS
 62
     5
 10
77.254031999999995
 20
159.4852149999999
 30
0.0
 40
0.6491940000000001
 50
90.0
 51
180.0
  0
LINE
  8
DETAIL
  6
CONTINUOUS
 62
     5
 10
70.545699000000013
 20
151.47849500000001
 30
0.0
 11
76.60483899999997
 21
151.47849500000001
 31
0.0
  0
ARC
  8
DETAIL
  6
CONTINUOUS
 62
     5
 10
77.254031999999995
 20
159.4852149999999
 30
0.0
 40
0.6491940000000001
 50
90.0
 51
180.0
  0
ARC
  8
DETAIL
  6
CONTINUOUS
 62
     5
 10
78.552419999999984
 20
159.4852149999999
 30
0.0
 40
0.6491940000000001
 50
0.0
 51
90.0
  0
ARC
  8
DETAIL
  6
CONTINUOUS
 62
     5
 10
85.909945999999991
 20
159.4852149999999
 30
0.0
 40
0.6491940000000001
 50
90.0
 51
180.0
  0
LINE
  8
DETAIL
  6
CONTINUOUS
 62
     5
 10
79.201612999999952
 20
151.47849500000001
 30
0.0
 11
85.260752999999966
 21
151.47849500000001
 31
0.0
  0
ARC
  8
DETAIL
  6
CONTINUOUS
 62
     5
 10
85.909945999999991
 20
159.4852149999999
 30
0.0
 40
0.6491940000000001
 50
90.0
 51
180.0
  0
ARC
  8
DETAIL
  6
CONTINUOUS
 62
     5
 10
86.559140000000014
 20
149.74731199999991
 30
0.0
 40
1.947581
 50
131.81031499999929
 51
228.18968500000059
  0
LINE
  8
DETAIL
  6
CONTINUOUS
 62
     5
 10
53.233871000000022
 20
142.82258100000001
 30
0.0
 11
59.293010999999979
 21
142.82258100000001
 31
0.0
  0
LINE
  8
DETAIL
  6
CONTINUOUS
 62
     5
 10
61.889785000000018
 20
142.82258100000001
 30
0.0
 11
67.948925000000031
 21
142.82258100000001
 31
0.0
  0
LINE
  8
DETAIL
  6
CONTINUOUS
 62
     5
 10
70.545699000000013
 20
142.82258100000001
 30
0.0
 11
76.60483899999997
 21
142.82258100000001
 31
0.0
  0
LINE
  8
DETAIL
  6
CONTINUOUS
 62
     5
 10
79.201612999999952
 20
142.82258100000001
 30
0.0
 11
85.260752999999966
 21
142.82258100000001
 31
0.0
  0
ARC
  8
DETAIL
  6
CONTINUOUS
 62
     5
 10
87.208333999999979
 20
159.4852149999999
 30
0.0
 40
0.6491940000000001
 50
0.0
 51
90.0
  0
ARC
  8
DETAIL
  6
CONTINUOUS
 62
     5
 10
94.565859999999986
 20
159.4852149999999
 30
0.0
 40
0.6491940000000001
 50
90.0
 51
180.0
  0
LINE
  8
DETAIL
  6
CONTINUOUS
 62
     5
 10
87.857527000000005
 20
151.47849500000001
 30
0.0
 11
93.916667000000018
 21
151.47849500000001
 31
0.0
  0
ARC
  8
DETAIL
  6
CONTINUOUS
 62
     5
 10
94.565859999999986
 20
159.4852149999999
 30
0.0
 40
0.6491940000000001
 50
90.0
 51
180.0
  0
LINE
  8
DETAIL
  6
CONTINUOUS
 62
     5
 10
87.857527000000005
 20
142.82258100000001
 30
0.0
 11
93.916667000000018
 21
142.82258100000001
 31
0.0
  0
ARC
  8
DETAIL
  6
CONTINUOUS
 62
     5
 10
86.559140000000014
 20
149.74731199999991
 30
0.0
 40
1.947581
 50
311.81031499999932
 51
48.189685000000651
  0
ARC
  8
DETAIL
  6
CONTINUOUS
 62
     5
 10
0.0
 20
0.0
 30
0.0
 40
141.09139799999991
 50
24.350121000000389
 51
29.761619999999731
  0
LINE
  8
DETAIL
  6
CONTINUOUS
 62
     5
 10
105.169355
 20
102.5725809999999
 30
0.0
 11
111.257785
 21
102.5725809999999
 31
0.0
  0
LINE
  8
DETAIL
  6
CONTINUOUS
 62
     5
 10
111.228495
 20
105.169355
 30
0.0
 11
105.169355
 21
105.169355
 31
0.0
  0
LINE
  8
DETAIL
  6
CONTINUOUS
 62
     5
 10
113.82526899999991
 20
102.5725809999999
 30
0.0
 11
119.9136989999997
 21
102.5725809999999
 31
0.0
  0
LINE
  8
DETAIL
  6
CONTINUOUS
 62
     5
 10
119.88440900000001
 20
105.169355
 30
0.0
 11
113.82526899999991
 21
105.169355
 31
0.0
  0
LINE
  8
DETAIL
  6
CONTINUOUS
 62
     5
 10
128.540323
 20
105.169355
 30
0.0
 11
122.4811829999999
 21
105.169355
 31
0.0
  0
LINE
  8
DETAIL
  6
CONTINUOUS
 62
     5
 10
122.4811829999999
 20
102.5725809999999
 30
0.0
 11
128.56961299999961
 21
102.5725809999999
 31
0.0
  0
ARC
  8
DETAIL
  6
CONTINUOUS
 62
     5
 10
0.0
 20
0.0
 30
0.0
 40
141.09139799999991
 50
37.969016999999432
 51
41.806637999999523
  0
ARC
  8
DETAIL
  6
CONTINUOUS
 62
     5
 10
0.0
 20
0.0
 30
0.0
 40
141.09139799999991
 50
31.821679000001431
 51
36.220547000000963
  0
ARC
  8
DETAIL
  6
CONTINUOUS
 62
     5
 10
103.2217739999999
 20
159.4852149999999
 30
0.0
 40
0.6491940000000001
 50
90.0
 51
180.0
  0
ARC
  8
DETAIL
  6
CONTINUOUS
 62
     5
 10
103.2217739999999
 20
159.4852149999999
 30
0.0
 40
0.6491940000000001
 50
90.0
 51
180.0
  0
ARC
  8
DETAIL
  6
CONTINUOUS
 62
     5
 10
104.520162
 20
159.4852149999999
 30
0.0
 40
0.6491940000000001
 50
0.0
 51
90.0
  0
ARC
  8
DETAIL
  6
CONTINUOUS
 62
     5
 10
111.87768799999991
 20
159.4852149999999
 30
0.0
 40
0.6491940000000001
 50
90.0
 51
180.0
  0
LINE
  8
DETAIL
  6
CONTINUOUS
 62
     5
 10
105.169355
 20
151.47849500000001
 30
0.0
 11
111.228495
 21
151.47849500000001
 31
0.0
  0
ARC
  8
DETAIL
  6
CONTINUOUS
 62
     5
 10
111.87768799999991
 20
159.4852149999999
 30
0.0
 40
0.6491940000000001
 50
90.0
 51
180.0
  0
ARC
  8
DETAIL
  6
CONTINUOUS
 62
     5
 10
113.1760759999999
 20
159.4852149999999
 30
0.0
 40
0.6491940000000001
 50
0.0
 51
90.0
  0
ARC
  8
DETAIL
  6
CONTINUOUS
 62
     5
 10
120.533602
 20
159.4852149999999
 30
0.0
 40
0.6491940000000001
 50
90.0
 51
180.0
  0
LINE
  8
DETAIL
  6
CONTINUOUS
 62
     5
 10
113.82526899999991
 20
151.47849500000001
 30
0.0
 11
119.88440900000001
 21
151.47849500000001
 31
0.0
  0
LINE
  8
DETAIL
  6
CONTINUOUS
 62
     5
 10
122.4811829999999
 20
151.47849500000001
 30
0.0
 11
128.540323
 21
151.47849500000001
 31
0.0
  0
ARC
  8
DETAIL
  6
CONTINUOUS
 62
     5
 10
120.533602
 20
159.4852149999999
 30
0.0
 40
0.6491940000000001
 50
90.0
 51
180.0
  0
ARC
  8
DETAIL
  6
CONTINUOUS
 62
     5
 10
121.83199
 20
159.4852149999999
 30
0.0
 40
0.6491940000000001
 50
0.0
 51
90.0
  0
LINE
  8
DETAIL
  6
CONTINUOUS
 62
     5
 10
105.169355
 20
142.82258100000001
 30
0.0
 11
111.228495
 21
142.82258100000001
 31
0.0
  0
LINE
  8
DETAIL
  6
CONTINUOUS
 62
     5
 10
113.82526899999991
 20
142.82258100000001
 30
0.0
 11
119.88440900000001
 21
142.82258100000001
 31
0.0
  0
LINE
  8
DETAIL
  6
CONTINUOUS
 62
     5
 10
124.21236599999961
 20
144.5537639999996
 30
0.0
 11
124.21236599999961
 21
151.47849500000001
 31
0.0
  0
ARC
  8
DETAIL
  6
CONTINUOUS
 62
     5
 10
122.4811829999999
 20
144.5537639999996
 30
0.0
 40
1.731182999999997
 50
270.0
 51
0.0
  0
LINE
  8
SIZE
  6
CONTINUOUS
 62
    30
 10
161.0
 20
162.0
 30
0.0
 11
161.0
 21
292.9195729999999
 31
0.0
  0
LINE
  8
SIZE
  6
CONTINUOUS
 62
    30
 10
-161.0
 20
162.0
 30
0.0
 11
-161.0
 21
292.9195729999999
 31
0.0
  0
LINE
  8
SIZE
  6
CONTINUOUS
 62
    30
 10
149.0
 20
272.91957300000001
 30
0.0
 11
-149.0
 21
272.91957300000001
 31
0.0
  0
CIRCLE
  8
SIZE
  6
CONTINUOUS
 62
    30
 10
161.0
 20
272.91957300000001
 30
0.0
 40
6.0
  0
LINE
  8
SIZE
  6
CONTINUOUS
 62
    30
 10
161.0
 20
272.91957300000001
 30
0.0
 11
149.0
 21
272.91957300000001
 31
0.0
  0
CIRCLE
  8
SIZE
  6
CONTINUOUS
 62
    30
 10
-161.0
 20
272.91957300000001
 30
0.0
 40
6.0
  0
LINE
  8
SIZE
  6
CONTINUOUS
 62
    30
 10
-161.0
 20
272.91957300000001
 30
0.0
 11
-149.0
 21
272.91957300000001
 31
0.0
  0
TEXT
  8
SIZE
  6
CONTINUOUS
 62
    30
 10
-110.5371428571428
 20
297.91957300000001
 30
0.0
 40
64.0
  1
□322
 41
0.9
 72
     1
 11
0.0
 21
297.91957300000001
 31
0.0
  0
LINE
  8
OUTLINE
  6
CONTINUOUS
 62
     3
 10
-161.0
 20
142.0
 30
0.0
 11
-161.0
 21
-142.0
 31
0.0
  0
LINE
  8
OUTLINE
  6
CONTINUOUS
 62
     3
 10
-142.0
 20
-161.0
 30
0.0
 11
142.0
 21
-161.0
 31
0.0
  0
LINE
  8
OUTLINE
  6
CONTINUOUS
 62
     3
 10
161.0
 20
142.0
 30
0.0
 11
161.0
 21
-142.0
 31
0.0
  0
ARC
  8
OUTLINE
  6
CONTINUOUS
 62
     3
 10
142.0
 20
142.0
 30
0.0
 40
19.0
 50
0.0
 51
90.0
  0
ARC
  8
OUTLINE
  6
CONTINUOUS
 62
     3
 10
-142.0
 20
142.0
 30
0.0
 40
19.0
 50
90.0
 51
180.0
  0
ARC
  8
OUTLINE
  6
CONTINUOUS
 62
     3
 10
142.0
 20
-142.0
 30
0.0
 40
19.0
 50
270.0
 51
0.0
  0
ARC
  8
OUTLINE
  6
CONTINUOUS
 62
     3
 10
-142.0
 20
-142.0
 30
0.0
 40
19.0
 50
180.0
 51
270.0
  0
LINE
  8
OUTLINE
  6
CONTINUOUS
 62
     3
 10
-142.0
 20
161.0
 30
0.0
 11
142.0
 21
161.0
 31
0.0
  0
LINE
  8
NOTE
  6
CONTINUOUS
 62
     4
 10
-181.0
 20
-96.0
 30
0.0
 11
-141.0
 21
-96.0
 31
0.0
  0
TEXT
  8
NOTE
  6
CONTINUOUS
 62
     4
 10
-352.10744499999993
 20
-138.48155099999991
 30
0.0
 40
64.0
  1
EL
 41
0.9
  0
LINE
  8
NOTE
  6
CONTINUOUS
 62
     4
 10
-377.75507799999991
 20
-166.280529
 30
0.0
 11
-255.2932999999999
 21
-166.280529
 31
0.0
  0
LINE
  8
NOTE
  6
CONTINUOUS
 62
     4
 10
-255.2932999999999
 20
-166.280529
 30
0.0
 11
-161.0
 21
-96.0
 31
0.0
  0
LINE
  8
NOTE
  6
CONTINUOUS
 62
     4
 10
-185.7010139999999
 20
-127.4620389999999
 30
0.0
 11
-161.0
 21
-96.0
 31
0.0
  0
LINE
  8
NOTE
  6
CONTINUOUS
 62
     4
 10
-161.0
 20
-96.0
 30
0.0
 11
-198.122725
 21
-110.896418
 31
0.0
  0
TEXT
  8
ETC
  6
CONTINUOUS
 62
    61
 10
425.51634268907372
 20
210.10259596674189
 30
0.0
 40
50.0
  1
EFG-20KSB2-P
 41
0.9
  0
TEXT
  8
ETC
  6
CONTINUOUS
 62
    61
 10
296.81604074595771
 20
392.8608027226403
 30
0.0
 40
64.0
  1
EFG-20KSB2-P_2
 41
0.9
  0
TEXT
  8
ETC
  6
CONTINUOUS
 62
    61
 10
288.9003337459576
 20
295.26906772263987
 30
0.0
 40
64.0
  1
産業扇
 41
0.9
  0
ENDSEC
  0
EOF
