  0
SECTION
  2
HEADER
  9
$ACADVER
  1
AC1009
  9
$DWGCODEPAGE
  3
dos932
  9
$INSBASE
 10
0.0
 20
0.0
 30
0.0
  9
$EXTMIN
 10
-328.55985858310117
 20
-267.24241972812712
 30
-0.0015257624927045
  9
$EXTMAX
 10
1275.718700822579
 20
604.66004221776893
 30
0.0022888765696933
  9
$LIMMIN
 10
-2970.0
 20
-2100.0
  9
$LIMMAX
 10
2970.0
 20
2100.0
  9
$ORTHOMODE
 70
     1
  9
$REGENMODE
 70
     1
  9
$FILLMODE
 70
     1
  9
$QTEXTMODE
 70
     0
  9
$MIRRTEXT
 70
     0
  9
$LTSCALE
 40
20.0
  9
$ATTMODE
 70
     1
  9
$TEXTSIZE
 40
64.0
  9
$TRACEWID
 40
0.05
  9
$TEXTSTYLE
  7
STANDARD
  9
$CLAYER
  8
SIZE
  9
$CELTYPE
  6
CONTINUOUS
  9
$CECOLOR
 62
     7
  9
$DIMSCALE
 40
1.0
  9
$DIMASZ
 40
12.0
  9
$DIMEXO
 40
20.0
  9
$DIMDLI
 40
200.0
  9
$DIMRND
 40
0.0
  9
$DIMDLE
 40
0.0
  9
$DIMEXE
 40
20.0
  9
$DIMTP
 40
0.0
  9
$DIMTM
 40
0.0
  9
$DIMTXT
 40
64.0
  9
$DIMCEN
 40
0.09
  9
$DIMTSZ
 40
0.0
  9
$DIMTOL
 70
     0
  9
$DIMLIM
 70
     0
  9
$DIMTIH
 70
     0
  9
$DIMTOH
 70
     0
  9
$DIMSE1
 70
     0
  9
$DIMSE2
 70
     0
  9
$DIMTAD
 70
     1
  9
$DIMZIN
 70
     8
  9
$DIMBLK
  1

  9
$DIMASO
 70
     1
  9
$DIMSHO
 70
     0
  9
$DIMPOST
  1

  9
$DIMAPOST
  1

  9
$DIMALT
 70
     0
  9
$DIMALTD
 70
     2
  9
$DIMALTF
 40
25.399999999999999
  9
$DIMLFAC
 40
1.0
  9
$DIMTOFL
 70
     1
  9
$DIMTVP
 40
0.0
  9
$DIMTIX
 70
     1
  9
$DIMSOXD
 70
     0
  9
$DIMSAH
 70
     0
  9
$DIMBLK1
  1

  9
$DIMBLK2
  1

  9
$DIMSTYLE
  2
STANDARD
  9
$DIMCLRD
 70
     7
  9
$DIMCLRE
 70
     7
  9
$DIMCLRT
 70
     7
  9
$DIMTFAC
 40
1.0
  9
$DIMGAP
 40
25.0
  9
$LUNITS
 70
     2
  9
$LUPREC
 70
     4
  9
$SKETCHINC
 40
0.1
  9
$FILLETRAD
 40
3.0
  9
$AUNITS
 70
     1
  9
$AUPREC
 70
     3
  9
$MENU
  1
ACAD
  9
$ELEVATION
 40
0.0
  9
$PELEVATION
 40
0.0
  9
$THICKNESS
 40
50.0
  9
$LIMCHECK
 70
     0
  9
$CHAMFERA
 40
0.0
  9
$CHAMFERB
 40
0.0
  9
$SKPOLY
 70
     0
  9
$TDCREATE
 40
2453019.62301037
  9
$TDUPDATE
 40
2458949.429416609
  9
$TDINDWG
 40
1.7133608912
  9
$TDUSRTIMER
 40
1.7133608912
  9
$USRTIMER
 70
     1
  9
$ANGBASE
 50
0.0
  9
$ANGDIR
 70
     0
  9
$PDMODE
 70
     3
  9
$PDSIZE
 40
-2.0
  9
$PLINEWID
 40
0.0
  9
$SPLFRAME
 70
     0
  9
$SPLINETYPE
 70
     6
  9
$SPLINESEGS
 70
     8
  9
$SURFTAB1
 70
     6
  9
$SURFTAB2
 70
     6
  9
$SURFTYPE
 70
     6
  9
$SURFU
 70
     6
  9
$SURFV
 70
     6
  9
$UCSNAME
  2

  9
$UCSORG
 10
0.0
 20
0.0
 30
0.0
  9
$UCSXDIR
 10
1.0
 20
0.0
 30
0.0
  9
$UCSYDIR
 10
0.0
 20
1.0
 30
0.0
  9
$PUCSNAME
  2

  9
$PUCSORG
 10
0.0
 20
0.0
 30
0.0
  9
$PUCSXDIR
 10
1.0
 20
0.0
 30
0.0
  9
$PUCSYDIR
 10
0.0
 20
1.0
 30
0.0
  9
$USERI1
 70
     0
  9
$USERI2
 70
     0
  9
$USERI3
 70
     0
  9
$USERI4
 70
     0
  9
$USERI5
 70
     0
  9
$USERR1
 40
20.0
  9
$USERR2
 40
0.0
  9
$USERR3
 40
0.0
  9
$USERR4
 40
0.0
  9
$USERR5
 40
0.0
  9
$WORLDVIEW
 70
     1
  9
$SHADEDGE
 70
     3
  9
$SHADEDIF
 70
    70
  9
$TILEMODE
 70
     1
  9
$MAXACTVP
 70
    48
  9
$PINSBASE
 10
0.0
 20
0.0
 30
0.0
  9
$PLIMCHECK
 70
     0
  9
$PEXTMIN
 10
-100000000000000000000.0
 20
-100000000000000000000.0
 30
-100000000000000000000.0
  9
$PEXTMAX
 10
100000000000000000000.0
 20
100000000000000000000.0
 30
100000000000000000000.0
  9
$PLIMMIN
 10
0.0
 20
0.0
  9
$PLIMMAX
 10
12.0
 20
9.0
  9
$UNITMODE
 70
     0
  9
$VISRETAIN
 70
     0
  9
$PLINEGEN
 70
     0
  9
$PSLTSCALE
 70
     0
  9
$TREEDEPTH
 70
  3020
  9
$ATTDIA
 70
     0
  9
$ATTREQ
 70
     1
  9
$BLIPMODE
 70
     1
  9
$COORDS
 70
     1
  9
$DRAGMODE
 70
     2
  9
$OSMODE
 70
     0
  9
$HANDLING
 70
     0
  9
$HANDSEED
  5
FADF
  0
ENDSEC
  0
SECTION
  2
TABLES
  0
TABLE
  2
LTYPE
 70
     2
  0
LTYPE
  2
CONTINUOUS
 70
     0
  3
実線
 72
    65
 73
     0
 40
0.0
  0
LTYPE
  2
DASHDOT
 70
     0
  3
____ _ ____ _ ____ _ ____ _ ____ _ ____ _ ____
 72
    65
 73
     4
 40
5.5
 49
4.0
 49
-0.6
 49
0.3
 49
-0.6
  0
ENDTAB
  0
TABLE
  2
LAYER
 70
    12
  0
LAYER
  2
0
 70
     0
 62
     7
  6
CONTINUOUS
  0
LAYER
  2
BASIS
 70
     0
 62
     6
  6
DASHDOT
  0
LAYER
  2
OUTLINE
 70
     0
 62
     3
  6
CONTINUOUS
  0
LAYER
  2
DETAIL
 70
     0
 62
     5
  6
CONTINUOUS
  0
LAYER
  2
SIZE
 70
     0
 62
    30
  6
CONTINUOUS
  0
LAYER
  2
ARRANGE
 70
     0
 62
     1
  6
CONTINUOUS
  0
LAYER
  2
ETC
 70
     0
 62
    61
  6
CONTINUOUS
  0
LAYER
  2
FIX
 70
     0
 62
    11
  6
CONTINUOUS
  0
LAYER
  2
NOTE
 70
     0
 62
     4
  6
CONTINUOUS
  0
LAYER
  2
DEFPOINTS
 70
    64
 62
     7
  6
CONTINUOUS
  0
LAYER
  2
SERVICESPACE
 70
    64
 62
     2
  6
DASHDOT
  0
LAYER
  2
SYMBOLLINE
 70
    64
 62
    15
  6
CONTINUOUS
  0
ENDTAB
  0
TABLE
  2
STYLE
 70
     1
  0
STYLE
  2
STANDARD
 70
     0
 40
64.0
 41
0.9
 50
0.0
 71
     0
 42
64.0
  3
SIMPLEX.shx
  4
BIGFONT.shx
  0
ENDTAB
  0
TABLE
  2
APPID
 70
    19
  0
APPID
  2
ACAD
 70
     0
  0
APPID
  2
AUTOCAD_POSTSCRIPT_FIGURE
 70
     0
  0
APPID
  2
ACAD_EXEMPT_FROM_CAD_STANDARDS
 70
     0
  0
APPID
  2
ACAD_PSEXT
 70
     0
  0
APPID
  2
ACAUTHENVIRON
 70
     0
  0
APPID
  2
GENIUS_GENOENT_13
 70
     0
  0
APPID
  2
GENIUS_GENCFG_13
 70
     0
  0
APPID
  2
GENIUS_GENCFG0_13
 70
     0
  0
APPID
  2
GENIUS_GENCFG1_13
 70
     0
  0
APPID
  2
GENIUS_GENCFG2_13
 70
     0
  0
APPID
  2
GENIUS_GENCFG3_13
 70
     0
  0
APPID
  2
GENIUS_GENCFG4_13
 70
     0
  0
APPID
  2
GENIUS_GEVCFG0_13
 70
     0
  0
APPID
  2
CONTENTBLOCKICON
 70
     0
  0
APPID
  2
CONTENTBLOCKDESCRIPTION
 70
     0
  0
APPID
  2
ACAD_NAV_VCDISPLAY
 70
     0
  0
APPID
  2
ACAD_MLEADERVER
 70
     0
  0
APPID
  2
ACDBDYNAMICBLOCKTRUENAME
 70
     0
  0
APPID
  2
ACDBDYNAMICBLOCKGUID
 70
     0
  0
ENDTAB
  0
TABLE
  2
DIMSTYLE
 70
     1
  0
DIMSTYLE
  2
STANDARD
 70
     0
  3

  4

  5
_ORIGIN
  6

  7

 40
1.0
 41
12.0
 42
20.0
 43
200.0
 44
20.0
 45
0.0
 46
0.0
 47
0.0
 48
0.0
140
64.0
141
0.09
142
0.0
143
25.399999999999999
144
1.0
145
0.0
146
1.0
147
25.0
 71
     0
 72
     0
 73
     0
 74
     0
 75
     0
 76
     0
 77
     1
 78
     8
170
     0
171
     2
172
     1
173
     0
174
     1
175
     0
176
     7
177
     7
178
     7
  0
ENDTAB
  0
TABLE
  2
VIEW
 70
     1
  0
VIEW
  2
ALL
 70
     0
 40
4282.6198079999986
 10
0.0
 20
41.309904000000003
 41
5940.0
 11
0.0
 21
0.0
 31
1.0
 12
0.0
 22
0.0
 32
0.0
 42
50.0
 43
0.0
 44
0.0
 50
0.0
 71
     0
  0
ENDTAB
  0
TABLE
  2
UCS
 70
     0
  0
ENDTAB
  0
TABLE
  2
VPORT
 70
     1
  0
VPORT
  2
*ACTIVE
 70
     0
 10
0.0
 20
0.0
 11
1.0
 21
1.0
 12
473.57942111973892
 22
168.70881124482099
 13
0.0
 23
0.0
 14
1.0
 24
1.0
 15
0.0
 25
0.0
 16
0.0
 26
0.0
 36
1.0
 17
0.0
 27
0.0
 37
0.0
 40
921.37283441807494
 41
1.747787610619469
 42
50.0
 43
0.0
 44
0.0
 50
0.0
 51
0.0
 71
     0
 72
  1000
 73
     1
 74
     3
 75
     0
 76
     0
 77
     0
 78
     0
  0
ENDTAB
  0
ENDSEC
  0
SECTION
  2
BLOCKS
  0
BLOCK
  8
0
  2
_ORIGIN
 70
     0
 10
0.0
 20
0.0
 30
0.0
  3
_ORIGIN
  1
_ORIGIN
  0
CIRCLE
  8
0
  6
CONTINUOUS
 62
     7
 10
0.0
 20
0.0
 30
0.0
 40
0.5
  0
LINE
  8
0
  6
CONTINUOUS
 62
     7
 10
0.0
 20
0.0
 30
0.0
 11
-1.0
 21
0.0
 31
0.0
  0
ENDBLK
  8
0
  0
ENDSEC
  0
SECTION
  2
ENTITIES
  0
LINE
  8
BASIS
  6
DASHDOT
 62
     6
 10
-130.85633300000001
 20
0.0
 30
0.0
 11
216.25254199999989
 21
0.0
 31
0.0
  0
LINE
  8
DETAIL
  6
CONTINUOUS
 62
     5
 10
0.0
 20
161.0
 30
0.0
 11
0.0
 21
-161.0
 31
0.0
  0
CIRCLE
  8
ARRANGE
  6
CONTINUOUS
 62
     1
 10
0.0
 20
0.0
 30
0.0
 40
40.0
  0
POINT
  8
ARRANGE
  6
CONTINUOUS
 62
     1
 10
0.0
 20
0.0
 30
0.0
  0
LINE
  8
DETAIL
  6
CONTINUOUS
 62
     5
 10
155.0
 20
122.0
 30
0.0
 11
155.0
 21
-122.0
 31
0.0
  0
LINE
  8
DETAIL
  6
CONTINUOUS
 62
     5
 10
0.0
 20
122.0
 30
0.0
 11
155.0
 21
122.0
 31
0.0
  0
LINE
  8
DETAIL
  6
CONTINUOUS
 62
     5
 10
0.0
 20
-122.0
 30
0.0
 11
155.0
 21
-122.0
 31
0.0
  0
LINE
  8
DETAIL
  6
CONTINUOUS
 62
     5
 10
-30.0
 20
161.0
 30
0.0
 11
0.0
 21
161.0
 31
0.0
  0
LINE
  8
DETAIL
  6
CONTINUOUS
 62
     5
 10
-30.0
 20
-161.0
 30
0.0
 11
0.0
 21
-161.0
 31
0.0
  0
LINE
  8
DETAIL
  6
CONTINUOUS
 62
     5
 10
148.0
 20
90.0
 30
0.0
 11
148.0
 21
-90.0
 31
0.0
  0
LINE
  8
DETAIL
  6
CONTINUOUS
 62
     5
 10
128.0
 20
90.0
 30
0.0
 11
128.0
 21
-90.0
 31
0.0
  0
LINE
  8
DETAIL
  6
CONTINUOUS
 62
     5
 10
128.0
 20
90.0
 30
0.0
 11
148.0
 21
90.0
 31
0.0
  0
LINE
  8
DETAIL
  6
CONTINUOUS
 62
     5
 10
128.0
 20
-90.0
 30
0.0
 11
148.0
 21
-90.0
 31
0.0
  0
ARC
  8
DETAIL
  6
CONTINUOUS
 62
     5
 10
-30.939753
 20
98.996233000000075
 30
0.0
 40
14.201112
 50
94.281652999999807
 51
121.0610409999982
  0
ARC
  8
DETAIL
  6
CONTINUOUS
 62
     5
 10
-34.142155000000002
 20
92.517245000000003
 30
0.0
 40
13.332566
 50
166.35690600000541
 51
226.1051599999968
  0
ARC
  8
DETAIL
  6
CONTINUOUS
 62
     5
 10
-59.742463999999977
 20
42.198924999999917
 30
0.0
 40
43.874321000000002
 50
50.778751999997503
 51
68.110846000006262
  0
ARC
  8
DETAIL
  6
CONTINUOUS
 62
     5
 10
-21.257740000000009
 20
91.202352000000019
 30
0.0
 40
26.223708999999989
 50
130.43765400000481
 51
170.20796099999529
  0
LINE
  8
DETAIL
  6
CONTINUOUS
 62
     5
 10
-44.826281999999992
 20
130.851099
 30
0.0
 11
-30.0
 21
130.851099
 31
0.0
  0
ARC
  8
DETAIL
  6
CONTINUOUS
 62
     5
 10
-32.766721999999959
 20
100.702198
 30
0.0
 40
60.297802000000011
 50
90.0
 51
119.3427990000002
  0
ARC
  8
DETAIL
  6
CONTINUOUS
 62
     5
 10
-47.540700000000022
 20
126.98309999999969
 30
0.0
 40
30.148900999999999
 50
119.3427990000002
 51
178.2572120000047
  0
ARC
  8
DETAIL
  6
CONTINUOUS
 62
     5
 10
-44.826281999999992
 20
120.80146499999979
 30
0.0
 40
10.049633999999999
 50
90.0
 51
180.0
  0
LINE
  8
DETAIL
  6
CONTINUOUS
 62
     5
 10
-54.875916000000018
 20
120.80146499999979
 30
0.0
 11
-54.875916000000018
 21
-120.80146499999979
 31
0.0
  0
ARC
  8
DETAIL
  6
CONTINUOUS
 62
     5
 10
213.72432499999999
 20
25.789657999999921
 30
0.0
 40
262.52576399999998
 50
184.9457300000017
 51
200.6095629999962
  0
ARC
  8
DETAIL
  6
CONTINUOUS
 62
     5
 10
116.405485
 20
-133.09211199999979
 30
0.0
 40
167.63934699999979
 50
159.85377599999691
 51
167.8606229999946
  0
ARC
  8
DETAIL
  6
CONTINUOUS
 62
     5
 10
112.3000389999996
 20
-138.7103709999999
 30
0.0
 40
162.82268400000001
 50
154.16756500000429
 51
165.63784700000511
  0
ARC
  8
DETAIL
  6
CONTINUOUS
 62
     5
 10
-46.455015000000003
 20
-98.060776999999916
 30
0.0
 40
1.053901999999999
 50
167.86036700000349
 51
345.63784200000617
  0
ARC
  8
DETAIL
  6
CONTINUOUS
 62
     5
 10
956.55963999999994
 20
-444.29971499999988
 30
0.0
 40
1063.9845199999991
 50
158.7310759999973
 51
159.7027509999993
  0
ARC
  8
DETAIL
  6
CONTINUOUS
 62
     5
 10
364.26465099999962
 20
-268.76972399999983
 30
0.0
 40
446.34007599999978
 50
152.7963509999953
 51
153.23403899999369
  0
ARC
  8
DETAIL
  6
CONTINUOUS
 62
     5
 10
-45.623780000000011
 20
3.3471239999998939
 30
0.0
 40
2.208175999999999
 50
19.108464000005849
 51
184.9464950000029
  0
ARC
  8
DETAIL
  6
CONTINUOUS
 62
     5
 10
13.171194000000011
 20
23.71668
 30
0.0
 40
60.015371999999999
 50
199.10848199999461
 51
221.17864200000281
  0
ARC
  8
DETAIL
  6
CONTINUOUS
 62
     5
 10
-32.766721999999959
 20
-100.702198
 30
0.0
 40
60.297802000000011
 50
240.6572009999997
 51
270.0
  0
ARC
  8
DETAIL
  6
CONTINUOUS
 62
     5
 10
-47.540700000000022
 20
-126.98309999999969
 30
0.0
 40
30.148900999999999
 50
181.7427879999953
 51
240.6572009999997
  0
ARC
  8
DETAIL
  6
CONTINUOUS
 62
     5
 10
-44.826281999999992
 20
-120.80146499999979
 30
0.0
 40
10.049633999999999
 50
180.0
 51
270.0
  0
LINE
  8
DETAIL
  6
CONTINUOUS
 62
     5
 10
-30.0
 20
161.0
 30
0.0
 11
-30.0
 21
130.851099
 31
0.0
  0
LINE
  8
DETAIL
  6
CONTINUOUS
 62
     5
 10
-30.0
 20
161.0
 30
0.0
 11
-32.766721999999959
 21
161.0
 31
0.0
  0
LINE
  8
DETAIL
  6
CONTINUOUS
 62
     5
 10
-44.826281999999992
 20
-130.851099
 30
0.0
 11
-30.0
 21
-130.851099
 31
0.0
  0
LINE
  8
DETAIL
  6
CONTINUOUS
 62
     5
 10
-77.675655000000006
 20
127.900009
 30
0.0
 11
-80.0
 21
0.0
 31
0.0
  0
LINE
  8
DETAIL
  6
CONTINUOUS
 62
     5
 10
-80.0
 20
0.0
 30
0.0
 11
-77.675655000000006
 21
-127.900009
 31
0.0
  0
LINE
  8
SIZE
  6
CONTINUOUS
 62
    30
 10
175.0
 20
122.0
 30
0.0
 11
373.0652
 21
122.0
 31
0.0
  0
LINE
  8
SIZE
  6
CONTINUOUS
 62
    30
 10
175.0
 20
-122.0
 30
0.0
 11
373.0652
 21
-122.0
 31
0.0
  0
LINE
  8
SIZE
  6
CONTINUOUS
 62
    30
 10
353.06519999999978
 20
122.0
 30
0.0
 11
353.06519999999978
 21
-122.0
 31
0.0
  0
CIRCLE
  8
SIZE
  6
CONTINUOUS
 62
    30
 10
353.06519999999978
 20
122.0
 30
0.0
 40
6.0
  0
CIRCLE
  8
SIZE
  6
CONTINUOUS
 62
    30
 10
353.06519999999978
 20
-122.0
 30
0.0
 40
6.0
  0
TEXT
  8
SIZE
  6
CONTINUOUS
 62
    30
 10
328.06519999999989
 20
-111.90857142857141
 30
0.0
 40
64.0
  1
□244
 50
90.0
 41
0.9
 72
     1
 11
328.06519999999989
 21
0.0
 31
0.0
  0
LINE
  8
SIZE
  6
CONTINUOUS
 62
    30
 10
155.0
 20
140.0
 30
0.0
 11
155.0
 21
471.47384299999999
 31
0.0
  0
LINE
  8
SIZE
  6
CONTINUOUS
 62
    30
 10
0.0
 20
181.0
 30
0.0
 11
0.0
 21
471.47384299999999
 31
0.0
  0
LINE
  8
SIZE
  6
CONTINUOUS
 62
    30
 10
167.0
 20
451.47384299999999
 30
0.0
 11
179.0
 21
451.47384299999999
 31
0.0
  0
LINE
  8
SIZE
  6
CONTINUOUS
 62
    30
 10
-12.0
 20
451.47384299999999
 30
0.0
 11
-24.0
 21
451.47384299999999
 31
0.0
  0
LINE
  8
SIZE
  6
CONTINUOUS
 62
    30
 10
155.0
 20
451.47384299999999
 30
0.0
 11
0.0
 21
451.47384299999999
 31
0.0
  0
CIRCLE
  8
SIZE
  6
CONTINUOUS
 62
    30
 10
155.0
 20
451.47384299999999
 30
0.0
 40
6.0
  0
LINE
  8
SIZE
  6
CONTINUOUS
 62
    30
 10
155.0
 20
451.47384299999999
 30
0.0
 11
167.0
 21
451.47384299999999
 31
0.0
  0
CIRCLE
  8
SIZE
  6
CONTINUOUS
 62
    30
 10
0.0
 20
451.47384299999999
 30
0.0
 40
6.0
  0
LINE
  8
SIZE
  6
CONTINUOUS
 62
    30
 10
0.0
 20
451.47384299999999
 30
0.0
 11
-12.0
 21
451.47384299999999
 31
0.0
  0
TEXT
  8
SIZE
  6
CONTINUOUS
 62
    30
 10
8.9285714285714306
 20
476.47384299999999
 30
0.0
 40
64.0
  1
155
 41
0.9
 72
     1
 11
77.5
 21
476.47384299999999
 31
0.0
  0
LINE
  8
SIZE
  6
CONTINUOUS
 62
    30
 10
0.0
 20
181.0
 30
0.0
 11
0.0
 21
471.47384299999999
 31
0.0
  0
LINE
  8
SIZE
  6
CONTINUOUS
 62
    30
 10
-80.0
 20
20.0
 30
0.0
 11
-80.0
 21
471.47384299999999
 31
0.0
  0
LINE
  8
SIZE
  6
CONTINUOUS
 62
    30
 10
-12.0
 20
451.47384299999999
 30
0.0
 11
-68.0
 21
451.47384299999999
 31
0.0
  0
LINE
  8
SIZE
  6
CONTINUOUS
 62
    30
 10
-249.560272
 20
451.47384299999999
 30
0.0
 11
-80.0
 21
451.47384299999999
 31
0.0
  0
TEXT
  8
SIZE
  6
CONTINUOUS
 62
    30
 10
-224.56027242857101
 20
476.47384299999999
 30
0.0
 40
64.0
  1
80
 41
0.9
 72
     1
 11
-177.93170099999961
 21
476.47384299999999
 31
0.0
  0
CIRCLE
  8
SIZE
  6
CONTINUOUS
 62
    30
 10
0.0
 20
451.47384299999999
 30
0.0
 40
6.0
  0
LINE
  8
SIZE
  6
CONTINUOUS
 62
    30
 10
0.0
 20
451.47384299999999
 30
0.0
 11
-12.0
 21
451.47384299999999
 31
0.0
  0
CIRCLE
  8
SIZE
  6
CONTINUOUS
 62
    30
 10
-80.0
 20
451.47384299999999
 30
0.0
 40
6.0
  0
LINE
  8
SIZE
  6
CONTINUOUS
 62
    30
 10
-80.0
 20
451.47384299999999
 30
0.0
 11
-68.0
 21
451.47384299999999
 31
0.0
  0
LINE
  8
DETAIL
  6
CONTINUOUS
 62
     5
 10
-32.0
 20
130.851099
 30
0.0
 11
-32.0
 21
-130.851099
 31
0.0
  0
LINE
  8
DETAIL
  6
CONTINUOUS
 62
     5
 10
-30.0
 20
-161.0
 30
0.0
 11
-30.0
 21
-130.851099
 31
0.0
  0
LINE
  8
DETAIL
  6
CONTINUOUS
 62
     5
 10
-30.0
 20
-161.0
 30
0.0
 11
-32.766721999999959
 21
-161.0
 31
0.0
  0
LINE
  8
SIZE
  6
CONTINUOUS
 62
    30
 10
0.0
 20
181.0
 30
0.0
 11
0.0
 21
341.21253499999989
 31
0.0
  0
LINE
  8
SIZE
  6
CONTINUOUS
 62
    30
 10
-30.0
 20
181.0
 30
0.0
 11
-30.0
 21
341.21253499999989
 31
0.0
  0
LINE
  8
SIZE
  6
CONTINUOUS
 62
    30
 10
12.0
 20
321.21253499999989
 30
0.0
 11
24.0
 21
321.21253499999989
 31
0.0
  0
LINE
  8
SIZE
  6
CONTINUOUS
 62
    30
 10
-42.0
 20
321.21253499999989
 30
0.0
 11
-54.0
 21
321.21253499999989
 31
0.0
  0
LINE
  8
SIZE
  6
CONTINUOUS
 62
    30
 10
-249.560272
 20
321.21253499999989
 30
0.0
 11
-30.0
 21
321.21253499999989
 31
0.0
  0
TEXT
  8
SIZE
  6
CONTINUOUS
 62
    30
 10
-224.56027242857101
 20
346.21253499999972
 30
0.0
 40
64.0
  1
30
 41
0.9
 72
     1
 11
-177.93170099999961
 21
346.21253499999972
 31
0.0
  0
LINE
  8
SIZE
  6
CONTINUOUS
 62
    30
 10
0.0
 20
321.21253499999989
 30
0.0
 11
-30.0
 21
321.21253499999989
 31
0.0
  0
LINE
  8
SIZE
  6
CONTINUOUS
 62
    30
 10
0.0
 20
321.21253499999989
 30
0.0
 11
-30.0
 21
321.21253499999989
 31
0.0
  0
CIRCLE
  8
SIZE
  6
CONTINUOUS
 62
    30
 10
0.0
 20
321.21253499999989
 30
0.0
 40
6.0
  0
LINE
  8
SIZE
  6
CONTINUOUS
 62
    30
 10
0.0
 20
321.21253499999989
 30
0.0
 11
12.0
 21
321.21253499999989
 31
0.0
  0
CIRCLE
  8
SIZE
  6
CONTINUOUS
 62
    30
 10
-30.0
 20
321.21253499999989
 30
0.0
 40
6.0
  0
LINE
  8
SIZE
  6
CONTINUOUS
 62
    30
 10
-30.0
 20
321.21253499999989
 30
0.0
 11
-42.0
 21
321.21253499999989
 31
0.0
  0
CIRCLE
  8
FIX
  6
CONTINUOUS
 62
    11
 10
0.0
 20
140.0
 30
0.0
 40
5.0
  0
LINE
  8
NOTE
  6
CONTINUOUS
 62
     4
 10
0.0
 20
122.0
 30
0.0
 11
0.0
 21
160.0
 31
0.0
  0
LINE
  8
NOTE
  6
CONTINUOUS
 62
     4
 10
20.0
 20
140.0
 30
0.0
 11
-20.0
 21
140.0
 31
0.0
  0
LINE
  8
NOTE
  6
CONTINUOUS
 62
     4
 10
0.0
 20
-122.0
 30
0.0
 11
0.0
 21
-160.0
 31
0.0
  0
LINE
  8
NOTE
  6
CONTINUOUS
 62
     4
 10
20.0
 20
-140.0
 30
0.0
 11
-20.0
 21
-140.0
 31
0.0
  0
CIRCLE
  8
FIX
  6
CONTINUOUS
 62
    11
 10
0.0
 20
-140.0
 30
0.0
 40
5.0
  0
LINE
  8
NOTE
  6
CONTINUOUS
 62
     4
 10
0.0
 20
-140.0
 30
0.0
 11
97.951671000000033
 21
-266.93699199999992
 31
0.0
  0
LINE
  8
NOTE
  6
CONTINUOUS
 62
     4
 10
31.769255999999981
 20
-164.3046159999999
 30
0.0
 11
0.0
 21
-140.0
 31
0.0
  0
LINE
  8
NOTE
  6
CONTINUOUS
 62
     4
 10
0.0
 20
-140.0
 30
0.0
 11
15.360674000000021
 21
-176.933043
 31
0.0
  0
TEXT
  8
NOTE
  6
CONTINUOUS
 62
     4
 10
108.76402
 20
-243.0853259999999
 30
0.0
 40
64.0
  1
4-φ10
 41
0.9
  0
LINE
  8
NOTE
  6
CONTINUOUS
 62
     4
 10
97.951671000000033
 20
-266.93699199999992
 30
0.0
 11
413.95873099999989
 21
-266.93699199999992
 31
0.0
  0
LINE
  8
OUTLINE
  6
CONTINUOUS
 62
     3
 10
0.0
 20
-122.0
 30
0.0
 11
155.0
 21
-122.0
 31
0.0
  0
LINE
  8
OUTLINE
  6
CONTINUOUS
 62
     3
 10
0.0
 20
122.0
 30
0.0
 11
155.0
 21
122.0
 31
0.0
  0
LINE
  8
OUTLINE
  6
CONTINUOUS
 62
     3
 10
-32.0
 20
130.851099
 30
0.0
 11
-32.0
 21
-130.851099
 31
0.0
  0
LINE
  8
OUTLINE
  6
CONTINUOUS
 62
     3
 10
-77.675655000000006
 20
127.900009
 30
0.0
 11
-80.0
 21
0.0
 31
0.0
  0
LINE
  8
OUTLINE
  6
CONTINUOUS
 62
     3
 10
-54.875916000000018
 20
120.80146499999979
 30
0.0
 11
-54.875916000000018
 21
-120.80146499999979
 31
0.0
  0
LINE
  8
OUTLINE
  6
CONTINUOUS
 62
     3
 10
0.0
 20
161.0
 30
0.0
 11
0.0
 21
-161.0
 31
0.0
  0
LINE
  8
OUTLINE
  6
CONTINUOUS
 62
     3
 10
-30.0
 20
-161.0
 30
0.0
 11
-32.766721999999959
 21
-161.0
 31
0.0
  0
LINE
  8
OUTLINE
  6
CONTINUOUS
 62
     3
 10
-30.0
 20
-161.0
 30
0.0
 11
-30.0
 21
-130.851099
 31
0.0
  0
LINE
  8
OUTLINE
  6
CONTINUOUS
 62
     3
 10
-80.0
 20
0.0
 30
0.0
 11
-77.675655000000006
 21
-127.900009
 31
0.0
  0
LINE
  8
OUTLINE
  6
CONTINUOUS
 62
     3
 10
-44.826281999999992
 20
-130.851099
 30
0.0
 11
-30.0
 21
-130.851099
 31
0.0
  0
ARC
  8
OUTLINE
  6
CONTINUOUS
 62
     3
 10
-44.826281999999992
 20
-120.80146499999979
 30
0.0
 40
10.049633999999999
 50
180.0
 51
270.0
  0
ARC
  8
OUTLINE
  6
CONTINUOUS
 62
     3
 10
-47.540700000000022
 20
-126.98309999999969
 30
0.0
 40
30.148900999999999
 50
181.7427879999953
 51
240.6572009999997
  0
ARC
  8
OUTLINE
  6
CONTINUOUS
 62
     3
 10
-32.766721999999959
 20
-100.702198
 30
0.0
 40
60.297802000000011
 50
240.6572009999997
 51
270.0
  0
LINE
  8
OUTLINE
  6
CONTINUOUS
 62
     3
 10
-30.0
 20
-161.0
 30
0.0
 11
0.0
 21
-161.0
 31
0.0
  0
LINE
  8
OUTLINE
  6
CONTINUOUS
 62
     3
 10
-30.0
 20
161.0
 30
0.0
 11
-32.766721999999959
 21
161.0
 31
0.0
  0
LINE
  8
OUTLINE
  6
CONTINUOUS
 62
     3
 10
-30.0
 20
161.0
 30
0.0
 11
-30.0
 21
130.851099
 31
0.0
  0
ARC
  8
OUTLINE
  6
CONTINUOUS
 62
     3
 10
-44.826281999999992
 20
120.80146499999979
 30
0.0
 40
10.049633999999999
 50
90.0
 51
180.0
  0
ARC
  8
OUTLINE
  6
CONTINUOUS
 62
     3
 10
-47.540700000000022
 20
126.98309999999969
 30
0.0
 40
30.148900999999999
 50
119.3427990000002
 51
178.2572120000047
  0
ARC
  8
OUTLINE
  6
CONTINUOUS
 62
     3
 10
-32.766721999999959
 20
100.702198
 30
0.0
 40
60.297802000000011
 50
90.0
 51
119.3427990000002
  0
LINE
  8
OUTLINE
  6
CONTINUOUS
 62
     3
 10
-44.826281999999992
 20
130.851099
 30
0.0
 11
-30.0
 21
130.851099
 31
0.0
  0
LINE
  8
OUTLINE
  6
CONTINUOUS
 62
     3
 10
-30.0
 20
161.0
 30
0.0
 11
0.0
 21
161.0
 31
0.0
  0
LINE
  8
OUTLINE
  6
CONTINUOUS
 62
     3
 10
155.0
 20
122.0
 30
0.0
 11
155.0
 21
-122.0
 31
0.0
  0
LINE
  8
SIZE
  6
CONTINUOUS
 62
    30
 10
-50.0
 20
161.0
 30
0.0
 11
-259.16258099999999
 21
161.0
 31
0.0
  0
LINE
  8
SIZE
  6
CONTINUOUS
 62
    30
 10
-50.0
 20
-161.0
 30
0.0
 11
-259.16258099999999
 21
-161.0
 31
0.0
  0
LINE
  8
SIZE
  6
CONTINUOUS
 62
    30
 10
-239.1625809999999
 20
149.0
 30
0.0
 11
-239.1625809999999
 21
-149.0
 31
0.0
  0
CIRCLE
  8
SIZE
  6
CONTINUOUS
 62
    30
 10
-239.1625809999999
 20
161.0
 30
0.0
 40
6.0
  0
LINE
  8
SIZE
  6
CONTINUOUS
 62
    30
 10
-239.1625809999999
 20
161.0
 30
0.0
 11
-239.1625809999999
 21
149.0
 31
0.0
  0
CIRCLE
  8
SIZE
  6
CONTINUOUS
 62
    30
 10
-239.1625809999999
 20
-161.0
 30
0.0
 40
6.0
  0
LINE
  8
SIZE
  6
CONTINUOUS
 62
    30
 10
-239.1625809999999
 20
-161.0
 30
0.0
 11
-239.1625809999999
 21
-149.0
 31
0.0
  0
TEXT
  8
SIZE
  6
CONTINUOUS
 62
    30
 10
-264.16258099999988
 20
-110.5371428571428
 30
0.0
 40
64.0
  1
□322
 50
90.0
 41
0.9
 72
     1
 11
-264.16258099999988
 21
0.0
 31
0.0
  0
LINE
  8
SIZE
  6
CONTINUOUS
 62
    30
 10
40.0
 20
140.0
 30
0.0
 11
497.83136999999999
 21
140.0
 31
0.0
  0
LINE
  8
SIZE
  6
CONTINUOUS
 62
    30
 10
40.0
 20
-140.0
 30
0.0
 11
497.83136999999999
 21
-140.0
 31
0.0
  0
LINE
  8
SIZE
  6
CONTINUOUS
 62
    30
 10
477.83136999999988
 20
128.0
 30
0.0
 11
477.83136999999988
 21
-128.0
 31
0.0
  0
CIRCLE
  8
SIZE
  6
CONTINUOUS
 62
    30
 10
477.83136999999988
 20
140.0
 30
0.0
 40
6.0
  0
LINE
  8
SIZE
  6
CONTINUOUS
 62
    30
 10
477.83136999999988
 20
140.0
 30
0.0
 11
477.83136999999988
 21
128.0
 31
0.0
  0
CIRCLE
  8
SIZE
  6
CONTINUOUS
 62
    30
 10
477.83136999999988
 20
-140.0
 30
0.0
 40
6.0
  0
LINE
  8
SIZE
  6
CONTINUOUS
 62
    30
 10
477.83136999999988
 20
-140.0
 30
0.0
 11
477.83136999999988
 21
-128.0
 31
0.0
  0
TEXT
  8
SIZE
  6
CONTINUOUS
 62
    30
 10
452.83136999999988
 20
-74.057142857142836
 30
0.0
 40
64.0
  1
280
 50
90.0
 41
0.9
 72
     1
 11
452.83136999999988
 21
0.0
 31
0.0
  0
LINE
  8
DETAIL
  6
CONTINUOUS
 62
     5
 10
155.0
 20
105.0
 30
0.0
 11
206.0
 21
69.571435000000065
 31
0.0
  0
LINE
  8
DETAIL
  6
CONTINUOUS
 62
     5
 10
202.49950299999989
 20
69.571435000000065
 30
0.0
 11
155.0
 21
101.360322
 31
0.0
  0
LINE
  8
DETAIL
  6
CONTINUOUS
 62
     5
 10
206.0
 20
69.571435000000065
 30
0.0
 11
202.49950299999989
 21
69.571435000000065
 31
0.0
  0
LINE
  8
DETAIL
  6
CONTINUOUS
 62
     5
 10
206.0
 20
-5.428564999999935
 30
0.0
 11
202.49950299999989
 21
-5.428564999999935
 31
0.0
  0
LINE
  8
DETAIL
  6
CONTINUOUS
 62
     5
 10
202.49950299999989
 20
-5.428564999999935
 30
0.0
 11
155.0
 21
26.360322
 31
0.0
  0
LINE
  8
DETAIL
  6
CONTINUOUS
 62
     5
 10
155.0
 20
30.0
 30
0.0
 11
206.0
 21
-5.428564999999935
 31
0.0
  0
LINE
  8
DETAIL
  6
CONTINUOUS
 62
     5
 10
155.0
 20
-45.0
 30
0.0
 11
206.0
 21
-80.428564999999935
 31
0.0
  0
LINE
  8
DETAIL
  6
CONTINUOUS
 62
     5
 10
202.49950299999989
 20
-80.428564999999935
 30
0.0
 11
155.0
 21
-48.639678000000004
 31
0.0
  0
LINE
  8
DETAIL
  6
CONTINUOUS
 62
     5
 10
206.0
 20
-80.428564999999935
 30
0.0
 11
202.49950299999989
 21
-80.428564999999935
 31
0.0
  0
LINE
  8
SIZE
  6
CONTINUOUS
 62
    30
 10
155.0
 20
140.0
 30
0.0
 11
155.0
 21
471.47384299999999
 31
0.0
  0
LINE
  8
SIZE
  6
CONTINUOUS
 62
    30
 10
206.0
 20
89.571435000000065
 30
0.0
 11
206.0
 21
471.47384299999999
 31
0.0
  0
LINE
  8
SIZE
  6
CONTINUOUS
 62
    30
 10
143.0
 20
451.47384299999999
 30
0.0
 11
131.0
 21
451.47384299999999
 31
0.0
  0
LINE
  8
SIZE
  6
CONTINUOUS
 62
    30
 10
218.0
 20
451.47384299999999
 30
0.0
 11
230.0
 21
451.47384299999999
 31
0.0
  0
LINE
  8
SIZE
  6
CONTINUOUS
 62
    30
 10
355.02692999999999
 20
451.47384299999999
 30
0.0
 11
206.0
 21
451.47384299999999
 31
0.0
  0
TEXT
  8
SIZE
  6
CONTINUOUS
 62
    30
 10
261.45550071428568
 20
476.47384299999999
 30
0.0
 40
64.0
  1
51
 41
0.9
 72
     1
 11
295.74121500000001
 21
476.47384299999999
 31
0.0
  0
LINE
  8
SIZE
  6
CONTINUOUS
 62
    30
 10
155.0
 20
451.47384299999999
 30
0.0
 11
206.0
 21
451.47384299999999
 31
0.0
  0
LINE
  8
SIZE
  6
CONTINUOUS
 62
    30
 10
155.0
 20
451.47384299999999
 30
0.0
 11
206.0
 21
451.47384299999999
 31
0.0
  0
CIRCLE
  8
SIZE
  6
CONTINUOUS
 62
    30
 10
155.0
 20
451.47384299999999
 30
0.0
 40
6.0
  0
LINE
  8
SIZE
  6
CONTINUOUS
 62
    30
 10
155.0
 20
451.47384299999999
 30
0.0
 11
143.0
 21
451.47384299999999
 31
0.0
  0
CIRCLE
  8
SIZE
  6
CONTINUOUS
 62
    30
 10
206.0
 20
451.47384299999999
 30
0.0
 40
6.0
  0
LINE
  8
SIZE
  6
CONTINUOUS
 62
    30
 10
206.0
 20
451.47384299999999
 30
0.0
 11
218.0
 21
451.47384299999999
 31
0.0
  0
TEXT
  8
ETC
  6
CONTINUOUS
 62
    61
 10
657.91048500066393
 20
357.82992154190492
 30
0.0
 40
50.0
  1
EFG-20KSB2-P
 41
0.9
  0
TEXT
  8
ETC
  6
CONTINUOUS
 62
    61
 10
529.21018305754797
 20
540.58812829780322
 30
0.0
 40
64.0
  1
EFG-20KSB2-P_4
 41
0.9
  0
TEXT
  8
ETC
  6
CONTINUOUS
 62
    61
 10
521.29447605754808
 20
442.9963932978028
 30
0.0
 40
64.0
  1
産業扇
 41
0.9
  0
ENDSEC
  0
EOF
