  0
SECTION
  2
HEADER
  9
$ACADVER
  1
AC1009
  9
$INSBASE
 10
0.0
 20
0.0
 30
0.0
  9
$EXTMIN
 10
-508.62637499999988
 20
-247.55891276664951
 30
0.0
  9
$EXTMAX
 10
950.13662405869411
 20
578.98709864198224
 30
50.0
  9
$LIMMIN
 10
-2970.0
 20
-2100.0
  9
$LIMMAX
 10
2970.0
 20
2100.0
  9
$ORTHOMODE
 70
     1
  9
$REGENMODE
 70
     0
  9
$FILLMODE
 70
     1
  9
$QTEXTMODE
 70
     0
  9
$MIRRTEXT
 70
     0
  9
$DRAGMODE
 70
     2
  9
$LTSCALE
 40
20.0
  9
$OSMODE
 70
   165
  9
$ATTMODE
 70
     1
  9
$TEXTSIZE
 40
64.0
  9
$TRACEWID
 40
0.05
  9
$TEXTSTYLE
  7
STANDARD
  9
$CLAYER
  8
OUTLINE
  9
$CELTYPE
  6
CONTINUOUS
  9
$CECOLOR
 62
     3
  9
$DIMSCALE
 40
1.0
  9
$DIMASZ
 40
40.0
  9
$DIMEXO
 40
20.0
  9
$DIMDLI
 40
200.0
  9
$DIMRND
 40
0.0
  9
$DIMDLE
 40
0.0
  9
$DIMEXE
 40
20.0
  9
$DIMTP
 40
0.0
  9
$DIMTM
 40
0.0
  9
$DIMTXT
 40
64.0
  9
$DIMCEN
 40
0.09
  9
$DIMTSZ
 40
0.0
  9
$DIMTOL
 70
     0
  9
$DIMLIM
 70
     0
  9
$DIMTIH
 70
     0
  9
$DIMTOH
 70
     0
  9
$DIMSE1
 70
     0
  9
$DIMSE2
 70
     0
  9
$DIMTAD
 70
     1
  9
$DIMZIN
 70
     8
  9
$DIMBLK
  1
NONE
  9
$DIMASO
 70
     1
  9
$DIMSHO
 70
     0
  9
$DIMPOST
  1

  9
$DIMAPOST
  1

  9
$DIMALT
 70
     0
  9
$DIMALTD
 70
     2
  9
$DIMALTF
 40
25.399999999999999
  9
$DIMLFAC
 40
1.0
  9
$DIMTOFL
 70
     1
  9
$DIMTVP
 40
0.0
  9
$DIMTIX
 70
     1
  9
$DIMSOXD
 70
     0
  9
$DIMSAH
 70
     0
  9
$DIMBLK1
  1

  9
$DIMBLK2
  1

  9
$DIMSTYLE
  2
STANDARD
  9
$DIMCLRD
 70
     0
  9
$DIMCLRE
 70
     0
  9
$DIMCLRT
 70
     0
  9
$DIMTFAC
 40
1.0
  9
$DIMGAP
 40
20.0
  9
$LUNITS
 70
     2
  9
$LUPREC
 70
     4
  9
$SKETCHINC
 40
0.1
  9
$FILLETRAD
 40
5.0
  9
$AUNITS
 70
     1
  9
$AUPREC
 70
     3
  9
$MENU
  1
ACAD
  9
$ELEVATION
 40
0.0
  9
$PELEVATION
 40
0.0
  9
$THICKNESS
 40
50.0
  9
$LIMCHECK
 70
     0
  9
$BLIPMODE
 70
     0
  9
$CHAMFERA
 40
0.0
  9
$CHAMFERB
 40
0.0
  9
$SKPOLY
 70
     0
  9
$TDCREATE
 40
2451453.4938508091
  9
$TDUPDATE
 40
2454203.3932277188
  9
$TDINDWG
 40
0.6064527662
  9
$TDUSRTIMER
 40
0.6064527662
  9
$USRTIMER
 70
     1
  9
$ANGBASE
 50
0.0
  9
$ANGDIR
 70
     0
  9
$PDMODE
 70
     3
  9
$PDSIZE
 40
-2.0
  9
$PLINEWID
 40
0.0
  9
$COORDS
 70
     2
  9
$SPLFRAME
 70
     0
  9
$SPLINETYPE
 70
     6
  9
$SPLINESEGS
 70
     8
  9
$ATTDIA
 70
     0
  9
$ATTREQ
 70
     1
  9
$HANDLING
 70
 22529
  9
$HANDSEED
  5
286
  9
$SURFTAB1
 70
     6
  9
$SURFTAB2
 70
     6
  9
$SURFTYPE
 70
     6
  9
$SURFU
 70
     6
  9
$SURFV
 70
     6
  9
$UCSNAME
  2

  9
$UCSORG
 10
0.0
 20
0.0
 30
0.0
  9
$UCSXDIR
 10
1.0
 20
0.0
 30
0.0
  9
$UCSYDIR
 10
0.0
 20
1.0
 30
0.0
  9
$PUCSNAME
  2

  9
$PUCSORG
 10
0.0
 20
0.0
 30
0.0
  9
$PUCSXDIR
 10
1.0
 20
0.0
 30
0.0
  9
$PUCSYDIR
 10
0.0
 20
1.0
 30
0.0
  9
$USERI1
 70
     0
  9
$USERI2
 70
     0
  9
$USERI3
 70
     0
  9
$USERI4
 70
     0
  9
$USERI5
 70
     0
  9
$USERR1
 40
20.0
  9
$USERR2
 40
0.0
  9
$USERR3
 40
0.0
  9
$USERR4
 40
0.0
  9
$USERR5
 40
0.0
  9
$WORLDVIEW
 70
     1
  9
$SHADEDGE
 70
     3
  9
$SHADEDIF
 70
    70
  9
$TILEMODE
 70
     1
  9
$MAXACTVP
 70
    64
  9
$PLIMCHECK
 70
     0
  9
$PEXTMIN
 10
1.0000000000000000E+020
 20
1.0000000000000000E+020
 30
1.0000000000000000E+020
  9
$PEXTMAX
 10
-1.0000000000000000E+020
 20
-1.0000000000000000E+020
 30
-1.0000000000000000E+020
  9
$PLIMMIN
 10
0.0
 20
0.0
  9
$PLIMMAX
 10
12.0
 20
9.0
  9
$UNITMODE
 70
     0
  9
$VISRETAIN
 70
     1
  9
$PLINEGEN
 70
     0
  9
$PSLTSCALE
 70
     1
  0
ENDSEC
  0
SECTION
  2
TABLES
  0
TABLE
  2
VPORT
 70
     3
  0
VPORT
  2
*ACTIVE
 70
     0
 10
0.0
 20
0.0
 11
1.0
 21
1.0
 12
229.82723832962751
 22
175.53898937838849
 13
0.0
 23
0.0
 14
1.0
 24
1.0
 15
0.0
 25
0.0
 16
0.0
 26
0.0
 36
1.0
 17
0.0
 27
0.0
 37
0.0
 40
1330.98720996413
 41
1.672794117647058
 42
50.0
 43
0.0
 44
0.0
 50
0.0
 51
0.0
 71
     0
 72
   100
 73
     1
 74
     0
 75
     0
 76
     0
 77
     0
 78
     0
  0
ENDTAB
  0
TABLE
  2
LTYPE
 70
     2
  0
LTYPE
  2
CONTINUOUS
 70
     0
  3
実線
 72
    65
 73
     0
 40
0.0
  0
LTYPE
  2
DASHDOT
 70
     0
  3
____ _ ____ _ ____ _ ____ _ ____ _ ____ _ ____
 72
    65
 73
     4
 40
5.5
 49
4.0
 49
-0.6
 49
0.3
 49
-0.6
  0
ENDTAB
  0
TABLE
  2
LAYER
 70
    12
  0
LAYER
  2
0
 70
     0
 62
     7
  6
CONTINUOUS
  0
LAYER
  2
OUTLINE
 70
     0
 62
     3
  6
CONTINUOUS
  0
LAYER
  2
SIZE
 70
     0
 62
    30
  6
CONTINUOUS
  0
LAYER
  2
BASIS
 70
     0
 62
     6
  6
DASHDOT
  0
LAYER
  2
DETAIL
 70
     0
 62
     5
  6
CONTINUOUS
  0
LAYER
  2
ARRANGE
 70
     0
 62
     1
  6
CONTINUOUS
  0
LAYER
  2
DEFPOINTS
 70
     0
 62
     7
  6
CONTINUOUS
  0
LAYER
  2
ETC
 70
     0
 62
    61
  6
CONTINUOUS
  0
LAYER
  2
FIX
 70
     0
 62
    11
  6
CONTINUOUS
  0
LAYER
  2
NOTE
 70
     0
 62
     4
  6
CONTINUOUS
  0
LAYER
  2
SERVICESPACE
 70
     0
 62
     2
  6
DASHDOT
  0
LAYER
  2
SYMBOLLINE
 70
     0
 62
    15
  6
CONTINUOUS
  0
ENDTAB
  0
TABLE
  2
STYLE
 70
     1
  0
STYLE
  2
STANDARD
 70
     0
 40
64.0
 41
0.9
 50
0.0
 71
     0
 42
64.0
  3
SIMPLEX.shx
  4
BIGFONT.shx
  0
ENDTAB
  0
TABLE
  2
VIEW
 70
     1
  0
VIEW
  2
ALL
 70
     0
 40
4282.6198079999976
 10
0.0
 20
41.309903999999989
 41
5940.0
 11
0.0
 21
0.0
 31
1.0
 12
0.0
 22
0.0
 32
0.0
 42
50.0
 43
0.0
 44
0.0
 50
0.0
 71
     0
  0
ENDTAB
  0
TABLE
  2
UCS
 70
     0
  0
ENDTAB
  0
TABLE
  2
APPID
 70
     1
  0
APPID
  2
ACAD
 70
     0
  0
ENDTAB
  0
TABLE
  2
DIMSTYLE
 70
     1
  0
DIMSTYLE
  2
STANDARD
 70
     0
  3

  4

  5

  6

  7

 40
1.0
 41
0.18
 42
0.0625
 43
0.38
 44
0.18
 45
0.0
 46
0.0
 47
0.0
 48
0.0
140
0.18
141
0.09
142
0.0
143
25.399999999999999
144
1.0
145
0.0
146
1.0
147
0.09
 71
     0
 72
     0
 73
     1
 74
     1
 75
     0
 76
     0
 77
     0
 78
     0
170
     0
171
     2
172
     0
173
     0
174
     0
175
     0
176
     0
177
     0
178
     0
  0
ENDTAB
  0
ENDSEC
  0
SECTION
  2
BLOCKS
  0
BLOCK
  8
0
  2
$MODEL_SPACE
 70
     0
 10
0.0
 20
0.0
 30
0.0
  3
$MODEL_SPACE
  1

  0
ENDBLK
  5
17F
  8
0
  0
BLOCK
 67
     1
  8
0
  2
$PAPER_SPACE
 70
     0
 10
0.0
 20
0.0
 30
0.0
  3
$PAPER_SPACE
  1

  0
ENDBLK
  5
17B
 67
     1
  8
0
  0
BLOCK
  8
0
  2
DOT1
 70
     0
 10
0.0
 20
0.0
 30
0.0
  3
DOT1
  1

  0
CIRCLE
  5
19A
  8
SIZE
  6
CONTINUOUS
 62
     7
 10
0.0
 20
0.0
 30
0.0
 40
3.0
  0
ENDBLK
  5
19B
  8
0
  0
BLOCK
  8
0
  2
_ORIGIN
 70
     0
 10
0.0
 20
0.0
 30
0.0
  3
_ORIGIN
  1

  0
CIRCLE
  5
19E
  8
0
  6
CONTINUOUS
 62
     7
 10
0.0
 20
0.0
 30
0.0
 40
0.5
  0
LINE
  5
19F
  8
0
  6
CONTINUOUS
 62
     7
 10
0.0
 20
0.0
 30
0.0
 11
-1.0
 21
0.0
 31
0.0
  0
ENDBLK
  5
1A0
  8
0
  0
BLOCK
  8
0
 62
     8
  2
_NONE
 70
     0
 10
0.0
 20
0.0
 30
0.0
  3
_NONE
  1

  0
ENDBLK
  5
1A3
  8
0
 62
     8
  0
BLOCK
  8
0
 62
     8
  2
_OPEN30
 70
     0
 10
0.0
 20
0.0
 30
0.0
  3
_OPEN30
  1

  0
LINE
  5
1A6
  8
0
  6
BYBLOCK
 62
     0
 10
-1.0
 20
0.26794919
 30
0.0
 11
0.0
 21
0.0
 31
0.0
  0
LINE
  5
1A7
  8
0
  6
BYBLOCK
 62
     0
 10
0.0
 20
0.0
 30
0.0
 11
-1.0
 21
-0.26794919
 31
0.0
  0
LINE
  5
1A8
  8
0
  6
BYBLOCK
 62
     0
 10
0.0
 20
0.0
 30
0.0
 11
-1.0
 21
0.0
 31
0.0
  0
ENDBLK
  5
1A9
  8
0
 62
     8
  0
BLOCK
  8
0
 62
    30
  2
*D6
 70
     1
 10
0.0
 20
0.0
 30
0.0
  3
*D6
  1

  0
LINE
  5
1AC
  8
SIZE
  6
CONTINUOUS
 62
     0
 10
-161.0
 20
0.0
 30
0.0
 11
-161.0
 21
-247.55891276664951
 31
0.0
  0
LINE
  5
1AD
  8
SIZE
  6
CONTINUOUS
 62
     0
 10
161.0
 20
0.0
 30
0.0
 11
160.9999999999998
 21
-247.55891276664951
 31
0.0
  0
LINE
  5
1AE
  8
SIZE
  6
CONTINUOUS
 62
     0
 10
-161.0
 20
-227.5589127666496
 30
0.0
 11
160.9999999999998
 21
-227.5589127666496
 31
0.0
  0
TEXT
  5
1AF
  8
OUTLINE
  6
CONTINUOUS
 62
     0
 10
-74.057142857142864
 20
-207.55891276664951
 30
0.0
 40
64.0
  1
322
 41
0.9
  0
POINT
  5
1B0
  8
DEFPOINTS
  6
CONTINUOUS
 62
     0
 10
-161.0
 20
20.0
 30
0.0
  0
POINT
  5
1B1
  8
DEFPOINTS
  6
CONTINUOUS
 62
     0
 10
161.0
 20
20.0
 30
0.0
  0
POINT
  5
1B2
  8
DEFPOINTS
  6
CONTINUOUS
 62
     0
 10
160.9999999999998
 20
-227.5589127666496
 30
0.0
  0
ENDBLK
  5
1B3
  8
0
 62
    30
  0
BLOCK
  8
0
 62
    30
  2
*D7
 70
     1
 10
0.0
 20
0.0
 30
0.0
  3
*D7
  1

  0
LINE
  5
1B6
  8
SIZE
  6
CONTINUOUS
 62
     0
 10
140.0
 20
40.0
 30
0.0
 11
140.0
 21
501.21141745697429
 31
0.0
  0
LINE
  5
1B7
  8
SIZE
  6
CONTINUOUS
 62
     0
 10
-140.0
 20
40.0
 30
0.0
 11
-139.9999999999998
 21
501.21141745697429
 31
0.0
  0
LINE
  5
1B8
  8
SIZE
  6
CONTINUOUS
 62
     0
 10
140.0
 20
481.21141745697429
 30
0.0
 11
-139.9999999999998
 21
481.21141745697429
 31
0.0
  0
TEXT
  5
1B9
  8
OUTLINE
  6
CONTINUOUS
 62
     0
 10
-74.057142857142807
 20
501.21141745697429
 30
0.0
 40
64.0
  1
280
 41
0.9
  0
POINT
  5
1BA
  8
DEFPOINTS
  6
CONTINUOUS
 62
     0
 10
140.0
 20
20.0
 30
0.0
  0
POINT
  5
1BB
  8
DEFPOINTS
  6
CONTINUOUS
 62
     0
 10
-140.0
 20
20.0
 30
0.0
  0
POINT
  5
1BC
  8
DEFPOINTS
  6
CONTINUOUS
 62
     0
 10
-139.9999999999998
 20
481.21141745697429
 30
0.0
  0
ENDBLK
  5
1BD
  8
0
 62
    30
  0
BLOCK
  8
0
 62
    30
  2
*D8
 70
     1
 10
0.0
 20
0.0
 30
0.0
  3
*D8
  1

  0
LINE
  5
1C0
  8
SIZE
  6
CONTINUOUS
 62
     0
 10
-132.4999999999998
 20
206.0
 30
0.0
 11
-439.626375
 21
206.0
 31
0.0
  0
LINE
  5
1C1
  8
SIZE
  6
CONTINUOUS
 62
     0
 10
-419.62637499999988
 20
206.0
 30
0.0
 11
-419.62637499999988
 21
155.0
 31
0.0
  0
TEXT
  5
1C2
  8
OUTLINE
  6
CONTINUOUS
 62
     0
 10
-439.47363098076471
 20
232.6672321397171
 30
0.0
 40
64.0
  1
51
 50
90.0
 41
0.9
  0
POINT
  5
1C3
  8
DEFPOINTS
  6
CONTINUOUS
 62
     0
 10
-112.5
 20
206.0
 30
0.0
  0
POINT
  5
1C4
  8
DEFPOINTS
  6
CONTINUOUS
 62
     0
 10
-419.62637499999988
 20
155.0
 30
0.0
  0
POINT
  5
1C5
  8
DEFPOINTS
  6
CONTINUOUS
 62
     0
 10
-419.62637499999988
 20
155.0
 30
0.0
  0
ENDBLK
  5
1C6
  8
0
 62
    30
  0
ENDSEC
  0
SECTION
  2
ENTITIES
  0
LINE
  5
1C7
  8
BASIS
  6
DASHDOT
 62
     6
 10
0.0
 20
185.647299
 30
0.0
 11
0.0
 21
-79.336862999999965
 31
0.0
  0
POINT
  5
1C8
  8
ARRANGE
  6
CONTINUOUS
 62
     1
 10
0.0
 20
0.0
 30
0.0
  0
LINE
  5
1C9
  8
DETAIL
  6
CONTINUOUS
 62
     5
 10
-120.0
 20
155.0
 30
0.0
 11
-120.0
 21
0.0
 31
0.0
  0
LINE
  5
1CA
  8
DETAIL
  6
CONTINUOUS
 62
     5
 10
120.0
 20
155.0
 30
0.0
 11
120.0
 21
0.0
 31
0.0
  0
LINE
  5
1CB
  8
DETAIL
  6
CONTINUOUS
 62
     5
 10
161.0
 20
0.0
 30
0.0
 11
161.0
 21
-25.0
 31
0.0
  0
LINE
  5
1CC
  8
DETAIL
  6
CONTINUOUS
 62
     5
 10
-161.0
 20
0.0
 30
0.0
 11
-161.0
 21
-25.0
 31
0.0
  0
LINE
  5
1CD
  8
NOTE
  6
CONTINUOUS
 62
     4
 10
140.0
 20
0.0
 30
0.0
 11
263.87313799999993
 21
-102.6040129999999
 31
0.0
  0
LINE
  5
1CE
  8
NOTE
  6
CONTINUOUS
 62
     4
 10
263.87313799999993
 20
-102.6040129999999
 30
0.0
 11
556.84105799999998
 21
-102.6040129999999
 31
0.0
  0
LINE
  5
1CF
  8
DETAIL
  6
CONTINUOUS
 62
     5
 10
-161.0
 20
0.0
 30
0.0
 11
-121.5000049999999
 21
0.0
 31
0.0
  0
CIRCLE
  5
1D0
  8
ARRANGE
  6
CONTINUOUS
 62
     1
 10
0.0
 20
0.0
 30
0.0
 40
54.482759999999992
  0
LINE
  5
1D1
  8
DETAIL
  6
CONTINUOUS
 62
     5
 10
121.5000049999999
 20
0.0
 30
0.0
 11
161.0
 21
0.0
 31
0.0
  0
LINE
  5
1D2
  8
DETAIL
  6
CONTINUOUS
 62
     5
 10
-121.5000049999999
 20
0.0
 30
0.0
 11
121.5000049999999
 21
0.0
 31
0.0
  0
LINE
  5
1D3
  8
DETAIL
  6
CONTINUOUS
 62
     5
 10
-120.0
 20
155.0
 30
0.0
 11
120.0
 21
155.0
 31
0.0
  0
LINE
  5
1D4
  8
DETAIL
  6
CONTINUOUS
 62
     5
 10
-156.0
 20
-30.0
 30
0.0
 11
156.0
 21
-30.0
 31
0.0
  0
LINE
  5
1D5
  8
NOTE
  6
CONTINUOUS
 62
     4
 10
-140.0
 20
-20.0
 30
0.0
 11
-140.0
 21
20.0
 31
0.0
  0
LINE
  5
1D6
  8
NOTE
  6
CONTINUOUS
 62
     4
 10
-160.0
 20
0.0
 30
0.0
 11
-120.0
 21
0.0
 31
0.0
  0
LINE
  5
1D7
  8
NOTE
  6
CONTINUOUS
 62
     4
 10
140.0
 20
-20.0
 30
0.0
 11
140.0
 21
20.0
 31
0.0
  0
LINE
  5
1D8
  8
NOTE
  6
CONTINUOUS
 62
     4
 10
120.0
 20
0.0
 30
0.0
 11
160.0
 21
0.0
 31
0.0
  0
TEXT
  5
1D9
  8
NOTE
  6
CONTINUOUS
 62
     4
 10
266.40581700000001
 20
-76.338026999999983
 30
0.0
 40
64.0
  1
4-φ10
 41
0.9
  0
LINE
  5
1DA
  8
NOTE
  6
CONTINUOUS
 62
     4
 10
176.34707199999991
 20
-16.700012000000001
 30
0.0
 11
140.0
 21
0.0
 31
0.0
  0
LINE
  5
1DB
  8
NOTE
  6
CONTINUOUS
 62
     4
 10
140.0
 20
0.0
 30
0.0
 11
163.1274809999999
 21
-32.636169999999993
 31
0.0
  0
LINE
  5
1DC
  8
SIZE
  6
CONTINUOUS
 62
    30
 10
-181.0
 20
0.0
 30
0.0
 11
-439.626375
 21
0.0
 31
0.0
  0
LINE
  5
1DD
  8
SIZE
  6
CONTINUOUS
 62
    30
 10
-176.0
 20
-30.0
 30
0.0
 11
-439.626375
 21
-30.0
 31
0.0
  0
LINE
  5
1DE
  8
SIZE
  6
CONTINUOUS
 62
    30
 10
-419.62637499999988
 20
12.0
 30
0.0
 11
-419.62637499999988
 21
24.0
 31
0.0
  0
LINE
  5
1DF
  8
SIZE
  6
CONTINUOUS
 62
    30
 10
-419.62637499999988
 20
-42.0
 30
0.0
 11
-419.62637499999988
 21
-197.2571429999999
 31
0.0
  0
LINE
  5
1E0
  8
SIZE
  6
CONTINUOUS
 62
    30
 10
-419.62637499999988
 20
0.0
 30
0.0
 11
-419.62637499999988
 21
-30.0
 31
0.0
  0
CIRCLE
  5
1E1
  8
SIZE
  6
CONTINUOUS
 62
    30
 10
-419.62637499999988
 20
0.0
 30
0.0
 40
6.0
  0
LINE
  5
1E2
  8
SIZE
  6
CONTINUOUS
 62
    30
 10
-419.62637499999988
 20
0.0
 30
0.0
 11
-419.62637499999988
 21
12.0
 31
0.0
  0
CIRCLE
  5
1E3
  8
SIZE
  6
CONTINUOUS
 62
    30
 10
-419.62637499999988
 20
-30.0
 30
0.0
 40
6.0
  0
LINE
  5
1E4
  8
SIZE
  6
CONTINUOUS
 62
    30
 10
-419.62637499999988
 20
-30.0
 30
0.0
 11
-419.62637499999988
 21
-42.0
 31
0.0
  0
TEXT
  5
1E5
  8
SIZE
  6
CONTINUOUS
 62
    30
 10
-444.62637499999988
 20
-172.2571424285712
 30
0.0
 40
64.0
  1
30
 50
90.0
 41
0.9
 72
     1
 11
-444.62637499999988
 21
-125.62857099999979
 31
0.0
  0
LINE
  5
1E9
  8
SIZE
  6
CONTINUOUS
 62
    30
 10
-140.0
 20
155.0
 30
0.0
 11
-439.626375
 21
155.0
 31
0.0
  0
LINE
  5
1EA
  8
SIZE
  6
CONTINUOUS
 62
    30
 10
-181.0
 20
0.0
 30
0.0
 11
-439.626375
 21
0.0
 31
0.0
  0
LINE
  5
1EB
  8
SIZE
  6
CONTINUOUS
 62
    30
 10
-419.62637499999988
 20
143.0
 30
0.0
 11
-419.62637499999988
 21
12.0
 31
0.0
  0
CIRCLE
  5
1EC
  8
SIZE
  6
CONTINUOUS
 62
    30
 10
-419.62637499999988
 20
155.0
 30
0.0
 40
6.0
  0
LINE
  5
1ED
  8
SIZE
  6
CONTINUOUS
 62
    30
 10
-419.62637499999988
 20
155.0
 30
0.0
 11
-419.62637499999988
 21
143.0
 31
0.0
  0
CIRCLE
  5
1EE
  8
SIZE
  6
CONTINUOUS
 62
    30
 10
-419.62637499999988
 20
0.0
 30
0.0
 40
6.0
  0
LINE
  5
1EF
  8
SIZE
  6
CONTINUOUS
 62
    30
 10
-419.62637499999988
 20
0.0
 30
0.0
 11
-419.62637499999988
 21
12.0
 31
0.0
  0
TEXT
  5
1F0
  8
SIZE
  6
CONTINUOUS
 62
    30
 10
-444.62637499999988
 20
8.9285714285714306
 30
0.0
 40
64.0
  1
155
 50
90.0
 41
0.9
 72
     1
 11
-444.62637499999988
 21
77.5
 31
0.0
  0
LINE
  5
1F4
  8
SIZE
  6
CONTINUOUS
 62
    30
 10
-176.0
 20
-30.0
 30
0.0
 11
-298.03836199999989
 21
-30.0
 31
0.0
  0
LINE
  5
1F5
  8
SIZE
  6
CONTINUOUS
 62
    30
 10
-116.26005000000001
 20
-40.0
 30
0.0
 11
-298.03836199999989
 21
-40.0
 31
0.0
  0
LINE
  5
1F6
  8
SIZE
  6
CONTINUOUS
 62
    30
 10
-278.03836200000001
 20
-18.0
 30
0.0
 11
-278.03836200000001
 21
-6.0
 31
0.0
  0
LINE
  5
1F7
  8
SIZE
  6
CONTINUOUS
 62
    30
 10
-278.03836200000001
 20
-52.0
 30
0.0
 11
-278.03836200000001
 21
-216.40000000000001
 31
0.0
  0
LINE
  5
1F8
  8
SIZE
  6
CONTINUOUS
 62
    30
 10
-278.03836200000001
 20
-30.0
 30
0.0
 11
-278.03836200000001
 21
-40.0
 31
0.0
  0
CIRCLE
  5
1F9
  8
SIZE
  6
CONTINUOUS
 62
    30
 10
-278.03836200000001
 20
-30.0
 30
0.0
 40
6.0
  0
LINE
  5
1FA
  8
SIZE
  6
CONTINUOUS
 62
    30
 10
-278.03836200000001
 20
-30.0
 30
0.0
 11
-278.03836200000001
 21
-18.0
 31
0.0
  0
CIRCLE
  5
1FB
  8
SIZE
  6
CONTINUOUS
 62
    30
 10
-278.03836200000001
 20
-40.0
 30
0.0
 40
6.0
  0
LINE
  5
1FC
  8
SIZE
  6
CONTINUOUS
 62
    30
 10
-278.03836200000001
 20
-40.0
 30
0.0
 11
-278.03836200000001
 21
-52.0
 31
0.0
  0
TEXT
  5
1FD
  8
SIZE
  6
CONTINUOUS
 62
    30
 10
-303.03836200000001
 20
-191.40000014285701
 30
0.0
 40
64.0
  1
10
 50
90.0
 41
0.9
 72
     1
 11
-303.03836200000001
 21
-150.25714299999979
 31
0.0
  0
ARC
  5
201
  8
DETAIL
  6
CONTINUOUS
 62
     5
 10
-156.0
 20
-25.0
 30
0.0
 40
5.0
 50
180.0
 51
270.0
  0
ARC
  5
202
  8
DETAIL
  6
CONTINUOUS
 62
     5
 10
156.0
 20
-25.0
 30
0.0
 40
5.0
 50
270.0
 51
0.0
  0
CIRCLE
  5
203
  8
FIX
  6
CONTINUOUS
 62
    11
 39
50.0
 10
-140.0000049999999
 20
0.0
 30
0.0
 40
5.0
  0
CIRCLE
  5
204
  8
FIX
  6
CONTINUOUS
 62
    11
 39
50.0
 10
139.9999949999999
 20
0.0
 30
0.0
 40
5.0
  0
LINE
  5
209
  8
SIZE
  6
CONTINUOUS
 62
    30
 10
120.0
 20
174.32117115649979
 30
0.0
 11
120.0
 21
376.50328600608759
 31
0.0
  0
LINE
  5
20A
  8
SIZE
  6
CONTINUOUS
 62
    30
 10
-120.0
 20
181.62808230064951
 30
0.0
 11
-120.0
 21
376.50328600608759
 31
0.0
  0
LINE
  5
20B
  8
SIZE
  6
CONTINUOUS
 62
    30
 10
108.0
 20
356.50328600608742
 30
0.0
 11
-108.0
 21
356.50328600608742
 31
0.0
  0
CIRCLE
  5
20C
  8
SIZE
  6
CONTINUOUS
 62
    30
 10
120.0
 20
356.50328600608742
 30
0.0
 40
6.0
  0
LINE
  5
20D
  8
SIZE
  6
CONTINUOUS
 62
    30
 10
120.0
 20
356.50328600608742
 30
0.0
 11
108.0
 21
356.50328600608742
 31
0.0
  0
CIRCLE
  5
20E
  8
SIZE
  6
CONTINUOUS
 62
    30
 10
-120.0
 20
356.50328600608742
 30
0.0
 40
6.0
  0
LINE
  5
20F
  8
SIZE
  6
CONTINUOUS
 62
    30
 10
-120.0
 20
356.50328600608742
 30
0.0
 11
-108.0
 21
356.50328600608742
 31
0.0
  0
TEXT
  5
210
  8
SIZE
  6
CONTINUOUS
 62
    30
 10
-110.5371428571428
 20
381.50328600608742
 30
0.0
 40
64.0
  1
□240
 41
0.9
 72
     1
 11
0.0
 21
381.50328600608742
 31
0.0
  0
LINE
  5
214
  8
OUTLINE
  6
CONTINUOUS
 62
     3
 10
-156.0
 20
-30.0
 30
0.0
 11
156.0
 21
-30.0
 31
0.0
  0
LINE
  5
215
  8
OUTLINE
  6
CONTINUOUS
 62
     3
 10
-121.5000049999999
 20
0.0
 30
0.0
 11
121.5000049999999
 21
0.0
 31
0.0
  0
LINE
  5
216
  8
OUTLINE
  6
CONTINUOUS
 62
     3
 10
-120.0
 20
155.0
 30
0.0
 11
-120.0
 21
0.0
 31
0.0
  0
ARC
  5
217
  8
OUTLINE
  6
CONTINUOUS
 62
     3
 10
-156.0
 20
-25.0
 30
0.0
 40
5.0
 50
180.0
 51
270.0
  0
LINE
  5
218
  8
OUTLINE
  6
CONTINUOUS
 62
     3
 10
-161.0
 20
0.0
 30
0.0
 11
-161.0
 21
-25.0
 31
0.0
  0
LINE
  5
219
  8
OUTLINE
  6
CONTINUOUS
 62
     3
 10
-161.0
 20
0.0
 30
0.0
 11
-121.5000049999999
 21
0.0
 31
0.0
  0
LINE
  5
21A
  8
OUTLINE
  6
CONTINUOUS
 62
     3
 10
120.0
 20
155.0
 30
0.0
 11
120.0
 21
0.0
 31
0.0
  0
ARC
  5
21B
  8
OUTLINE
  6
CONTINUOUS
 62
     3
 10
156.0
 20
-25.0
 30
0.0
 40
5.0
 50
270.0
 51
0.0
  0
LINE
  5
21C
  8
OUTLINE
  6
CONTINUOUS
 62
     3
 10
161.0
 20
0.0
 30
0.0
 11
161.0
 21
-25.0
 31
0.0
  0
LINE
  5
21D
  8
OUTLINE
  6
CONTINUOUS
 62
     3
 10
121.5000049999999
 20
0.0
 30
0.0
 11
161.0
 21
0.0
 31
0.0
  0
ARC
  5
21E
  8
DETAIL
  6
CONTINUOUS
 62
     5
 10
-99.796249000000003
 20
-14.567387999999999
 30
0.0
 40
25.435267
 50
217.35420499999981
 51
269.17201399999999
  0
LINE
  5
21F
  8
DETAIL
  6
CONTINUOUS
 62
     5
 10
-84.629688999999985
 20
-30.44341699999999
 30
0.0
 11
-86.870692000000005
 21
-34.751821999999983
 31
0.0
  0
ARC
  5
220
  8
DETAIL
  6
CONTINUOUS
 62
     5
 10
-82.257885000000002
 20
-36.347458000000003
 30
0.0
 40
6.3626370000000003
 50
86.041531999999975
 51
111.886585
  0
LINE
  5
221
  8
DETAIL
  6
CONTINUOUS
 62
     5
 10
-86.870692000000005
 20
-34.751821999999983
 30
0.0
 11
-88.287475999999984
 21
-37.094887
 31
0.0
  0
LINE
  5
222
  8
DETAIL
  6
CONTINUOUS
 62
     5
 10
-88.663611000000003
 20
-37.501063999999992
 30
0.0
 11
-90.872964999999979
 21
-39.080384999999993
 31
0.0
  0
LINE
  5
223
  8
DETAIL
  6
CONTINUOUS
 62
     5
 10
-91.478308999999996
 20
-39.322634999999991
 30
0.0
 11
-96.260050000000007
 21
-40.0
 31
0.0
  0
ARC
  5
224
  8
DETAIL
  6
CONTINUOUS
 62
     5
 10
-89.461358999999987
 20
-36.385073999999989
 30
0.0
 40
1.371799999999999
 50
305.55846799999989
 51
328.83985200000001
  0
ARC
  5
225
  8
DETAIL
  6
CONTINUOUS
 62
     5
 10
-91.670711999999995
 20
-37.964393999999999
 30
0.0
 40
1.371799999999999
 50
278.06268399999999
 51
305.55846799999989
  0
LINE
  5
226
  8
DETAIL
  6
CONTINUOUS
 62
     5
 10
-100.163804
 20
-40.0
 30
0.0
 11
-98.246003000000002
 21
-40.0
 31
0.0
  0
LINE
  5
227
  8
DETAIL
  6
CONTINUOUS
 62
     5
 10
-98.246003000000002
 20
-40.0
 30
0.0
 11
-96.260050000000007
 21
-40.0
 31
0.0
  0
ARC
  5
228
  8
DETAIL
  6
CONTINUOUS
 62
     5
 10
72.675413000000006
 20
21.466386
 30
0.0
 40
60.365754000000003
 50
246.643991
 51
287.42911499999991
  0
ARC
  5
229
  8
DETAIL
  6
CONTINUOUS
 62
     5
 10
4.6087730000000002
 20
133.83927099999991
 30
0.0
 40
173.49966499999999
 50
267.75127199999991
 51
289.20975099999993
  0
ARC
  5
22A
  8
DETAIL
  6
CONTINUOUS
 62
     5
 10
-2.0380880000000001
 20
-36.531098999999998
 30
0.0
 40
3.0
 50
104.481064
 51
266.92639800000001
  0
ARC
  5
22B
  8
DETAIL
  6
CONTINUOUS
 62
     5
 10
-12.882726999999999
 20
28.430686999999988
 30
0.0
 40
62.872737000000001
 50
279.23904499999992
 51
291.66651000000002
  0
ARC
  5
22C
  8
DETAIL
  6
CONTINUOUS
 62
     5
 10
98.628391000000022
 20
133.768609
 30
0.0
 40
170.07874799999991
 50
256.22945399999992
 51
267.34718800000002
  0
TEXT
  5
22D
  8
ETC
  6
CONTINUOUS
 62
    61
 10
485.02598014382983
 20
332.39963848499133
 30
0.0
 40
50.0
  1
EFG-20SA1
 41
0.9
  0
TEXT
  5
22E
  8
ETC
  6
CONTINUOUS
 62
    61
 10
371.39376691583692
 20
514.98709864198202
 30
0.0
 40
64.0
  1
EFG-20SA1_1
 41
0.9
  0
TEXT
  5
22F
  8
ETC
  6
CONTINUOUS
 62
    61
 10
363.3202889158369
 20
416.96837264198223
 30
0.0
 40
64.0
  1
産業扇
 41
0.9
  0
LINE
  5
230
  8
SIZE
  6
CONTINUOUS
 62
    30
 10
-161.0
 20
-49.757421553003716
 30
0.0
 11
-161.0
 21
-247.55891276664951
 31
0.0
  0
LINE
  5
231
  8
SIZE
  6
CONTINUOUS
 62
    30
 10
161.0
 20
-49.757421553003716
 30
0.0
 11
160.9999999999998
 21
-247.55891276664951
 31
0.0
  0
LINE
  5
232
  8
SIZE
  6
CONTINUOUS
 62
    30
 10
-161.0
 20
-227.5589127666496
 30
0.0
 11
160.9999999999998
 21
-227.5589127666496
 31
0.0
  0
TEXT
  5
233
  8
SIZE
  6
CONTINUOUS
 62
    30
 10
-107.98388977740279
 20
-200.76690766998371
 30
0.0
 40
64.0
  1
□322
 41
0.9
 72
     1
 11
2.5532530797399882
 21
-200.76690766998371
 31
0.0
  0
LINE
  5
234
  8
DETAIL
  6
CONTINUOUS
 62
     5
 10
-112.5
 20
206.0
 30
0.0
 11
112.5
 21
206.0
 31
0.0
  0
LINE
  5
235
  8
DETAIL
  6
CONTINUOUS
 62
     5
 39
50.0
 10
-112.5
 20
155.0
 30
0.0
 11
-112.5
 21
206.0
 31
0.0
  0
LINE
  5
236
  8
DETAIL
  6
CONTINUOUS
 62
     5
 39
50.0
 10
112.5
 20
155.0
 30
0.0
 11
112.5
 21
206.0
 31
0.0
  0
LINE
  5
237
  8
SIZE
  6
CONTINUOUS
 62
    30
 10
140.0
 20
40.0
 30
0.0
 11
140.0
 21
501.21141745697429
 31
0.0
  0
LINE
  5
238
  8
SIZE
  6
CONTINUOUS
 62
    30
 10
-140.0
 20
40.0
 30
0.0
 11
-139.9999999999998
 21
501.21141745697429
 31
0.0
  0
LINE
  5
239
  8
SIZE
  6
CONTINUOUS
 62
    30
 10
140.0
 20
481.21141745697429
 30
0.0
 11
-139.9999999999998
 21
481.21141745697429
 31
0.0
  0
LINE
  5
23A
  8
SIZE
  6
CONTINUOUS
 62
    30
 10
-132.4999999999998
 20
206.0
 30
0.0
 11
-439.626375
 21
206.0
 31
0.0
  0
LINE
  5
23B
  8
SIZE
  6
CONTINUOUS
 62
    30
 10
-419.62637499999988
 20
323.02017290669551
 30
0.0
 11
-419.62637499999988
 21
155.0
 31
0.0
  0
TEXT
  5
23C
  8
SIZE
  6
CONTINUOUS
 62
    30
 10
-74.057142857142807
 20
501.21141745697429
 30
0.0
 40
64.0
  1
280
 41
0.9
  0
TEXT
  5
23D
  8
SIZE
  6
CONTINUOUS
 62
    30
 10
-439.47363098076471
 20
232.6672321397171
 30
0.0
 40
64.0
  1
51
 50
90.0
 41
0.9
  0
CIRCLE
  5
23E
  8
SIZE
  6
CONTINUOUS
 62
    30
 39
50.0
 10
-139.9999999999998
 20
481.21141745697429
 30
0.0
 40
6.0
  0
CIRCLE
  5
23F
  8
SIZE
  6
CONTINUOUS
 62
    30
 39
50.0
 10
140.0
 20
481.21141745697429
 30
0.0
 40
6.0
  0
CIRCLE
  5
240
  8
SIZE
  6
CONTINUOUS
 62
    30
 39
50.0
 10
-419.62637499999988
 20
206.0
 30
0.0
 40
6.0
  0
CIRCLE
  5
241
  8
SIZE
  6
CONTINUOUS
 62
    30
 39
50.0
 10
-161.0
 20
-227.5589127666496
 30
0.0
 40
6.0
  0
CIRCLE
  5
242
  8
SIZE
  6
CONTINUOUS
 62
    30
 39
50.0
 10
160.9999999999998
 20
-227.55891276664971
 30
0.0
 40
6.0
  0
LINE
  5
243
  8
OUTLINE
  6
CONTINUOUS
 62
     3
 39
50.0
 10
-120.0
 20
155.0
 30
0.0
 11
120.0
 21
155.0
 31
0.0
  0
ENDSEC
  0
EOF
