  0
SECTION
  2
HEADER
  9
$ACADVER
  1
AC1009
  9
$INSBASE
 10
0.0
 20
0.0
 30
0.0
  9
$EXTMIN
 10
-609.68410292388842
 20
-274.21051899999992
 30
0.0
  9
$EXTMAX
 10
941.9744274790819
 20
629.8990792811768
 30
50.0
  9
$LIMMIN
 10
-2970.0
 20
-2100.0
  9
$LIMMAX
 10
2970.0
 20
2100.0
  9
$ORTHOMODE
 70
     1
  9
$REGENMODE
 70
     0
  9
$FILLMODE
 70
     1
  9
$QTEXTMODE
 70
     0
  9
$MIRRTEXT
 70
     0
  9
$DRAGMODE
 70
     2
  9
$LTSCALE
 40
20.0
  9
$OSMODE
 70
   165
  9
$ATTMODE
 70
     1
  9
$TEXTSIZE
 40
64.0
  9
$TRACEWID
 40
0.05
  9
$TEXTSTYLE
  7
STANDARD
  9
$CLAYER
  8
OUTLINE
  9
$CELTYPE
  6
CONTINUOUS
  9
$CECOLOR
 62
     3
  9
$DIMSCALE
 40
1.0
  9
$DIMASZ
 40
40.0
  9
$DIMEXO
 40
20.0
  9
$DIMDLI
 40
200.0
  9
$DIMRND
 40
0.0
  9
$DIMDLE
 40
0.0
  9
$DIMEXE
 40
20.0
  9
$DIMTP
 40
0.0
  9
$DIMTM
 40
0.0
  9
$DIMTXT
 40
64.0
  9
$DIMCEN
 40
0.09
  9
$DIMTSZ
 40
0.0
  9
$DIMTOL
 70
     0
  9
$DIMLIM
 70
     0
  9
$DIMTIH
 70
     0
  9
$DIMTOH
 70
     0
  9
$DIMSE1
 70
     0
  9
$DIMSE2
 70
     0
  9
$DIMTAD
 70
     1
  9
$DIMZIN
 70
     8
  9
$DIMBLK
  1
NONE
  9
$DIMASO
 70
     1
  9
$DIMSHO
 70
     0
  9
$DIMPOST
  1

  9
$DIMAPOST
  1

  9
$DIMALT
 70
     0
  9
$DIMALTD
 70
     2
  9
$DIMALTF
 40
25.399999999999999
  9
$DIMLFAC
 40
1.0
  9
$DIMTOFL
 70
     1
  9
$DIMTVP
 40
0.0
  9
$DIMTIX
 70
     1
  9
$DIMSOXD
 70
     0
  9
$DIMSAH
 70
     0
  9
$DIMBLK1
  1
NONE
  9
$DIMBLK2
  1
ORIGIN
  9
$DIMSTYLE
  2
STANDARD
  9
$DIMCLRD
 70
     0
  9
$DIMCLRE
 70
     0
  9
$DIMCLRT
 70
     0
  9
$DIMTFAC
 40
1.0
  9
$DIMGAP
 40
20.0
  9
$LUNITS
 70
     2
  9
$LUPREC
 70
     4
  9
$SKETCHINC
 40
0.1
  9
$FILLETRAD
 40
5.0
  9
$AUNITS
 70
     1
  9
$AUPREC
 70
     3
  9
$MENU
  1
ACAD
  9
$ELEVATION
 40
0.0
  9
$PELEVATION
 40
0.0
  9
$THICKNESS
 40
50.0
  9
$LIMCHECK
 70
     0
  9
$BLIPMODE
 70
     0
  9
$CHAMFERA
 40
0.0
  9
$CHAMFERB
 40
0.0
  9
$SKPOLY
 70
     0
  9
$TDCREATE
 40
2451453.4938508091
  9
$TDUPDATE
 40
2454203.395280845
  9
$TDINDWG
 40
0.6133416204
  9
$TDUSRTIMER
 40
0.6133416204
  9
$USRTIMER
 70
     1
  9
$ANGBASE
 50
0.0
  9
$ANGDIR
 70
     0
  9
$PDMODE
 70
     3
  9
$PDSIZE
 40
-2.0
  9
$PLINEWID
 40
0.0
  9
$COORDS
 70
     2
  9
$SPLFRAME
 70
     0
  9
$SPLINETYPE
 70
     6
  9
$SPLINESEGS
 70
     8
  9
$ATTDIA
 70
     0
  9
$ATTREQ
 70
     1
  9
$HANDLING
 70
 22529
  9
$HANDSEED
  5
34E
  9
$SURFTAB1
 70
     6
  9
$SURFTAB2
 70
     6
  9
$SURFTYPE
 70
     6
  9
$SURFU
 70
     6
  9
$SURFV
 70
     6
  9
$UCSNAME
  2

  9
$UCSORG
 10
0.0
 20
0.0
 30
0.0
  9
$UCSXDIR
 10
1.0
 20
0.0
 30
0.0
  9
$UCSYDIR
 10
0.0
 20
1.0
 30
0.0
  9
$PUCSNAME
  2

  9
$PUCSORG
 10
0.0
 20
0.0
 30
0.0
  9
$PUCSXDIR
 10
1.0
 20
0.0
 30
0.0
  9
$PUCSYDIR
 10
0.0
 20
1.0
 30
0.0
  9
$USERI1
 70
     0
  9
$USERI2
 70
     0
  9
$USERI3
 70
     0
  9
$USERI4
 70
     0
  9
$USERI5
 70
     0
  9
$USERR1
 40
20.0
  9
$USERR2
 40
0.0
  9
$USERR3
 40
0.0
  9
$USERR4
 40
0.0
  9
$USERR5
 40
0.0
  9
$WORLDVIEW
 70
     1
  9
$SHADEDGE
 70
     3
  9
$SHADEDIF
 70
    70
  9
$TILEMODE
 70
     1
  9
$MAXACTVP
 70
    64
  9
$PLIMCHECK
 70
     0
  9
$PEXTMIN
 10
1.0000000000000000E+020
 20
1.0000000000000000E+020
 30
1.0000000000000000E+020
  9
$PEXTMAX
 10
-1.0000000000000000E+020
 20
-1.0000000000000000E+020
 30
-1.0000000000000000E+020
  9
$PLIMMIN
 10
0.0
 20
0.0
  9
$PLIMMAX
 10
12.0
 20
9.0
  9
$UNITMODE
 70
     0
  9
$VISRETAIN
 70
     1
  9
$PLINEGEN
 70
     0
  9
$PSLTSCALE
 70
     1
  0
ENDSEC
  0
SECTION
  2
TABLES
  0
TABLE
  2
VPORT
 70
     3
  0
VPORT
  2
*ACTIVE
 70
     0
 10
0.0
 20
0.0
 11
1.0
 21
1.0
 12
133.3793863739397
 22
179.1897249078082
 13
0.0
 23
0.0
 14
1.0
 24
1.0
 15
0.0
 25
0.0
 16
0.0
 26
0.0
 36
1.0
 17
0.0
 27
0.0
 37
0.0
 40
1408.806252042202
 41
1.672794117647058
 42
50.0
 43
0.0
 44
0.0
 50
0.0
 51
0.0
 71
     0
 72
   100
 73
     1
 74
     0
 75
     0
 76
     0
 77
     0
 78
     0
  0
ENDTAB
  0
TABLE
  2
LTYPE
 70
     2
  0
LTYPE
  2
CONTINUOUS
 70
     0
  3
実線
 72
    65
 73
     0
 40
0.0
  0
LTYPE
  2
DASHDOT
 70
     0
  3
____ _ ____ _ ____ _ ____ _ ____ _ ____ _ ____
 72
    65
 73
     4
 40
5.5
 49
4.0
 49
-0.6
 49
0.3
 49
-0.6
  0
ENDTAB
  0
TABLE
  2
LAYER
 70
    12
  0
LAYER
  2
0
 70
     0
 62
     7
  6
CONTINUOUS
  0
LAYER
  2
OUTLINE
 70
     0
 62
     3
  6
CONTINUOUS
  0
LAYER
  2
SIZE
 70
     0
 62
    30
  6
CONTINUOUS
  0
LAYER
  2
BASIS
 70
     0
 62
     6
  6
DASHDOT
  0
LAYER
  2
DETAIL
 70
     0
 62
     5
  6
CONTINUOUS
  0
LAYER
  2
ARRANGE
 70
     0
 62
     1
  6
CONTINUOUS
  0
LAYER
  2
DEFPOINTS
 70
     0
 62
     7
  6
CONTINUOUS
  0
LAYER
  2
ETC
 70
     0
 62
    61
  6
CONTINUOUS
  0
LAYER
  2
FIX
 70
     0
 62
    11
  6
CONTINUOUS
  0
LAYER
  2
NOTE
 70
     0
 62
     4
  6
CONTINUOUS
  0
LAYER
  2
SERVICESPACE
 70
     0
 62
     2
  6
DASHDOT
  0
LAYER
  2
SYMBOLLINE
 70
     0
 62
    15
  6
CONTINUOUS
  0
ENDTAB
  0
TABLE
  2
STYLE
 70
     1
  0
STYLE
  2
STANDARD
 70
     0
 40
64.0
 41
0.9
 50
0.0
 71
     0
 42
64.0
  3
SIMPLEX.shx
  4
BIGFONT.shx
  0
ENDTAB
  0
TABLE
  2
VIEW
 70
     1
  0
VIEW
  2
ALL
 70
     0
 40
4282.6198079999976
 10
0.0
 20
41.309903999999989
 41
5940.0
 11
0.0
 21
0.0
 31
1.0
 12
0.0
 22
0.0
 32
0.0
 42
50.0
 43
0.0
 44
0.0
 50
0.0
 71
     0
  0
ENDTAB
  0
TABLE
  2
UCS
 70
     0
  0
ENDTAB
  0
TABLE
  2
APPID
 70
     1
  0
APPID
  2
ACAD
 70
     0
  0
ENDTAB
  0
TABLE
  2
DIMSTYLE
 70
     1
  0
DIMSTYLE
  2
STANDARD
 70
     0
  3

  4

  5

  6

  7

 40
1.0
 41
0.18
 42
0.0625
 43
0.38
 44
0.18
 45
0.0
 46
0.0
 47
0.0
 48
0.0
140
0.18
141
0.09
142
0.0
143
25.399999999999999
144
1.0
145
0.0
146
1.0
147
0.09
 71
     0
 72
     0
 73
     1
 74
     1
 75
     0
 76
     0
 77
     0
 78
     0
170
     0
171
     2
172
     0
173
     0
174
     0
175
     0
176
     0
177
     0
178
     0
  0
ENDTAB
  0
ENDSEC
  0
SECTION
  2
BLOCKS
  0
BLOCK
  8
0
  2
$MODEL_SPACE
 70
     0
 10
0.0
 20
0.0
 30
0.0
  3
$MODEL_SPACE
  1

  0
ENDBLK
  5
25C
  8
0
  0
BLOCK
 67
     1
  8
0
  2
$PAPER_SPACE
 70
     0
 10
0.0
 20
0.0
 30
0.0
  3
$PAPER_SPACE
  1

  0
ENDBLK
  5
258
 67
     1
  8
0
  0
BLOCK
  8
0
  2
DOT1
 70
     0
 10
0.0
 20
0.0
 30
0.0
  3
DOT1
  1

  0
CIRCLE
  5
277
  8
SIZE
  6
CONTINUOUS
 62
     7
 10
0.0
 20
0.0
 30
0.0
 40
3.0
  0
ENDBLK
  5
278
  8
0
  0
BLOCK
  8
0
  2
_ORIGIN
 70
     0
 10
0.0
 20
0.0
 30
0.0
  3
_ORIGIN
  1

  0
CIRCLE
  5
27B
  8
0
  6
CONTINUOUS
 62
     7
 10
0.0
 20
0.0
 30
0.0
 40
0.5
  0
LINE
  5
27C
  8
0
  6
CONTINUOUS
 62
     7
 10
0.0
 20
0.0
 30
0.0
 11
-1.0
 21
0.0
 31
0.0
  0
ENDBLK
  5
27D
  8
0
  0
BLOCK
  8
0
 62
     8
  2
_NONE
 70
     0
 10
0.0
 20
0.0
 30
0.0
  3
_NONE
  1

  0
ENDBLK
  5
280
  8
0
 62
     8
  0
BLOCK
  8
0
 62
     8
  2
_OPEN30
 70
     0
 10
0.0
 20
0.0
 30
0.0
  3
_OPEN30
  1

  0
LINE
  5
283
  8
0
  6
BYBLOCK
 62
     0
 10
-1.0
 20
0.26794919
 30
0.0
 11
0.0
 21
0.0
 31
0.0
  0
LINE
  5
284
  8
0
  6
BYBLOCK
 62
     0
 10
0.0
 20
0.0
 30
0.0
 11
-1.0
 21
-0.26794919
 31
0.0
  0
LINE
  5
285
  8
0
  6
BYBLOCK
 62
     0
 10
0.0
 20
0.0
 30
0.0
 11
-1.0
 21
0.0
 31
0.0
  0
ENDBLK
  5
286
  8
0
 62
     8
  0
BLOCK
  8
0
 62
    30
  2
*D6
 70
     1
 10
0.0
 20
0.0
 30
0.0
  3
*D6
  1

  0
LINE
  5
289
  8
SIZE
  6
CONTINUOUS
 62
     0
 10
-206.0
 20
89.571435000000065
 30
0.0
 11
-205.9999999999998
 21
599.40062431545812
 31
0.0
  0
LINE
  5
28A
  8
SIZE
  6
CONTINUOUS
 62
     0
 10
-155.0
 20
459.626375
 30
0.0
 11
-155.0
 21
599.40062431545812
 31
0.0
  0
LINE
  5
28B
  8
SIZE
  6
CONTINUOUS
 62
     0
 10
-205.9999999999998
 20
579.40062431545812
 30
0.0
 11
-245.99999999999989
 21
579.40062431545812
 31
0.0
  0
LINE
  5
28C
  8
SIZE
  6
CONTINUOUS
 62
     0
 10
-155.0
 20
579.40062431545812
 30
0.0
 11
-115.0
 21
579.40062431545812
 31
0.0
  0
LINE
  5
28D
  8
SIZE
  6
CONTINUOUS
 62
     0
 10
-205.9999999999998
 20
579.40062431545812
 30
0.0
 11
-155.0
 21
579.40062431545812
 31
0.0
  0
TEXT
  5
28E
  8
OUTLINE
  6
CONTINUOUS
 62
     0
 10
-214.78571428571411
 20
599.40062431545812
 30
0.0
 40
64.0
  1
51
 41
0.9
  0
POINT
  5
28F
  8
DEFPOINTS
  6
CONTINUOUS
 62
     0
 10
-206.0
 20
69.571435000000065
 30
0.0
  0
POINT
  5
290
  8
DEFPOINTS
  6
CONTINUOUS
 62
     0
 10
-155.0
 20
439.626375
 30
0.0
  0
POINT
  5
291
  8
DEFPOINTS
  6
CONTINUOUS
 62
     0
 10
-155.0
 20
579.40062431545812
 30
0.0
  0
ENDBLK
  5
292
  8
0
 62
    30
  0
ENDSEC
  0
SECTION
  2
ENTITIES
  0
LINE
  5
293
  8
BASIS
  6
DASHDOT
 62
     6
 10
-185.647299
 20
0.0
 30
0.0
 11
79.336862999999965
 21
0.0
 31
0.0
  0
POINT
  5
294
  8
ARRANGE
  6
CONTINUOUS
 62
     1
 10
0.0
 20
0.0
 30
0.0
  0
LINE
  5
295
  8
DETAIL
  6
CONTINUOUS
 62
     5
 10
-155.0
 20
120.0
 30
0.0
 11
0.0
 21
120.0
 31
0.0
  0
LINE
  5
296
  8
DETAIL
  6
CONTINUOUS
 62
     5
 10
-155.0
 20
-120.0
 30
0.0
 11
0.0
 21
-120.0
 31
0.0
  0
LINE
  5
297
  8
DETAIL
  6
CONTINUOUS
 62
     5
 10
0.0
 20
-161.0
 30
0.0
 11
25.0
 21
-161.0
 31
0.0
  0
LINE
  5
298
  8
DETAIL
  6
CONTINUOUS
 62
     5
 10
0.0
 20
161.0
 30
0.0
 11
25.0
 21
161.0
 31
0.0
  0
LINE
  5
299
  8
NOTE
  6
CONTINUOUS
 62
     4
 10
0.0
 20
-140.0
 30
0.0
 11
102.6040129999999
 21
-263.87313799999993
 31
0.0
  0
LINE
  5
29A
  8
NOTE
  6
CONTINUOUS
 62
     4
 10
395.57193299999989
 20
-263.87313799999993
 30
0.0
 11
102.6040129999999
 21
-263.87313799999993
 31
0.0
  0
LINE
  5
29B
  8
DETAIL
  6
CONTINUOUS
 62
     5
 10
0.0
 20
161.0
 30
0.0
 11
0.0
 21
121.5000049999999
 31
0.0
  0
CIRCLE
  5
29C
  8
ARRANGE
  6
CONTINUOUS
 62
     1
 10
0.0
 20
0.0
 30
0.0
 40
54.482759999999992
  0
LINE
  5
29D
  8
DETAIL
  6
CONTINUOUS
 62
     5
 10
0.0
 20
-121.5000049999999
 30
0.0
 11
0.0
 21
-161.0
 31
0.0
  0
LINE
  5
29E
  8
DETAIL
  6
CONTINUOUS
 62
     5
 10
0.0
 20
121.5000049999999
 30
0.0
 11
0.0
 21
-121.5000049999999
 31
0.0
  0
LINE
  5
29F
  8
DETAIL
  6
CONTINUOUS
 62
     5
 10
-155.0
 20
120.0
 30
0.0
 11
-155.0
 21
-120.0
 31
0.0
  0
LINE
  5
2A0
  8
DETAIL
  6
CONTINUOUS
 62
     5
 10
30.0
 20
156.0
 30
0.0
 11
30.0
 21
-156.0
 31
0.0
  0
LINE
  5
2A1
  8
NOTE
  6
CONTINUOUS
 62
     4
 10
20.0
 20
140.0
 30
0.0
 11
-20.0
 21
140.0
 31
0.0
  0
LINE
  5
2A2
  8
NOTE
  6
CONTINUOUS
 62
     4
 10
0.0
 20
160.0
 30
0.0
 11
0.0
 21
120.0
 31
0.0
  0
LINE
  5
2A3
  8
NOTE
  6
CONTINUOUS
 62
     4
 10
20.0
 20
-140.0
 30
0.0
 11
-20.0
 21
-140.0
 31
0.0
  0
LINE
  5
2A4
  8
NOTE
  6
CONTINUOUS
 62
     4
 10
0.0
 20
-120.0
 30
0.0
 11
0.0
 21
-160.0
 31
0.0
  0
TEXT
  5
2A5
  8
NOTE
  6
CONTINUOUS
 62
     4
 10
115.46211099999989
 20
-237.6071519999999
 30
0.0
 40
64.0
  1
4-φ10
 41
0.9
  0
LINE
  5
2A6
  8
NOTE
  6
CONTINUOUS
 62
     4
 10
16.700012000000001
 20
-176.34707199999991
 30
0.0
 11
0.0
 21
-140.0
 31
0.0
  0
LINE
  5
2A7
  8
NOTE
  6
CONTINUOUS
 62
     4
 10
0.0
 20
-140.0
 30
0.0
 11
32.636169999999993
 21
-163.1274809999999
 31
0.0
  0
LINE
  5
2A8
  8
SIZE
  6
CONTINUOUS
 62
    30
 10
0.0
 20
181.0
 30
0.0
 11
0.0
 21
439.626375
 31
0.0
  0
LINE
  5
2A9
  8
SIZE
  6
CONTINUOUS
 62
    30
 10
30.0
 20
176.0
 30
0.0
 11
30.0
 21
439.626375
 31
0.0
  0
LINE
  5
2AA
  8
SIZE
  6
CONTINUOUS
 62
    30
 10
-343.4830364082718
 20
419.62637499999988
 30
0.0
 11
197.2571429999999
 21
419.62637499999988
 31
0.0
  0
TEXT
  5
2AB
  8
SIZE
  6
CONTINUOUS
 62
    30
 10
78.999999571428447
 20
444.62637499999988
 30
0.0
 40
64.0
  1
30
 41
0.9
 72
     1
 11
125.62857099999979
 21
444.62637499999988
 31
0.0
  0
LINE
  5
2AC
  8
SIZE
  6
CONTINUOUS
 62
    30
 10
-155.0
 20
140.0
 30
0.0
 11
-155.0
 21
439.626375
 31
0.0
  0
LINE
  5
2AD
  8
SIZE
  6
CONTINUOUS
 62
    30
 10
0.0
 20
181.0
 30
0.0
 11
0.0
 21
439.626375
 31
0.0
  0
TEXT
  5
2AE
  8
SIZE
  6
CONTINUOUS
 62
    30
 10
-146.0714285714285
 20
444.62637499999988
 30
0.0
 40
64.0
  1
155
 41
0.9
 72
     1
 11
-77.5
 21
444.62637499999988
 31
0.0
  0
LINE
  5
2AF
  8
SIZE
  6
CONTINUOUS
 62
    30
 10
30.0
 20
176.0
 30
0.0
 11
30.0
 21
298.03836199999989
 31
0.0
  0
LINE
  5
2B0
  8
SIZE
  6
CONTINUOUS
 62
    30
 10
40.0
 20
120.1638039999999
 30
0.0
 11
40.0
 21
298.03836199999989
 31
0.0
  0
LINE
  5
2B1
  8
SIZE
  6
CONTINUOUS
 62
    30
 10
18.0
 20
278.03836200000001
 30
0.0
 11
6.0
 21
278.03836200000001
 31
0.0
  0
LINE
  5
2B2
  8
SIZE
  6
CONTINUOUS
 62
    30
 10
52.0
 20
278.03836200000001
 30
0.0
 11
216.40000000000001
 21
278.03836200000001
 31
0.0
  0
LINE
  5
2B3
  8
SIZE
  6
CONTINUOUS
 62
    30
 10
30.0
 20
278.03836200000001
 30
0.0
 11
40.0
 21
278.03836200000001
 31
0.0
  0
CIRCLE
  5
2B4
  8
SIZE
  6
CONTINUOUS
 62
    30
 10
30.0
 20
278.03836200000001
 30
0.0
 40
6.0
  0
LINE
  5
2B5
  8
SIZE
  6
CONTINUOUS
 62
    30
 10
30.0
 20
278.03836200000001
 30
0.0
 11
18.0
 21
278.03836200000001
 31
0.0
  0
CIRCLE
  5
2B6
  8
SIZE
  6
CONTINUOUS
 62
    30
 10
40.0
 20
278.03836200000001
 30
0.0
 40
6.0
  0
LINE
  5
2B7
  8
SIZE
  6
CONTINUOUS
 62
    30
 10
40.0
 20
278.03836200000001
 30
0.0
 11
52.0
 21
278.03836200000001
 31
0.0
  0
TEXT
  5
2B8
  8
SIZE
  6
CONTINUOUS
 62
    30
 10
109.1142858571427
 20
303.03836200000001
 30
0.0
 40
64.0
  1
10
 41
0.9
 72
     1
 11
150.25714299999979
 21
303.03836200000001
 31
0.0
  0
ARC
  5
2B9
  8
DETAIL
  6
CONTINUOUS
 62
     5
 10
25.0
 20
156.0
 30
0.0
 40
5.0
 50
0.0
 51
90.0
  0
ARC
  5
2BA
  8
DETAIL
  6
CONTINUOUS
 62
     5
 10
25.0
 20
-156.0
 30
0.0
 40
5.0
 50
270.0
 51
0.0
  0
CIRCLE
  5
2BB
  8
FIX
  6
CONTINUOUS
 62
    11
 39
50.0
 10
0.0
 20
140.0000049999999
 30
0.0
 40
5.0
  0
CIRCLE
  5
2BC
  8
FIX
  6
CONTINUOUS
 62
    11
 39
50.0
 10
0.0
 20
-139.9999949999999
 30
0.0
 40
5.0
  0
LINE
  5
2BD
  8
SIZE
  6
CONTINUOUS
 62
    30
 10
308.36375141934423
 20
-161.0
 30
0.0
 11
52.055069159571758
 21
-161.0
 31
0.0
  0
LINE
  5
2BE
  8
SIZE
  6
CONTINUOUS
 62
    30
 10
311.52806061311179
 20
161.0
 30
0.0
 11
52.055069159571758
 21
161.0
 31
0.0
  0
LINE
  5
2BF
  8
SIZE
  6
CONTINUOUS
 62
    30
 10
279.88500894603641
 20
-149.0
 30
0.0
 11
279.88500894603641
 21
149.0
 31
0.0
  0
CIRCLE
  5
2C0
  8
SIZE
  6
CONTINUOUS
 62
    30
 10
279.88500894603641
 20
-161.0
 30
0.0
 40
6.0
  0
LINE
  5
2C1
  8
SIZE
  6
CONTINUOUS
 62
    30
 10
279.88500894603641
 20
-161.0
 30
0.0
 11
279.88500894603641
 21
-149.0
 31
0.0
  0
CIRCLE
  5
2C2
  8
SIZE
  6
CONTINUOUS
 62
    30
 10
279.88500894603641
 20
161.0
 30
0.0
 40
6.0
  0
LINE
  5
2C3
  8
SIZE
  6
CONTINUOUS
 62
    30
 10
279.88500894603641
 20
161.0
 30
0.0
 11
279.88500894603641
 21
149.0
 31
0.0
  0
TEXT
  5
2C4
  8
SIZE
  6
CONTINUOUS
 62
    30
 10
254.88500894603641
 20
-110.5371428571428
 30
0.0
 40
64.0
  1
□322
 50
90.0
 41
0.9
 72
     1
 11
254.88500894603641
 21
0.0
 31
0.0
  0
LINE
  5
2C5
  8
SIZE
  6
CONTINUOUS
 62
    30
 10
-40.0
 20
-140.0
 30
0.0
 11
-549.16284539719686
 21
-140.0
 31
0.0
  0
LINE
  5
2C6
  8
SIZE
  6
CONTINUOUS
 62
    30
 10
-40.0
 20
140.0
 30
0.0
 11
-549.16284539719686
 21
140.0
 31
0.0
  0
LINE
  5
2C7
  8
SIZE
  6
CONTINUOUS
 62
    30
 10
-520.68410292388842
 20
-128.0
 30
0.0
 11
-520.68410292388842
 21
128.0
 31
0.0
  0
CIRCLE
  5
2C8
  8
SIZE
  6
CONTINUOUS
 62
    30
 10
-520.68410292388842
 20
-140.0
 30
0.0
 40
6.0
  0
LINE
  5
2C9
  8
SIZE
  6
CONTINUOUS
 62
    30
 10
-520.68410292388842
 20
-140.0
 30
0.0
 11
-520.68410292388842
 21
-128.0
 31
0.0
  0
CIRCLE
  5
2CA
  8
SIZE
  6
CONTINUOUS
 62
    30
 10
-520.68410292388842
 20
140.0
 30
0.0
 40
6.0
  0
LINE
  5
2CB
  8
SIZE
  6
CONTINUOUS
 62
    30
 10
-520.68410292388842
 20
140.0
 30
0.0
 11
-520.68410292388842
 21
128.0
 31
0.0
  0
TEXT
  5
2CC
  8
SIZE
  6
CONTINUOUS
 62
    30
 10
-545.68410292388842
 20
-74.057142857142836
 30
0.0
 40
64.0
  1
280
 50
90.0
 41
0.9
 72
     1
 11
-545.68410292388842
 21
0.0
 31
0.0
  0
LINE
  5
2CD
  8
SIZE
  6
CONTINUOUS
 62
    30
 10
-175.0
 20
-120.0
 30
0.0
 11
-403.60482383688941
 21
-120.0
 31
0.0
  0
LINE
  5
2CE
  8
SIZE
  6
CONTINUOUS
 62
    30
 10
-175.0
 20
120.0
 30
0.0
 11
-406.7691263188907
 21
120.0
 31
0.0
  0
LINE
  5
2CF
  8
SIZE
  6
CONTINUOUS
 62
    30
 10
-378.2903838455822
 20
-108.0
 30
0.0
 11
-378.2903838455822
 21
108.0
 31
0.0
  0
CIRCLE
  5
2D0
  8
SIZE
  6
CONTINUOUS
 62
    30
 10
-378.2903838455822
 20
-120.0
 30
0.0
 40
6.0
  0
LINE
  5
2D1
  8
SIZE
  6
CONTINUOUS
 62
    30
 10
-378.2903838455822
 20
-120.0
 30
0.0
 11
-378.2903838455822
 21
-108.0
 31
0.0
  0
CIRCLE
  5
2D2
  8
SIZE
  6
CONTINUOUS
 62
    30
 10
-378.2903838455822
 20
120.0
 30
0.0
 40
6.0
  0
LINE
  5
2D3
  8
SIZE
  6
CONTINUOUS
 62
    30
 10
-378.2903838455822
 20
120.0
 30
0.0
 11
-378.2903838455822
 21
108.0
 31
0.0
  0
TEXT
  5
2D4
  8
SIZE
  6
CONTINUOUS
 62
    30
 10
-403.2903838455822
 20
-110.5371428571428
 30
0.0
 40
64.0
  1
□240
 50
90.0
 41
0.9
 72
     1
 11
-403.2903838455822
 21
0.0
 31
0.0
  0
LINE
  5
2D5
  8
OUTLINE
  6
CONTINUOUS
 62
     3
 10
30.0
 20
156.0
 30
0.0
 11
30.0
 21
-156.0
 31
0.0
  0
LINE
  5
2D6
  8
OUTLINE
  6
CONTINUOUS
 62
     3
 10
0.0
 20
121.5000049999999
 30
0.0
 11
0.0
 21
-121.5000049999999
 31
0.0
  0
LINE
  5
2D7
  8
OUTLINE
  6
CONTINUOUS
 62
     3
 10
-155.0
 20
120.0
 30
0.0
 11
0.0
 21
120.0
 31
0.0
  0
ARC
  5
2D8
  8
OUTLINE
  6
CONTINUOUS
 62
     3
 10
25.0
 20
156.0
 30
0.0
 40
5.0
 50
0.0
 51
90.0
  0
LINE
  5
2D9
  8
OUTLINE
  6
CONTINUOUS
 62
     3
 10
0.0
 20
161.0
 30
0.0
 11
25.0
 21
161.0
 31
0.0
  0
LINE
  5
2DA
  8
OUTLINE
  6
CONTINUOUS
 62
     3
 10
0.0
 20
161.0
 30
0.0
 11
0.0
 21
121.5000049999999
 31
0.0
  0
LINE
  5
2DB
  8
OUTLINE
  6
CONTINUOUS
 62
     3
 10
-155.0
 20
-120.0
 30
0.0
 11
0.0
 21
-120.0
 31
0.0
  0
ARC
  5
2DC
  8
OUTLINE
  6
CONTINUOUS
 62
     3
 10
25.0
 20
-156.0
 30
0.0
 40
5.0
 50
270.0
 51
0.0
  0
LINE
  5
2DD
  8
OUTLINE
  6
CONTINUOUS
 62
     3
 10
0.0
 20
-161.0
 30
0.0
 11
25.0
 21
-161.0
 31
0.0
  0
LINE
  5
2DE
  8
OUTLINE
  6
CONTINUOUS
 62
     3
 10
0.0
 20
-121.5000049999999
 30
0.0
 11
0.0
 21
-161.0
 31
0.0
  0
LINE
  5
2DF
  8
DETAIL
  6
CONTINUOUS
 62
     5
 10
-145.0
 20
90.0
 30
0.0
 11
-145.0
 21
-90.0
 31
0.0
  0
LINE
  5
2E0
  8
DETAIL
  6
CONTINUOUS
 62
     5
 10
-145.0
 20
-90.0
 30
0.0
 11
-123.0
 21
-90.0
 31
0.0
  0
LINE
  5
2E1
  8
DETAIL
  6
CONTINUOUS
 62
     5
 10
-145.0
 20
90.0
 30
0.0
 11
-123.0
 21
90.0
 31
0.0
  0
LINE
  5
2E2
  8
DETAIL
  6
CONTINUOUS
 62
     5
 10
-123.0
 20
90.0
 30
0.0
 11
-123.0
 21
-90.0
 31
0.0
  0
LINE
  5
2E3
  8
NOTE
  6
CONTINUOUS
 62
     4
 10
20.0
 20
-120.0
 30
0.0
 11
-20.0
 21
-120.0
 31
0.0
  0
LINE
  5
2E4
  8
NOTE
  6
CONTINUOUS
 62
     4
 10
0.0
 20
-100.0
 30
0.0
 11
0.0
 21
-140.0
 31
0.0
  0
LINE
  5
2E5
  8
NOTE
  6
CONTINUOUS
 62
     4
 39
50.0
 10
0.0
 20
-120.0
 30
0.0
 11
-192.4323819999999
 21
-274.21051899999992
 31
0.0
  0
LINE
  5
2E6
  8
NOTE
  6
CONTINUOUS
 62
     4
 39
50.0
 10
-192.4323819999999
 20
-274.21051899999992
 30
0.0
 11
-295.49933599999991
 21
-274.21051899999992
 31
0.0
  0
TEXT
  5
2E7
  8
NOTE
  6
CONTINUOUS
 62
     4
 10
-279.95285699999999
 20
-252.2032639999999
 30
0.0
 40
64.0
  1
EL
 41
0.9
  0
LINE
  5
2E8
  8
NOTE
  6
CONTINUOUS
 62
     4
 10
-22.166651000000002
 20
-153.2962399999999
 30
0.0
 11
0.0
 21
-120.0
 31
0.0
  0
LINE
  5
2E9
  8
NOTE
  6
CONTINUOUS
 62
     4
 10
0.0
 20
-120.0
 30
0.0
 11
-35.845002999999998
 21
-137.75206299999999
 31
0.0
  0
ARC
  5
2EA
  8
DETAIL
  6
CONTINUOUS
 62
     5
 10
-133.83927099999991
 20
-4.6087730000000002
 30
0.0
 40
173.49966499999999
 50
340.79024900000002
 51
2.2487279999999981
  0
ARC
  5
2EB
  8
DETAIL
  6
CONTINUOUS
 62
     5
 10
-21.466386
 20
-72.675413000000006
 30
0.0
 40
60.365754000000003
 50
342.57088499999992
 51
23.356009
  0
ARC
  5
2EC
  8
DETAIL
  6
CONTINUOUS
 62
     5
 10
-133.768609
 20
-98.628391000000022
 30
0.0
 40
170.07874799999991
 50
2.6528119999999991
 51
13.770546
  0
LINE
  5
2ED
  8
DETAIL
  6
CONTINUOUS
 62
     5
 10
30.44341699999999
 20
84.629688999999985
 30
0.0
 11
34.751821999999983
 21
86.870692000000005
 31
0.0
  0
ARC
  5
2EE
  8
DETAIL
  6
CONTINUOUS
 62
     5
 10
14.567387999999999
 20
99.796249000000003
 30
0.0
 40
25.435267
 50
0.8279860000000001
 51
52.645794999999993
  0
ARC
  5
2EF
  8
DETAIL
  6
CONTINUOUS
 62
     5
 10
36.531098999999998
 20
2.0380880000000001
 30
0.0
 40
3.0
 50
3.0736020000000002
 51
165.518936
  0
ARC
  5
2F0
  8
DETAIL
  6
CONTINUOUS
 62
     5
 10
-28.430686999999988
 20
12.882726999999999
 30
0.0
 40
62.872737000000001
 50
338.33348999999993
 51
350.76095500000002
  0
ARC
  5
2F1
  8
DETAIL
  6
CONTINUOUS
 62
     5
 10
36.347458000000003
 20
82.257885000000002
 30
0.0
 40
6.3626370000000003
 50
158.113415
 51
183.9584679999999
  0
LINE
  5
2F2
  8
DETAIL
  6
CONTINUOUS
 62
     5
 10
34.751821999999983
 20
86.870692000000005
 30
0.0
 11
37.094887
 21
88.287475999999984
 31
0.0
  0
LINE
  5
2F3
  8
DETAIL
  6
CONTINUOUS
 62
     5
 10
37.501063999999992
 20
88.663611000000003
 30
0.0
 11
39.080384999999993
 21
90.872964999999979
 31
0.0
  0
LINE
  5
2F4
  8
DETAIL
  6
CONTINUOUS
 62
     5
 10
39.322634999999991
 20
91.478308999999996
 30
0.0
 11
40.0
 21
96.260050000000007
 31
0.0
  0
ARC
  5
2F5
  8
DETAIL
  6
CONTINUOUS
 62
     5
 10
36.385073999999989
 20
89.461358999999987
 30
0.0
 40
1.371799999999999
 50
301.16014799999988
 51
324.441532
  0
ARC
  5
2F6
  8
DETAIL
  6
CONTINUOUS
 62
     5
 10
37.964393999999999
 20
91.670711999999995
 30
0.0
 40
1.371799999999999
 50
324.441532
 51
351.93731600000001
  0
LINE
  5
2F7
  8
DETAIL
  6
CONTINUOUS
 62
     5
 10
40.0
 20
100.163804
 30
0.0
 11
40.0
 21
98.246003000000002
 31
0.0
  0
LINE
  5
2F8
  8
DETAIL
  6
CONTINUOUS
 62
     5
 10
40.0
 20
98.246003000000002
 30
0.0
 11
40.0
 21
96.260050000000007
 31
0.0
  0
LINE
  5
2F9
  8
DETAIL
  6
CONTINUOUS
 62
     5
 39
50.0
 10
-155.0
 20
30.0
 30
0.0
 11
-206.0
 21
-5.4285649999999341
 31
0.0
  0
LINE
  5
2FA
  8
DETAIL
  6
CONTINUOUS
 62
     5
 39
50.0
 10
-202.49950299999989
 20
-5.4285649999999341
 30
0.0
 11
-155.0
 21
26.360321999999979
 31
0.0
  0
LINE
  5
2FB
  8
DETAIL
  6
CONTINUOUS
 62
     5
 39
50.0
 10
-206.0
 20
-80.428564999999935
 30
0.0
 11
-202.49950299999989
 21
-80.428564999999935
 31
0.0
  0
LINE
  5
2FC
  8
DETAIL
  6
CONTINUOUS
 62
     5
 39
50.0
 10
-202.49950299999989
 20
-80.428564999999935
 30
0.0
 11
-155.0
 21
-48.639678000000011
 31
0.0
  0
LINE
  5
2FD
  8
DETAIL
  6
CONTINUOUS
 62
     5
 39
50.0
 10
-155.0
 20
-45.0
 30
0.0
 11
-206.0
 21
-80.428564999999935
 31
0.0
  0
LINE
  5
2FE
  8
DETAIL
  6
CONTINUOUS
 62
     5
 39
50.0
 10
-206.0
 20
-5.4285649999999341
 30
0.0
 11
-202.49950299999989
 21
-5.4285649999999341
 31
0.0
  0
LINE
  5
2FF
  8
DETAIL
  6
CONTINUOUS
 62
     5
 39
50.0
 10
-206.0
 20
69.571435000000065
 30
0.0
 11
-202.49950299999989
 21
69.571435000000065
 31
0.0
  0
LINE
  5
300
  8
DETAIL
  6
CONTINUOUS
 62
     5
 39
50.0
 10
-202.49950299999989
 20
69.571435000000065
 30
0.0
 11
-155.0
 21
101.360322
 31
0.0
  0
LINE
  5
301
  8
DETAIL
  6
CONTINUOUS
 62
     5
 39
50.0
 10
-155.0
 20
105.0
 30
0.0
 11
-206.0
 21
69.571435000000065
 31
0.0
  0
TEXT
  5
302
  8
ETC
  6
CONTINUOUS
 62
    61
 10
338.54585605051062
 20
565.89907928117645
 30
0.0
 40
64.0
  1
EFG-20SA1_5
 41
0.9
  0
TEXT
  5
303
  8
ETC
  6
CONTINUOUS
 62
    61
 10
330.47237805051049
 20
467.88035328117633
 30
0.0
 40
64.0
  1
産業扇
 41
0.9
  0
TEXT
  5
304
  8
ETC
  6
CONTINUOUS
 62
    61
 10
452.17806927850341
 20
383.3116191241856
 30
0.0
 40
50.0
  1
EFG-20SA1
 41
0.9
  0
LINE
  5
305
  8
SIZE
  6
CONTINUOUS
 62
    30
 10
-206.0
 20
89.571435000000065
 30
0.0
 11
-205.9999999999998
 21
443.43547355170631
 31
0.0
  0
TEXT
  5
306
  8
SIZE
  6
CONTINUOUS
 62
    30
 10
-327.661510574734
 20
440.27349348834917
 30
0.0
 40
64.0
  1
51
 41
0.9
  0
CIRCLE
  5
307
  8
SIZE
  6
CONTINUOUS
 62
    30
 39
50.0
 10
-205.9999999999998
 20
419.62637499999988
 30
0.0
 40
6.0
  0
CIRCLE
  5
308
  8
SIZE
  6
CONTINUOUS
 62
    30
 39
50.0
 10
-155.0
 20
419.62637499999988
 30
0.0
 40
6.0
  0
CIRCLE
  5
309
  8
SIZE
  6
CONTINUOUS
 62
    30
 39
50.0
 10
0.0
 20
419.62637499999988
 30
0.0
 40
6.0
  0
CIRCLE
  5
30A
  8
SIZE
  6
CONTINUOUS
 62
    30
 39
50.0
 10
30.0
 20
419.62637499999988
 30
0.0
 40
6.0
  0
LINE
  5
30B
  8
OUTLINE
  6
CONTINUOUS
 62
     3
 39
50.0
 10
-155.0
 20
120.0
 30
0.0
 11
-155.0
 21
-120.0
 31
0.0
  0
ENDSEC
  0
EOF
