  0
SECTION
  2
HEADER
  9
$ACADVER
  1
AC1009
  9
$DWGCODEPAGE
  3
dos932
  9
$INSBASE
 10
0.0
 20
0.0
 30
0.0
  9
$EXTMIN
 10
-508.92790078526377
 20
-238.08287379574361
 30
-0.0015257624927045
  9
$EXTMAX
 10
906.37208174025909
 20
574.53919257332927
 30
0.0022888765696933
  9
$LIMMIN
 10
-2970.0
 20
-2100.0
  9
$LIMMAX
 10
2970.0
 20
2100.0
  9
$ORTHOMODE
 70
     1
  9
$REGENMODE
 70
     1
  9
$FILLMODE
 70
     1
  9
$QTEXTMODE
 70
     0
  9
$MIRRTEXT
 70
     0
  9
$LTSCALE
 40
20.0
  9
$ATTMODE
 70
     1
  9
$TEXTSIZE
 40
64.0
  9
$TRACEWID
 40
0.05
  9
$TEXTSTYLE
  7
STANDARD
  9
$CLAYER
  8
SIZE
  9
$CELTYPE
  6
CONTINUOUS
  9
$CECOLOR
 62
     7
  9
$DIMSCALE
 40
1.0
  9
$DIMASZ
 40
12.0
  9
$DIMEXO
 40
20.0
  9
$DIMDLI
 40
200.0
  9
$DIMRND
 40
0.0
  9
$DIMDLE
 40
0.0
  9
$DIMEXE
 40
20.0
  9
$DIMTP
 40
0.0
  9
$DIMTM
 40
0.0
  9
$DIMTXT
 40
64.0
  9
$DIMCEN
 40
0.09
  9
$DIMTSZ
 40
0.0
  9
$DIMTOL
 70
     0
  9
$DIMLIM
 70
     0
  9
$DIMTIH
 70
     0
  9
$DIMTOH
 70
     0
  9
$DIMSE1
 70
     0
  9
$DIMSE2
 70
     0
  9
$DIMTAD
 70
     1
  9
$DIMZIN
 70
     8
  9
$DIMBLK
  1

  9
$DIMASO
 70
     1
  9
$DIMSHO
 70
     0
  9
$DIMPOST
  1

  9
$DIMAPOST
  1

  9
$DIMALT
 70
     0
  9
$DIMALTD
 70
     2
  9
$DIMALTF
 40
25.399999999999999
  9
$DIMLFAC
 40
1.0
  9
$DIMTOFL
 70
     1
  9
$DIMTVP
 40
0.0
  9
$DIMTIX
 70
     1
  9
$DIMSOXD
 70
     0
  9
$DIMSAH
 70
     0
  9
$DIMBLK1
  1

  9
$DIMBLK2
  1

  9
$DIMSTYLE
  2
STANDARD
  9
$DIMCLRD
 70
     7
  9
$DIMCLRE
 70
     7
  9
$DIMCLRT
 70
     7
  9
$DIMTFAC
 40
1.0
  9
$DIMGAP
 40
25.0
  9
$LUNITS
 70
     2
  9
$LUPREC
 70
     4
  9
$SKETCHINC
 40
0.1
  9
$FILLETRAD
 40
3.0
  9
$AUNITS
 70
     1
  9
$AUPREC
 70
     3
  9
$MENU
  1
ACAD
  9
$ELEVATION
 40
0.0
  9
$PELEVATION
 40
0.0
  9
$THICKNESS
 40
50.0
  9
$LIMCHECK
 70
     0
  9
$CHAMFERA
 40
0.0
  9
$CHAMFERB
 40
0.0
  9
$SKPOLY
 70
     0
  9
$TDCREATE
 40
2453019.62301037
  9
$TDUPDATE
 40
2458949.429850127
  9
$TDINDWG
 40
1.7135113542
  9
$TDUSRTIMER
 40
1.7135113542
  9
$USRTIMER
 70
     1
  9
$ANGBASE
 50
0.0
  9
$ANGDIR
 70
     0
  9
$PDMODE
 70
     3
  9
$PDSIZE
 40
-2.0
  9
$PLINEWID
 40
0.0
  9
$SPLFRAME
 70
     0
  9
$SPLINETYPE
 70
     6
  9
$SPLINESEGS
 70
     8
  9
$SURFTAB1
 70
     6
  9
$SURFTAB2
 70
     6
  9
$SURFTYPE
 70
     6
  9
$SURFU
 70
     6
  9
$SURFV
 70
     6
  9
$UCSNAME
  2

  9
$UCSORG
 10
0.0
 20
0.0
 30
0.0
  9
$UCSXDIR
 10
1.0
 20
0.0
 30
0.0
  9
$UCSYDIR
 10
0.0
 20
1.0
 30
0.0
  9
$PUCSNAME
  2

  9
$PUCSORG
 10
0.0
 20
0.0
 30
0.0
  9
$PUCSXDIR
 10
1.0
 20
0.0
 30
0.0
  9
$PUCSYDIR
 10
0.0
 20
1.0
 30
0.0
  9
$USERI1
 70
     0
  9
$USERI2
 70
     0
  9
$USERI3
 70
     0
  9
$USERI4
 70
     0
  9
$USERI5
 70
     0
  9
$USERR1
 40
20.0
  9
$USERR2
 40
0.0
  9
$USERR3
 40
0.0
  9
$USERR4
 40
0.0
  9
$USERR5
 40
0.0
  9
$WORLDVIEW
 70
     1
  9
$SHADEDGE
 70
     3
  9
$SHADEDIF
 70
    70
  9
$TILEMODE
 70
     1
  9
$MAXACTVP
 70
    48
  9
$PINSBASE
 10
0.0
 20
0.0
 30
0.0
  9
$PLIMCHECK
 70
     0
  9
$PEXTMIN
 10
-100000000000000000000.0
 20
-100000000000000000000.0
 30
-100000000000000000000.0
  9
$PEXTMAX
 10
100000000000000000000.0
 20
100000000000000000000.0
 30
100000000000000000000.0
  9
$PLIMMIN
 10
0.0
 20
0.0
  9
$PLIMMAX
 10
12.0
 20
9.0
  9
$UNITMODE
 70
     0
  9
$VISRETAIN
 70
     0
  9
$PLINEGEN
 70
     0
  9
$PSLTSCALE
 70
     0
  9
$TREEDEPTH
 70
  3020
  9
$ATTDIA
 70
     0
  9
$ATTREQ
 70
     1
  9
$BLIPMODE
 70
     1
  9
$COORDS
 70
     1
  9
$DRAGMODE
 70
     2
  9
$OSMODE
 70
     0
  9
$HANDLING
 70
     0
  9
$HANDSEED
  5
EFC2
  0
ENDSEC
  0
SECTION
  2
TABLES
  0
TABLE
  2
LTYPE
 70
     2
  0
LTYPE
  2
CONTINUOUS
 70
     0
  3
実線
 72
    65
 73
     0
 40
0.0
  0
LTYPE
  2
DASHDOT
 70
     0
  3
____ _ ____ _ ____ _ ____ _ ____ _ ____ _ ____
 72
    65
 73
     4
 40
5.5
 49
4.0
 49
-0.6
 49
0.3
 49
-0.6
  0
ENDTAB
  0
TABLE
  2
LAYER
 70
    12
  0
LAYER
  2
0
 70
     0
 62
     7
  6
CONTINUOUS
  0
LAYER
  2
BASIS
 70
     0
 62
     6
  6
DASHDOT
  0
LAYER
  2
OUTLINE
 70
     0
 62
     3
  6
CONTINUOUS
  0
LAYER
  2
DETAIL
 70
     0
 62
     5
  6
CONTINUOUS
  0
LAYER
  2
SIZE
 70
     0
 62
    30
  6
CONTINUOUS
  0
LAYER
  2
ARRANGE
 70
     0
 62
     1
  6
CONTINUOUS
  0
LAYER
  2
ETC
 70
     0
 62
    61
  6
CONTINUOUS
  0
LAYER
  2
FIX
 70
     0
 62
    11
  6
CONTINUOUS
  0
LAYER
  2
NOTE
 70
     0
 62
     4
  6
CONTINUOUS
  0
LAYER
  2
DEFPOINTS
 70
    64
 62
     7
  6
CONTINUOUS
  0
LAYER
  2
SERVICESPACE
 70
    64
 62
     2
  6
DASHDOT
  0
LAYER
  2
SYMBOLLINE
 70
    64
 62
    15
  6
CONTINUOUS
  0
ENDTAB
  0
TABLE
  2
STYLE
 70
     1
  0
STYLE
  2
STANDARD
 70
     0
 40
64.0
 41
0.9
 50
0.0
 71
     0
 42
64.0
  3
SIMPLEX.shx
  4
BIGFONT.shx
  0
ENDTAB
  0
TABLE
  2
APPID
 70
    19
  0
APPID
  2
ACAD
 70
     0
  0
APPID
  2
AUTOCAD_POSTSCRIPT_FIGURE
 70
     0
  0
APPID
  2
ACAD_EXEMPT_FROM_CAD_STANDARDS
 70
     0
  0
APPID
  2
ACAD_PSEXT
 70
     0
  0
APPID
  2
ACAUTHENVIRON
 70
     0
  0
APPID
  2
GENIUS_GENOENT_13
 70
     0
  0
APPID
  2
GENIUS_GENCFG_13
 70
     0
  0
APPID
  2
GENIUS_GENCFG0_13
 70
     0
  0
APPID
  2
GENIUS_GENCFG1_13
 70
     0
  0
APPID
  2
GENIUS_GENCFG2_13
 70
     0
  0
APPID
  2
GENIUS_GENCFG3_13
 70
     0
  0
APPID
  2
GENIUS_GENCFG4_13
 70
     0
  0
APPID
  2
GENIUS_GEVCFG0_13
 70
     0
  0
APPID
  2
CONTENTBLOCKICON
 70
     0
  0
APPID
  2
CONTENTBLOCKDESCRIPTION
 70
     0
  0
APPID
  2
ACAD_NAV_VCDISPLAY
 70
     0
  0
APPID
  2
ACAD_MLEADERVER
 70
     0
  0
APPID
  2
ACDBDYNAMICBLOCKTRUENAME
 70
     0
  0
APPID
  2
ACDBDYNAMICBLOCKGUID
 70
     0
  0
ENDTAB
  0
TABLE
  2
DIMSTYLE
 70
     1
  0
DIMSTYLE
  2
STANDARD
 70
     0
  3

  4

  5
_ORIGIN
  6

  7

 40
1.0
 41
12.0
 42
20.0
 43
200.0
 44
20.0
 45
0.0
 46
0.0
 47
0.0
 48
0.0
140
64.0
141
0.09
142
0.0
143
25.399999999999999
144
1.0
145
0.0
146
1.0
147
25.0
 71
     0
 72
     0
 73
     0
 74
     0
 75
     0
 76
     0
 77
     1
 78
     8
170
     0
171
     2
172
     1
173
     0
174
     1
175
     0
176
     7
177
     7
178
     7
  0
ENDTAB
  0
TABLE
  2
VIEW
 70
     1
  0
VIEW
  2
ALL
 70
     0
 40
4282.6198079999986
 10
0.0
 20
41.309904000000003
 41
5940.0
 11
0.0
 21
0.0
 31
1.0
 12
0.0
 22
0.0
 32
0.0
 42
50.0
 43
0.0
 44
0.0
 50
0.0
 71
     0
  0
ENDTAB
  0
TABLE
  2
UCS
 70
     0
  0
ENDTAB
  0
TABLE
  2
VPORT
 70
     1
  0
VPORT
  2
*ACTIVE
 70
     0
 10
0.0
 20
0.0
 11
1.0
 21
1.0
 12
198.7220904774976
 22
168.22815938879279
 13
0.0
 23
0.0
 14
1.0
 24
1.0
 15
0.0
 25
0.0
 16
0.0
 26
0.0
 36
1.0
 17
0.0
 27
0.0
 37
0.0
 40
818.00961598035951
 41
1.747787610619469
 42
50.0
 43
0.0
 44
0.0
 50
0.0
 51
0.0
 71
     0
 72
  1000
 73
     1
 74
     3
 75
     0
 76
     0
 77
     0
 78
     0
  0
ENDTAB
  0
ENDSEC
  0
SECTION
  2
BLOCKS
  0
BLOCK
  8
0
  2
_ORIGIN
 70
     0
 10
0.0
 20
0.0
 30
0.0
  3
_ORIGIN
  1
_ORIGIN
  0
CIRCLE
  8
0
  6
CONTINUOUS
 62
     7
 10
0.0
 20
0.0
 30
0.0
 40
0.5
  0
LINE
  8
0
  6
CONTINUOUS
 62
     7
 10
0.0
 20
0.0
 30
0.0
 11
-1.0
 21
0.0
 31
0.0
  0
ENDBLK
  8
0
  0
ENDSEC
  0
SECTION
  2
ENTITIES
  0
LINE
  8
NOTE
  6
CONTINUOUS
 62
     4
 10
121.9999999999997
 20
0.0
 30
0.0
 11
206.34154284153249
 21
130.29013119170179
 31
0.0
  0
LINE
  8
NOTE
  6
CONTINUOUS
 62
     4
 10
206.34154284153249
 20
130.29013119170179
 30
0.0
 11
316.63127684153233
 21
130.29013119170179
 31
0.0
  0
LINE
  8
BASIS
  6
DASHDOT
 62
     6
 10
0.0
 20
185.64729899999969
 30
0.0
 11
0.0
 21
-79.336863000000278
 31
0.0
  0
POINT
  8
ARRANGE
  6
CONTINUOUS
 62
     1
 10
0.0
 20
0.0
 30
0.0
  0
LINE
  8
DETAIL
  6
CONTINUOUS
 62
     5
 10
-122.0
 20
154.99999999999969
 30
0.0
 11
-122.0
 21
0.0
 31
0.0
  0
LINE
  8
DETAIL
  6
CONTINUOUS
 62
     5
 10
121.9999999999997
 20
154.99999999999969
 30
0.0
 11
121.9999999999997
 21
0.0
 31
0.0
  0
LINE
  8
DETAIL
  6
CONTINUOUS
 62
     5
 10
160.9999999999998
 20
0.0
 30
0.0
 11
160.9999999999998
 21
-25.000000000000259
 31
0.0
  0
LINE
  8
DETAIL
  6
CONTINUOUS
 62
     5
 10
-160.99999999999989
 20
0.0
 30
0.0
 11
-160.99999999999989
 21
-25.000000000000259
 31
0.0
  0
LINE
  8
NOTE
  6
CONTINUOUS
 62
     4
 10
139.9999999999998
 20
0.0
 30
0.0
 11
263.87313799999959
 21
-102.60401300000029
 31
0.0
  0
LINE
  8
NOTE
  6
CONTINUOUS
 62
     4
 10
263.87313799999959
 20
-102.60401300000029
 30
0.0
 11
556.84105799999998
 21
-102.60401300000029
 31
0.0
  0
LINE
  8
DETAIL
  6
CONTINUOUS
 62
     5
 10
-160.99999999999989
 20
0.0
 30
0.0
 11
-121.5000049999999
 21
0.0
 31
0.0
  0
CIRCLE
  8
ARRANGE
  6
CONTINUOUS
 62
     1
 10
0.0
 20
0.0
 30
0.0
 40
54.482759999999992
  0
LINE
  8
DETAIL
  6
CONTINUOUS
 62
     5
 10
121.5000049999996
 20
0.0
 30
0.0
 11
160.9999999999998
 21
0.0
 31
0.0
  0
LINE
  8
DETAIL
  6
CONTINUOUS
 62
     5
 10
-121.5000049999999
 20
0.0
 30
0.0
 11
121.5000049999996
 21
0.0
 31
0.0
  0
LINE
  8
DETAIL
  6
CONTINUOUS
 62
     5
 10
-122.0
 20
154.99999999999969
 30
0.0
 11
121.9999999999997
 21
154.99999999999969
 31
0.0
  0
LINE
  8
DETAIL
  6
CONTINUOUS
 62
     5
 10
-155.99999999999989
 20
-30.000000000000171
 30
0.0
 11
155.9999999999998
 21
-30.000000000000171
 31
0.0
  0
LINE
  8
NOTE
  6
CONTINUOUS
 62
     4
 10
-140.0
 20
-20.000000000000171
 30
0.0
 11
-140.0
 21
19.999999999999829
 31
0.0
  0
LINE
  8
NOTE
  6
CONTINUOUS
 62
     4
 10
-159.99999999999989
 20
0.0
 30
0.0
 11
-120.0
 21
0.0
 31
0.0
  0
LINE
  8
NOTE
  6
CONTINUOUS
 62
     4
 10
121.9999949999999
 20
-20.000000000000171
 30
0.0
 11
121.9999949999999
 21
19.999999999999829
 31
0.0
  0
LINE
  8
NOTE
  6
CONTINUOUS
 62
     4
 10
99.999995000000126
 20
0.0
 30
0.0
 11
139.9999950000001
 21
0.0
 31
0.0
  0
LINE
  8
NOTE
  6
CONTINUOUS
 62
     4
 10
139.9999999999998
 20
-20.000000000000171
 30
0.0
 11
139.9999999999998
 21
19.999999999999829
 31
0.0
  0
LINE
  8
NOTE
  6
CONTINUOUS
 62
     4
 10
119.9999999999997
 20
0.0
 30
0.0
 11
159.9999999999998
 21
0.0
 31
0.0
  0
LINE
  8
NOTE
  6
CONTINUOUS
 62
     4
 10
151.80576999999991
 20
26.676132999999709
 30
0.0
 11
121.9999999999997
 21
0.0
 31
0.0
  0
LINE
  8
NOTE
  6
CONTINUOUS
 62
     4
 10
121.9999999999997
 20
0.0
 30
0.0
 11
134.4744879999997
 21
38.005093999999758
 31
0.0
  0
TEXT
  8
NOTE
  6
CONTINUOUS
 62
     4
 10
218.63509841296101
 20
154.6449214499674
 30
0.0
 40
64.0
  1
EL
 41
0.9
  0
TEXT
  8
NOTE
  6
CONTINUOUS
 62
     4
 10
266.40581699999967
 20
-76.338027000000125
 30
0.0
 40
64.0
  1
4-φ10
 41
0.9
  0
LINE
  8
NOTE
  6
CONTINUOUS
 62
     4
 10
176.3470719999998
 20
-16.700012000000271
 30
0.0
 11
139.9999999999998
 21
0.0
 31
0.0
  0
LINE
  8
NOTE
  6
CONTINUOUS
 62
     4
 10
139.9999999999998
 20
0.0
 30
0.0
 11
163.1274809999999
 21
-32.636169999999957
 31
0.0
  0
LINE
  8
SIZE
  6
CONTINUOUS
 62
    30
 10
-181.0
 20
0.0
 30
0.0
 11
-439.62637500000011
 21
0.0
 31
0.0
  0
LINE
  8
SIZE
  6
CONTINUOUS
 62
    30
 10
-175.99999999999989
 20
-30.000000000000171
 30
0.0
 11
-439.62637500000011
 21
-30.000000000000171
 31
0.0
  0
LINE
  8
SIZE
  6
CONTINUOUS
 62
    30
 10
-419.62637500000011
 20
318.22264036692741
 30
0.0
 11
-419.62637500000011
 21
-197.25714300000021
 31
0.0
  0
TEXT
  8
SIZE
  6
CONTINUOUS
 62
    30
 10
-444.62637500000011
 20
-172.2571424285716
 30
0.0
 40
64.0
  1
30
 50
90.0
 41
0.9
 72
     1
 11
-444.62637500000011
 21
-125.62857100000021
 31
0.0
  0
LINE
  8
SIZE
  6
CONTINUOUS
 62
    30
 10
-144.99999999999989
 20
154.99999999999969
 30
0.0
 11
-439.62637500000011
 21
154.99999999999969
 31
0.0
  0
LINE
  8
SIZE
  6
CONTINUOUS
 62
    30
 10
-181.0
 20
0.0
 30
0.0
 11
-439.62637500000011
 21
0.0
 31
0.0
  0
TEXT
  8
SIZE
  6
CONTINUOUS
 62
    30
 10
-444.62637500000011
 20
8.9285714285712601
 30
0.0
 40
64.0
  1
155
 50
90.0
 41
0.9
 72
     1
 11
-444.62637500000011
 21
77.499999999999829
 31
0.0
  0
LINE
  8
SIZE
  6
CONTINUOUS
 62
    30
 10
-175.99999999999989
 20
-30.000000000000171
 30
0.0
 11
-298.03836199999989
 21
-30.000000000000171
 31
0.0
  0
LINE
  8
SIZE
  6
CONTINUOUS
 62
    30
 10
-118.246003
 20
-40.000000000000171
 30
0.0
 11
-298.03836199999989
 21
-40.000000000000171
 31
0.0
  0
LINE
  8
SIZE
  6
CONTINUOUS
 62
    30
 10
-278.03836199999972
 20
-18.000000000000171
 30
0.0
 11
-278.03836199999972
 21
-6.0000000000001714
 31
0.0
  0
LINE
  8
SIZE
  6
CONTINUOUS
 62
    30
 10
-278.03836199999972
 20
-52.000000000000263
 30
0.0
 11
-278.03836199999972
 21
-216.40000000000009
 31
0.0
  0
LINE
  8
SIZE
  6
CONTINUOUS
 62
    30
 10
-278.03836199999972
 20
-30.000000000000171
 30
0.0
 11
-278.03836199999972
 21
-40.000000000000171
 31
0.0
  0
CIRCLE
  8
SIZE
  6
CONTINUOUS
 62
    30
 10
-278.03836199999972
 20
-30.000000000000171
 30
0.0
 40
6.0
  0
LINE
  8
SIZE
  6
CONTINUOUS
 62
    30
 10
-278.03836199999972
 20
-30.000000000000171
 30
0.0
 11
-278.03836199999972
 21
-18.000000000000171
 31
0.0
  0
CIRCLE
  8
SIZE
  6
CONTINUOUS
 62
    30
 10
-278.03836199999972
 20
-40.000000000000171
 30
0.0
 40
6.0
  0
LINE
  8
SIZE
  6
CONTINUOUS
 62
    30
 10
-278.03836199999972
 20
-40.000000000000171
 30
0.0
 11
-278.03836199999972
 21
-52.000000000000263
 31
0.0
  0
TEXT
  8
SIZE
  6
CONTINUOUS
 62
    30
 10
-303.03836199999989
 20
-191.40000014285741
 30
0.0
 40
64.0
  1
10
 50
90.0
 41
0.9
 72
     1
 11
-303.03836199999989
 21
-150.2571430000003
 31
0.0
  0
ARC
  8
DETAIL
  6
CONTINUOUS
 62
     5
 10
-155.99999999999989
 20
-25.000000000000259
 30
0.0
 40
5.0
 50
180.0
 51
270.0
  0
ARC
  8
DETAIL
  6
CONTINUOUS
 62
     5
 10
155.9999999999998
 20
-25.000000000000259
 30
0.0
 40
5.0
 50
270.0
 51
0.0
  0
CIRCLE
  8
FIX
  6
CONTINUOUS
 62
    11
 10
-140.00000499999999
 20
0.0
 30
0.0
 40
5.0
  0
CIRCLE
  8
FIX
  6
CONTINUOUS
 62
    11
 10
139.9999949999997
 20
0.0
 30
0.0
 40
5.0
  0
LINE
  8
SIZE
  6
CONTINUOUS
 62
    30
 10
160.9999999999998
 20
-238.02270187776111
 30
0.0
 11
160.9999999999998
 21
-53.224252539620267
 31
0.0
  0
LINE
  8
SIZE
  6
CONTINUOUS
 62
    30
 10
-160.99999999999989
 20
-235.07876789676081
 30
0.0
 11
-160.99999999999989
 21
-50.280318558620003
 31
0.0
  0
LINE
  8
SIZE
  6
CONTINUOUS
 62
    30
 10
148.9999999999998
 20
-212.19669686987569
 30
0.0
 11
-149.0
 21
-212.19669686987569
 31
0.0
  0
CIRCLE
  8
SIZE
  6
CONTINUOUS
 62
    30
 10
160.9999999999998
 20
-212.19669686987569
 30
0.0
 40
6.0
  0
LINE
  8
SIZE
  6
CONTINUOUS
 62
    30
 10
160.9999999999998
 20
-212.19669686987569
 30
0.0
 11
148.9999999999998
 21
-212.19669686987569
 31
0.0
  0
CIRCLE
  8
SIZE
  6
CONTINUOUS
 62
    30
 10
-160.99999999999989
 20
-212.19669686987569
 30
0.0
 40
6.0
  0
LINE
  8
SIZE
  6
CONTINUOUS
 62
    30
 10
-160.99999999999989
 20
-212.19669686987569
 30
0.0
 11
-149.0
 21
-212.19669686987569
 31
0.0
  0
TEXT
  8
SIZE
  6
CONTINUOUS
 62
    30
 10
-110.5371428571428
 20
-187.19669686987569
 30
0.0
 40
64.0
  1
□322
 41
0.9
 72
     1
 11
0.0
 21
-187.19669686987569
 31
0.0
  0
LINE
  8
SIZE
  6
CONTINUOUS
 62
    30
 10
139.9999999999998
 20
39.999999999999829
 30
0.0
 11
139.9999999999998
 21
453.80182482476027
 31
0.0
  0
LINE
  8
SIZE
  6
CONTINUOUS
 62
    30
 10
-140.0
 20
39.999999999999829
 30
0.0
 11
-140.0
 21
450.85789084375989
 31
0.0
  0
LINE
  8
SIZE
  6
CONTINUOUS
 62
    30
 10
127.9999999999998
 20
425.4974390057522
 30
0.0
 11
-123.0
 21
425.4974390057522
 31
0.0
  0
CIRCLE
  8
SIZE
  6
CONTINUOUS
 62
    30
 10
139.9999999999998
 20
425.4974390057522
 30
0.0
 40
6.0
  0
LINE
  8
SIZE
  6
CONTINUOUS
 62
    30
 10
139.9999999999998
 20
425.4974390057522
 30
0.0
 11
127.9999999999998
 21
425.4974390057522
 31
0.0
  0
CIRCLE
  8
SIZE
  6
CONTINUOUS
 62
    30
 10
-140.0
 20
425.4974390057522
 30
0.0
 40
6.0
  0
LINE
  8
SIZE
  6
CONTINUOUS
 62
    30
 10
-140.0
 20
425.4974390057522
 30
0.0
 11
-123.0
 21
425.4974390057522
 31
0.0
  0
TEXT
  8
SIZE
  6
CONTINUOUS
 62
    30
 10
-71.557142857142836
 20
450.49743900575243
 30
0.0
 40
64.0
  1
280
 41
0.9
 72
     1
 11
2.5
 21
450.49743900575243
 31
0.0
  0
LINE
  8
SIZE
  6
CONTINUOUS
 62
    30
 10
121.9999999999997
 20
171.18414580750161
 30
0.0
 11
121.9999999999997
 21
324.57096700575232
 31
0.0
  0
LINE
  8
SIZE
  6
CONTINUOUS
 62
    30
 10
-122.0
 20
177.0720137695026
 30
0.0
 11
-122.0
 21
324.57096700575232
 31
0.0
  0
LINE
  8
SIZE
  6
CONTINUOUS
 62
    30
 10
107.9999999999995
 20
304.57096700575232
 30
0.0
 11
-108.0
 21
304.57096700575232
 31
0.0
  0
CIRCLE
  8
SIZE
  6
CONTINUOUS
 62
    30
 10
121.9999999999997
 20
304.57096700575232
 30
0.0
 40
6.0
  0
LINE
  8
SIZE
  6
CONTINUOUS
 62
    30
 10
121.9999999999997
 20
304.57096700575232
 30
0.0
 11
107.9999999999995
 21
304.57096700575232
 31
0.0
  0
CIRCLE
  8
SIZE
  6
CONTINUOUS
 62
    30
 10
-122.0
 20
304.57096700575232
 30
0.0
 40
6.0
  0
LINE
  8
SIZE
  6
CONTINUOUS
 62
    30
 10
-122.0
 20
304.57096700575232
 30
0.0
 11
-108.0
 21
304.57096700575232
 31
0.0
  0
TEXT
  8
SIZE
  6
CONTINUOUS
 62
    30
 10
-111.90857142857141
 20
329.57096700575232
 30
0.0
 40
64.0
  1
□244
 41
0.9
 72
     1
 11
0.0
 21
329.57096700575232
 31
0.0
  0
LINE
  8
OUTLINE
  6
CONTINUOUS
 62
     3
 10
-155.99999999999989
 20
-30.000000000000171
 30
0.0
 11
155.9999999999998
 21
-30.000000000000171
 31
0.0
  0
LINE
  8
OUTLINE
  6
CONTINUOUS
 62
     3
 10
-121.5000049999999
 20
0.0
 30
0.0
 11
121.5000049999996
 21
0.0
 31
0.0
  0
LINE
  8
OUTLINE
  6
CONTINUOUS
 62
     3
 10
-122.0
 20
154.99999999999969
 30
0.0
 11
-122.0
 21
0.0
 31
0.0
  0
ARC
  8
OUTLINE
  6
CONTINUOUS
 62
     3
 10
-155.99999999999989
 20
-25.000000000000259
 30
0.0
 40
5.0
 50
180.0
 51
270.0
  0
LINE
  8
OUTLINE
  6
CONTINUOUS
 62
     3
 10
-160.99999999999989
 20
0.0
 30
0.0
 11
-160.99999999999989
 21
-25.000000000000259
 31
0.0
  0
LINE
  8
OUTLINE
  6
CONTINUOUS
 62
     3
 10
-160.99999999999989
 20
0.0
 30
0.0
 11
-121.5000049999999
 21
0.0
 31
0.0
  0
LINE
  8
OUTLINE
  6
CONTINUOUS
 62
     3
 10
121.9999999999997
 20
154.99999999999969
 30
0.0
 11
121.9999999999997
 21
0.0
 31
0.0
  0
ARC
  8
OUTLINE
  6
CONTINUOUS
 62
     3
 10
155.9999999999998
 20
-25.000000000000259
 30
0.0
 40
5.0
 50
270.0
 51
0.0
  0
LINE
  8
OUTLINE
  6
CONTINUOUS
 62
     3
 10
160.9999999999998
 20
0.0
 30
0.0
 11
160.9999999999998
 21
-25.000000000000259
 31
0.0
  0
LINE
  8
OUTLINE
  6
CONTINUOUS
 62
     3
 10
121.5000049999996
 20
0.0
 30
0.0
 11
160.9999999999998
 21
0.0
 31
0.0
  0
ARC
  8
DETAIL
  6
CONTINUOUS
 62
     5
 10
-99.796248999999989
 20
-14.567388000000079
 30
0.0
 40
25.435267
 50
217.35420500000021
 51
269.17201400000067
  0
ARC
  8
DETAIL
  6
CONTINUOUS
 62
     5
 10
-12.882727000000051
 20
28.430686999999921
 30
0.0
 40
62.872737000000001
 50
279.23904499999873
 51
291.66650999999979
  0
ARC
  8
DETAIL
  6
CONTINUOUS
 62
     5
 10
4.608773000000042
 20
133.83927099999971
 30
0.0
 40
173.49966499999999
 50
267.75127200000048
 51
289.20975099999998
  0
LINE
  8
DETAIL
  6
CONTINUOUS
 62
     5
 10
-98.246002999999973
 20
-40.000000000000171
 30
0.0
 11
-96.260049999999978
 21
-40.000000000000171
 31
0.0
  0
LINE
  8
DETAIL
  6
CONTINUOUS
 62
     5
 10
-100.163804
 20
-40.000000000000171
 30
0.0
 11
-98.246002999999973
 21
-40.000000000000171
 31
0.0
  0
ARC
  8
DETAIL
  6
CONTINUOUS
 62
     5
 10
-91.67071199999998
 20
-37.964394000000063
 30
0.0
 40
1.371799999999999
 50
278.06268399999988
 51
305.55846800000069
  0
ARC
  8
DETAIL
  6
CONTINUOUS
 62
     5
 10
-89.461358999999959
 20
-36.38507400000006
 30
0.0
 40
1.371799999999999
 50
305.55846800000069
 51
328.83985199999859
  0
LINE
  8
DETAIL
  6
CONTINUOUS
 62
     5
 10
-91.478308999999967
 20
-39.322635000000247
 30
0.0
 11
-96.260049999999978
 21
-40.000000000000171
 31
0.0
  0
LINE
  8
DETAIL
  6
CONTINUOUS
 62
     5
 10
-88.663611000000003
 20
-37.50106400000027
 30
0.0
 11
-90.872964999999965
 21
-39.080385000000042
 31
0.0
  0
LINE
  8
DETAIL
  6
CONTINUOUS
 62
     5
 10
-86.870691999999963
 20
-34.751822000000168
 30
0.0
 11
-88.28747599999997
 21
-37.09488700000017
 31
0.0
  0
ARC
  8
DETAIL
  6
CONTINUOUS
 62
     5
 10
-82.257884999999987
 20
-36.347458000000358
 30
0.0
 40
6.3626370000000003
 50
86.041531999998284
 51
111.8865850000003
  0
LINE
  8
DETAIL
  6
CONTINUOUS
 62
     5
 10
-84.629688999999985
 20
-30.44341700000027
 30
0.0
 11
-86.870691999999963
 21
-34.751822000000168
 31
0.0
  0
ARC
  8
DETAIL
  6
CONTINUOUS
 62
     5
 10
-2.0380880000000161
 20
-36.531099000000069
 30
0.0
 40
3.0
 50
104.48106399999971
 51
266.92639800000092
  0
ARC
  8
DETAIL
  6
CONTINUOUS
 62
     5
 10
72.675412999999821
 20
21.46638599999994
 30
0.0
 40
60.365754000000003
 50
246.6439909999994
 51
287.42911499999929
  0
ARC
  8
DETAIL
  6
CONTINUOUS
 62
     5
 10
98.628390999999965
 20
133.76860899999971
 30
0.0
 40
170.07874799999991
 50
256.2294540000002
 51
267.34718800000161
  0
LINE
  8
DETAIL
  6
CONTINUOUS
 62
     5
 10
-114.5
 20
205.99999999999969
 30
0.0
 11
114.4999999999997
 21
205.99999999999969
 31
0.0
  0
LINE
  8
DETAIL
  6
CONTINUOUS
 62
     5
 10
-114.5
 20
154.99999999999969
 30
0.0
 11
-114.5
 21
205.99999999999969
 31
0.0
  0
LINE
  8
DETAIL
  6
CONTINUOUS
 62
     5
 10
114.4999999999997
 20
154.99999999999969
 30
0.0
 11
114.4999999999997
 21
205.99999999999969
 31
0.0
  0
LINE
  8
OUTLINE
  6
CONTINUOUS
 62
     3
 10
-122.0
 20
154.99999999999969
 30
0.0
 11
121.9999999999997
 21
154.99999999999969
 31
0.0
  0
LINE
  8
SIZE
  6
CONTINUOUS
 62
    30
 10
-137.49999999999989
 20
205.99999999999949
 30
0.0
 11
-439.20963861608118
 21
205.9999999999998
 31
0.0
  0
TEXT
  8
SIZE
  6
CONTINUOUS
 62
    30
 10
-442.15573798918541
 20
241.68035124717761
 30
0.0
 40
64.0
  1
51
 50
90.0
 41
0.9
  0
CIRCLE
  8
SIZE
  6
CONTINUOUS
 62
    30
 10
-419.62637500000011
 20
205.9999999999998
 30
0.0
 40
6.0
  0
CIRCLE
  8
SIZE
  6
CONTINUOUS
 62
    30
 10
-419.62637500000011
 20
154.99999999999969
 30
0.0
 40
6.0
  0
CIRCLE
  8
SIZE
  6
CONTINUOUS
 62
    30
 10
-419.62637500000011
 20
0.0
 30
0.0
 40
6.0
  0
CIRCLE
  8
SIZE
  6
CONTINUOUS
 62
    30
 10
-419.62637500000011
 20
-30.000000000000171
 30
0.0
 40
6.0
  0
TEXT
  8
ETC
  6
CONTINUOUS
 62
    61
 10
352.09104687227341
 20
510.44503337086581
 30
0.0
 40
64.0
  1
EFG-20SB2_6
 41
0.9
  0
TEXT
  8
ETC
  6
CONTINUOUS
 62
    61
 10
344.01756887227327
 20
412.42630737086631
 30
0.0
 40
64.0
  1
産業扇
 41
0.9
  0
TEXT
  8
ETC
  6
CONTINUOUS
 62
    61
 10
465.72326010026609
 20
327.85757321387518
 30
0.0
 40
50.0
  1
EFG-20SB2
 41
0.9
  0
ENDSEC
  0
EOF
