  0
SECTION
  2
HEADER
  9
$ACADVER
  1
AC1009
  9
$INSBASE
 10
0.0
 20
0.0
 30
0.0
  9
$EXTMIN
 10
-250.65256299999999
 20
-249.748031
 30
0.0
  9
$EXTMAX
 10
919.06979392277924
 20
656.05562960882355
 30
0.0
  9
$LIMMIN
 10
-2970.0
 20
-2100.0
  9
$LIMMAX
 10
2970.0
 20
2100.0
  9
$ORTHOMODE
 70
     1
  9
$REGENMODE
 70
     0
  9
$FILLMODE
 70
     1
  9
$QTEXTMODE
 70
     0
  9
$MIRRTEXT
 70
     0
  9
$DRAGMODE
 70
     2
  9
$LTSCALE
 40
20.0
  9
$OSMODE
 70
    37
  9
$ATTMODE
 70
     1
  9
$TEXTSIZE
 40
64.0
  9
$TRACEWID
 40
0.05
  9
$TEXTSTYLE
  7
STANDARD
  9
$CLAYER
  8
SIZE
  9
$CELTYPE
  6
CONTINUOUS
  9
$CECOLOR
 62
     8
  9
$DIMSCALE
 40
1.0
  9
$DIMASZ
 40
12.0
  9
$DIMEXO
 40
20.0
  9
$DIMDLI
 40
200.0
  9
$DIMRND
 40
0.0
  9
$DIMDLE
 40
0.0
  9
$DIMEXE
 40
20.0
  9
$DIMTP
 40
0.0
  9
$DIMTM
 40
0.0
  9
$DIMTXT
 40
64.0
  9
$DIMCEN
 40
0.09
  9
$DIMTSZ
 40
0.0
  9
$DIMTOL
 70
     0
  9
$DIMLIM
 70
     0
  9
$DIMTIH
 70
     0
  9
$DIMTOH
 70
     0
  9
$DIMSE1
 70
     0
  9
$DIMSE2
 70
     0
  9
$DIMTAD
 70
     1
  9
$DIMZIN
 70
     8
  9
$DIMBLK
  1
DOT1
  9
$DIMASO
 70
     1
  9
$DIMSHO
 70
     0
  9
$DIMPOST
  1

  9
$DIMAPOST
  1

  9
$DIMALT
 70
     0
  9
$DIMALTD
 70
     2
  9
$DIMALTF
 40
25.399999999999999
  9
$DIMLFAC
 40
1.0
  9
$DIMTOFL
 70
     1
  9
$DIMTVP
 40
0.0
  9
$DIMTIX
 70
     1
  9
$DIMSOXD
 70
     0
  9
$DIMSAH
 70
     1
  9
$DIMBLK1
  1
ORIGIN
  9
$DIMBLK2
  1
ORIGIN
  9
$DIMSTYLE
  2
STANDARD
  9
$DIMCLRD
 70
     0
  9
$DIMCLRE
 70
     0
  9
$DIMCLRT
 70
     0
  9
$DIMTFAC
 40
1.0
  9
$DIMGAP
 40
0.09
  9
$LUNITS
 70
     2
  9
$LUPREC
 70
     4
  9
$SKETCHINC
 40
0.1
  9
$FILLETRAD
 40
20.0
  9
$AUNITS
 70
     1
  9
$AUPREC
 70
     3
  9
$MENU
  1
ACAD
  9
$ELEVATION
 40
0.0
  9
$PELEVATION
 40
0.0
  9
$THICKNESS
 40
50.0
  9
$LIMCHECK
 70
     0
  9
$BLIPMODE
 70
     0
  9
$CHAMFERA
 40
0.0
  9
$CHAMFERB
 40
0.0
  9
$SKPOLY
 70
     0
  9
$TDCREATE
 40
2451453.49385081
  9
$TDUPDATE
 40
2454960.7686372339
  9
$TDINDWG
 40
0.5536456597
  9
$TDUSRTIMER
 40
0.5536456597
  9
$USRTIMER
 70
     1
  9
$ANGBASE
 50
0.0
  9
$ANGDIR
 70
     0
  9
$PDMODE
 70
     3
  9
$PDSIZE
 40
-2.0
  9
$PLINEWID
 40
0.0
  9
$COORDS
 70
     0
  9
$SPLFRAME
 70
     0
  9
$SPLINETYPE
 70
     6
  9
$SPLINESEGS
 70
     8
  9
$ATTDIA
 70
     0
  9
$ATTREQ
 70
     1
  9
$HANDLING
 70
     1
  9
$HANDSEED
  5
614
  9
$SURFTAB1
 70
     6
  9
$SURFTAB2
 70
     6
  9
$SURFTYPE
 70
     6
  9
$SURFU
 70
     6
  9
$SURFV
 70
     6
  9
$UCSNAME
  2

  9
$UCSORG
 10
0.0
 20
0.0
 30
0.0
  9
$UCSXDIR
 10
1.0
 20
0.0
 30
0.0
  9
$UCSYDIR
 10
0.0
 20
1.0
 30
0.0
  9
$PUCSNAME
  2

  9
$PUCSORG
 10
0.0
 20
0.0
 30
0.0
  9
$PUCSXDIR
 10
1.0
 20
0.0
 30
0.0
  9
$PUCSYDIR
 10
0.0
 20
1.0
 30
0.0
  9
$USERI1
 70
     0
  9
$USERI2
 70
     0
  9
$USERI3
 70
     0
  9
$USERI4
 70
     0
  9
$USERI5
 70
     0
  9
$USERR1
 40
20.0
  9
$USERR2
 40
0.0
  9
$USERR3
 40
0.0
  9
$USERR4
 40
0.0
  9
$USERR5
 40
0.0
  9
$WORLDVIEW
 70
     1
  9
$SHADEDGE
 70
     3
  9
$SHADEDIF
 70
    70
  9
$TILEMODE
 70
     1
  9
$MAXACTVP
 70
    64
  9
$PLIMCHECK
 70
     0
  9
$PEXTMIN
 10
1.0000000000000000E+020
 20
1.0000000000000000E+020
 30
1.0000000000000000E+020
  9
$PEXTMAX
 10
-1.0000000000000000E+020
 20
-1.0000000000000000E+020
 30
-1.0000000000000000E+020
  9
$PLIMMIN
 10
0.0
 20
0.0
  9
$PLIMMAX
 10
12.0
 20
9.0
  9
$UNITMODE
 70
     0
  9
$VISRETAIN
 70
     1
  9
$PLINEGEN
 70
     0
  9
$PSLTSCALE
 70
     1
  0
ENDSEC
  0
SECTION
  2
TABLES
  0
TABLE
  2
VPORT
 70
     1
  0
VPORT
  2
*ACTIVE
 70
     0
 10
0.0
 20
0.0
 11
1.0
 21
1.0
 12
473.00067355604477
 22
186.05985046077481
 13
0.0
 23
0.0
 14
1.0
 24
1.0
 15
0.0
 25
0.0
 16
0.0
 26
0.0
 36
1.0
 17
0.0
 27
0.0
 37
0.0
 40
1156.7767636588039
 41
1.3098995695839311
 42
50.0
 43
0.0
 44
0.0
 50
0.0
 51
0.0
 71
     0
 72
   100
 73
     1
 74
     0
 75
     0
 76
     0
 77
     0
 78
     0
  0
ENDTAB
  0
TABLE
  2
LTYPE
 70
     3
  0
LTYPE
  2
CONTINUOUS
 70
     0
  3
実線
 72
    65
 73
     0
 40
0.0
  0
LTYPE
  2
DASHDOT
 70
     0
  3
____ _ ____ _ ____ _ ____ _ ____ _ ____ _ ____
 72
    65
 73
     4
 40
5.5
 49
4.0
 49
-0.6
 49
0.3
 49
-0.6
  0
ENDTAB
  0
TABLE
  2
LAYER
 70
    12
  0
LAYER
  2
0
 70
     0
 62
     7
  6
CONTINUOUS
  0
LAYER
  2
SIZE
 70
     0
 62
    30
  6
CONTINUOUS
  0
LAYER
  2
BASIS
 70
     0
 62
     6
  6
DASHDOT
  0
LAYER
  2
OUTLINE
 70
     0
 62
     3
  6
CONTINUOUS
  0
LAYER
  2
DETAIL
 70
     0
 62
     5
  6
CONTINUOUS
  0
LAYER
  2
ARRANGE
 70
     0
 62
     1
  6
CONTINUOUS
  0
LAYER
  2
DEFPOINTS
 70
     0
 62
     7
  6
CONTINUOUS
  0
LAYER
  2
ETC
 70
     0
 62
    61
  6
CONTINUOUS
  0
LAYER
  2
FIX
 70
     0
 62
    11
  6
CONTINUOUS
  0
LAYER
  2
NOTE
 70
     0
 62
     4
  6
CONTINUOUS
  0
LAYER
  2
SERVICESPACE
 70
     0
 62
     2
  6
DASHDOT
  0
LAYER
  2
SYMBOLLINE
 70
     0
 62
    15
  6
CONTINUOUS
  0
ENDTAB
  0
TABLE
  2
STYLE
 70
     2
  0
STYLE
  2
STANDARD
 70
     0
 40
64.0
 41
0.9
 50
0.0
 71
     0
 42
64.0
  3
SIMPLEX.shx
  4
BIGFONT.shx
  0
STYLE
  2
ANNOTATIVE
 70
     0
 40
0.0
 41
1.0
 50
0.0
 71
     0
 42
0.2
  3
txt
  4

  0
ENDTAB
  0
TABLE
  2
VIEW
 70
     1
  0
VIEW
  2
ALL
 70
     0
 40
4282.6198079999986
 10
0.0
 20
41.309903999999989
 41
5940.0
 11
0.0
 21
0.0
 31
1.0
 12
0.0
 22
0.0
 32
0.0
 42
50.0
 43
0.0
 44
0.0
 50
0.0
 71
     0
  0
ENDTAB
  0
TABLE
  2
UCS
 70
     0
  0
ENDTAB
  0
TABLE
  2
APPID
 70
     4
  0
APPID
  2
ACAD
 70
     0
  0
APPID
  2
ACADANNOTATIVE
 70
     0
  0
APPID
  2
ACAD_MLEADERVER
 70
     0
  0
APPID
  2
ACAD_EXEMPT_FROM_CAD_STANDARDS
 70
     0
  0
ENDTAB
  0
TABLE
  2
DIMSTYLE
 70
     2
  0
DIMSTYLE
  2
STANDARD
 70
     0
  3

  4

  5

  6

  7

 40
1.0
 41
0.18
 42
0.0625
 43
0.38
 44
0.18
 45
0.0
 46
0.0
 47
0.0
 48
0.0
140
0.18
141
0.09
142
0.0
143
25.399999999999999
144
1.0
145
0.0
146
1.0
147
0.09
 71
     0
 72
     0
 73
     1
 74
     1
 75
     0
 76
     0
 77
     0
 78
     0
170
     0
171
     2
172
     0
173
     0
174
     0
175
     0
176
     0
177
     0
178
     0
  0
DIMSTYLE
  2
ANNOTATIVE
 70
     0
  3

  4

  5

  6

  7

 40
1.0
 41
0.18
 42
0.0625
 43
0.38
 44
0.18
 45
0.0
 46
0.0
 47
0.0
 48
0.0
140
0.18
141
0.09
142
0.0
143
25.399999999999999
144
1.0
145
0.0
146
1.0
147
0.09
 71
     0
 72
     0
 73
     1
 74
     1
 75
     0
 76
     0
 77
     0
 78
     0
170
     0
171
     2
172
     0
173
     0
174
     0
175
     0
176
     0
177
     0
178
     0
  0
ENDTAB
  0
ENDSEC
  0
SECTION
  2
BLOCKS
  0
BLOCK
  8
0
  2
$MODEL_SPACE
 70
     0
 10
0.0
 20
0.0
 30
0.0
  3
$MODEL_SPACE
  1

  0
ENDBLK
  5
76
  8
0
  0
BLOCK
 67
     1
  8
0
  2
$PAPER_SPACE
 70
     0
 10
0.0
 20
0.0
 30
0.0
  3
$PAPER_SPACE
  1

  0
ENDBLK
  5
72
 67
     1
  8
0
  0
BLOCK
  8
0
  2
DOT1
 70
     0
 10
0.0
 20
0.0
 30
0.0
  3
DOT1
  1

  0
CIRCLE
  5
8B
  8
SIZE
  6
CONTINUOUS
 62
     7
 10
0.0
 20
0.0
 30
0.0
 40
3.0
  0
ENDBLK
  5
8C
  8
0
  0
BLOCK
  8
0
  2
_ORIGIN
 70
     0
 10
0.0
 20
0.0
 30
0.0
  3
_ORIGIN
  1

  0
CIRCLE
  5
8F
  8
0
  6
CONTINUOUS
 62
     7
 10
0.0
 20
0.0
 30
0.0
 40
0.5
  0
LINE
  5
90
  8
0
  6
CONTINUOUS
 62
     7
 10
0.0
 20
0.0
 30
0.0
 11
-1.0
 21
0.0
 31
0.0
  0
ENDBLK
  5
91
  8
0
  0
ENDSEC
  0
SECTION
  2
ENTITIES
  0
LINE
  5
93
  8
BASIS
  6
DASHDOT
 62
     6
 10
0.0
 20
250.58732000000001
 30
0.0
 11
0.0
 21
-249.748031
 31
0.0
  0
POINT
  5
94
  8
ARRANGE
  6
CONTINUOUS
 62
     1
 10
0.0
 20
0.0
 30
0.0
  0
CIRCLE
  5
96
  8
ARRANGE
  6
CONTINUOUS
 62
     1
 10
0.0
 20
0.0
 30
0.0
 40
54.482759999999992
  0
LINE
  5
97
  8
BASIS
  6
DASHDOT
 62
     6
 10
-250.65256299999999
 20
0.0
 30
0.0
 11
260.835713
 21
0.0
 31
0.0
  0
LINE
  5
98
  8
DETAIL
  6
CONTINUOUS
 62
     5
 10
-169.5
 20
-187.0
 30
0.0
 11
169.5
 21
-187.0
 31
0.0
  0
LINE
  5
99
  8
DETAIL
  6
CONTINUOUS
 62
     5
 10
-169.5
 20
187.0
 30
0.0
 11
169.5
 21
187.0
 31
0.0
  0
LINE
  5
9A
  8
DETAIL
  6
CONTINUOUS
 62
     5
 10
-189.5
 20
167.0
 30
0.0
 11
-189.5
 21
-167.0
 31
0.0
  0
LINE
  5
9B
  8
DETAIL
  6
CONTINUOUS
 62
     5
 10
189.5
 20
167.0
 30
0.0
 11
189.5
 21
-167.0
 31
0.0
  0
ARC
  5
9C
  8
DETAIL
  6
CONTINUOUS
 62
     5
 10
-169.5
 20
167.0
 30
0.0
 40
20.0
 50
90.0
 51
180.0
  0
ARC
  5
9D
  8
DETAIL
  6
CONTINUOUS
 62
     5
 10
-169.5
 20
-167.0
 30
0.0
 40
20.0
 50
180.0
 51
270.0
  0
ARC
  5
9E
  8
DETAIL
  6
CONTINUOUS
 62
     5
 10
169.5
 20
-167.0
 30
0.0
 40
20.0
 50
270.0
 51
0.0
  0
ARC
  5
9F
  8
DETAIL
  6
CONTINUOUS
 62
     5
 10
169.5
 20
167.0
 30
0.0
 40
20.0
 50
0.0
 51
90.0
  0
LINE
  5
A0
  8
DETAIL
  6
CONTINUOUS
 62
     5
 10
-189.5
 20
-155.0
 30
0.0
 11
189.5
 21
-155.0
 31
0.0
  0
LINE
  5
A1
  8
DETAIL
  6
CONTINUOUS
 62
     5
 10
-189.5
 20
155.0
 30
0.0
 11
189.5
 21
155.0
 31
0.0
  0
LINE
  5
A2
  8
DETAIL
  6
CONTINUOUS
 62
     5
 10
186.51150000000001
 20
-90.242591000000004
 30
0.0
 11
186.51150000000001
 21
-116.50759100000001
 31
0.0
  0
LINE
  5
A3
  8
DETAIL
  6
CONTINUOUS
 62
     5
 10
181.2585
 20
-90.242591000000004
 30
0.0
 11
181.2585
 21
-116.50759100000001
 31
0.0
  0
LINE
  5
A4
  8
DETAIL
  6
CONTINUOUS
 62
     5
 10
165.49950000000001
 20
-90.242591000000004
 30
0.0
 11
165.49950000000001
 21
-116.50759100000001
 31
0.0
  0
LINE
  5
A5
  8
DETAIL
  6
CONTINUOUS
 62
     5
 10
160.2465
 20
-90.242591000000004
 30
0.0
 11
160.2465
 21
-116.50759100000001
 31
0.0
  0
LINE
  5
A6
  8
DETAIL
  6
CONTINUOUS
 62
     5
 10
170.7525
 20
-90.242591000000004
 30
0.0
 11
170.7525
 21
-116.50759100000001
 31
0.0
  0
LINE
  5
A7
  8
DETAIL
  6
CONTINUOUS
 62
     5
 10
176.00550000000001
 20
-90.242591000000004
 30
0.0
 11
176.00550000000001
 21
-116.50759100000001
 31
0.0
  0
ARC
  5
A8
  8
DETAIL
  6
CONTINUOUS
 62
     5
 10
183.88499999999999
 20
-116.50759100000001
 30
0.0
 40
2.6265000000000001
 50
180.0
 51
0.0
  0
LINE
  5
A9
  8
DETAIL
  6
CONTINUOUS
 62
     5
 10
186.51150000000001
 20
-124.912391
 30
0.0
 11
186.51150000000001
 21
-151.177391
 31
0.0
  0
LINE
  5
AA
  8
DETAIL
  6
CONTINUOUS
 62
     5
 10
181.2585
 20
-124.912391
 30
0.0
 11
181.2585
 21
-151.177391
 31
0.0
  0
ARC
  5
AB
  8
DETAIL
  6
CONTINUOUS
 62
     5
 10
183.88499999999999
 20
-151.177391
 30
0.0
 40
2.6265000000000001
 50
180.0
 51
0.0
  0
ARC
  5
AC
  8
DETAIL
  6
CONTINUOUS
 62
     5
 10
183.88499999999999
 20
-124.912391
 30
0.0
 40
2.6265000000000001
 50
0.0
 51
180.0
  0
ARC
  5
AD
  8
DETAIL
  6
CONTINUOUS
 62
     5
 10
162.87299999999999
 20
-116.50759100000001
 30
0.0
 40
2.6265000000000001
 50
180.0
 51
0.0
  0
LINE
  5
AE
  8
DETAIL
  6
CONTINUOUS
 62
     5
 10
165.49950000000001
 20
-124.912391
 30
0.0
 11
165.49950000000001
 21
-151.177391
 31
0.0
  0
LINE
  5
AF
  8
DETAIL
  6
CONTINUOUS
 62
     5
 10
160.2465
 20
-124.912391
 30
0.0
 11
160.2465
 21
-151.177391
 31
0.0
  0
ARC
  5
B0
  8
DETAIL
  6
CONTINUOUS
 62
     5
 10
162.87299999999999
 20
-151.177391
 30
0.0
 40
2.6265000000000001
 50
180.0
 51
0.0
  0
ARC
  5
B1
  8
DETAIL
  6
CONTINUOUS
 62
     5
 10
162.87299999999999
 20
-124.912391
 30
0.0
 40
2.6265000000000001
 50
0.0
 51
180.0
  0
ARC
  5
B2
  8
DETAIL
  6
CONTINUOUS
 62
     5
 10
173.37899999999999
 20
-124.912391
 30
0.0
 40
2.6265000000000001
 50
0.0
 51
180.0
  0
ARC
  5
B3
  8
DETAIL
  6
CONTINUOUS
 62
     5
 10
173.37899999999999
 20
-151.177391
 30
0.0
 40
2.6265000000000001
 50
180.0
 51
0.0
  0
LINE
  5
B4
  8
DETAIL
  6
CONTINUOUS
 62
     5
 10
170.7525
 20
-124.912391
 30
0.0
 11
170.7525
 21
-151.177391
 31
0.0
  0
LINE
  5
B5
  8
DETAIL
  6
CONTINUOUS
 62
     5
 10
176.00550000000001
 20
-124.912391
 30
0.0
 11
176.00550000000001
 21
-151.177391
 31
0.0
  0
ARC
  5
B6
  8
DETAIL
  6
CONTINUOUS
 62
     5
 10
173.37899999999999
 20
-116.50759100000001
 30
0.0
 40
2.6265000000000001
 50
180.0
 51
0.0
  0
LINE
  5
B7
  8
DETAIL
  6
CONTINUOUS
 62
     5
 10
186.51150000000001
 20
-20.902991
 30
0.0
 11
186.51150000000001
 21
-47.167991000000001
 31
0.0
  0
LINE
  5
B8
  8
DETAIL
  6
CONTINUOUS
 62
     5
 10
181.2585
 20
-20.902991
 30
0.0
 11
181.2585
 21
-47.167991000000001
 31
0.0
  0
LINE
  5
B9
  8
DETAIL
  6
CONTINUOUS
 62
     5
 10
165.49950000000001
 20
-20.902991
 30
0.0
 11
165.49950000000001
 21
-47.167991000000001
 31
0.0
  0
LINE
  5
BA
  8
DETAIL
  6
CONTINUOUS
 62
     5
 10
160.2465
 20
-20.902991
 30
0.0
 11
160.2465
 21
-47.167991000000001
 31
0.0
  0
LINE
  5
BB
  8
DETAIL
  6
CONTINUOUS
 62
     5
 10
170.7525
 20
-20.902991
 30
0.0
 11
170.7525
 21
-47.167991000000001
 31
0.0
  0
LINE
  5
BC
  8
DETAIL
  6
CONTINUOUS
 62
     5
 10
176.00550000000001
 20
-20.902991
 30
0.0
 11
176.00550000000001
 21
-47.167991000000001
 31
0.0
  0
ARC
  5
BD
  8
DETAIL
  6
CONTINUOUS
 62
     5
 10
183.88499999999999
 20
-55.572791000000002
 30
0.0
 40
2.6265000000000001
 50
0.0
 51
180.0
  0
ARC
  5
BE
  8
DETAIL
  6
CONTINUOUS
 62
     5
 10
183.88499999999999
 20
-81.837790999999996
 30
0.0
 40
2.6265000000000001
 50
180.0
 51
0.0
  0
LINE
  5
BF
  8
DETAIL
  6
CONTINUOUS
 62
     5
 10
181.2585
 20
-55.572791000000002
 30
0.0
 11
181.2585
 21
-81.837790999999996
 31
0.0
  0
LINE
  5
C0
  8
DETAIL
  6
CONTINUOUS
 62
     5
 10
186.51150000000001
 20
-55.572791000000002
 30
0.0
 11
186.51150000000001
 21
-81.837790999999996
 31
0.0
  0
ARC
  5
C1
  8
DETAIL
  6
CONTINUOUS
 62
     5
 10
183.88499999999999
 20
-90.242591000000004
 30
0.0
 40
2.6265000000000001
 50
0.0
 51
180.0
  0
ARC
  5
C2
  8
DETAIL
  6
CONTINUOUS
 62
     5
 10
183.88499999999999
 20
-47.167991000000001
 30
0.0
 40
2.6265000000000001
 50
180.0
 51
0.0
  0
ARC
  5
C3
  8
DETAIL
  6
CONTINUOUS
 62
     5
 10
162.87299999999999
 20
-55.572791000000002
 30
0.0
 40
2.6265000000000001
 50
0.0
 51
180.0
  0
ARC
  5
C4
  8
DETAIL
  6
CONTINUOUS
 62
     5
 10
162.87299999999999
 20
-81.837790999999996
 30
0.0
 40
2.6265000000000001
 50
180.0
 51
0.0
  0
LINE
  5
C5
  8
DETAIL
  6
CONTINUOUS
 62
     5
 10
160.2465
 20
-55.572791000000002
 30
0.0
 11
160.2465
 21
-81.837790999999996
 31
0.0
  0
LINE
  5
C6
  8
DETAIL
  6
CONTINUOUS
 62
     5
 10
165.49950000000001
 20
-55.572791000000002
 30
0.0
 11
165.49950000000001
 21
-81.837790999999996
 31
0.0
  0
ARC
  5
C7
  8
DETAIL
  6
CONTINUOUS
 62
     5
 10
162.87299999999999
 20
-90.242591000000004
 30
0.0
 40
2.6265000000000001
 50
0.0
 51
180.0
  0
ARC
  5
C8
  8
DETAIL
  6
CONTINUOUS
 62
     5
 10
162.87299999999999
 20
-47.167991000000001
 30
0.0
 40
2.6265000000000001
 50
180.0
 51
0.0
  0
ARC
  5
C9
  8
DETAIL
  6
CONTINUOUS
 62
     5
 10
173.37899999999999
 20
-47.167991000000001
 30
0.0
 40
2.6265000000000001
 50
180.0
 51
0.0
  0
ARC
  5
CA
  8
DETAIL
  6
CONTINUOUS
 62
     5
 10
173.37899999999999
 20
-90.242591000000004
 30
0.0
 40
2.6265000000000001
 50
0.0
 51
180.0
  0
LINE
  5
CB
  8
DETAIL
  6
CONTINUOUS
 62
     5
 10
176.00550000000001
 20
-55.572791000000002
 30
0.0
 11
176.00550000000001
 21
-81.837790999999996
 31
0.0
  0
LINE
  5
CC
  8
DETAIL
  6
CONTINUOUS
 62
     5
 10
170.7525
 20
-55.572791000000002
 30
0.0
 11
170.7525
 21
-81.837790999999996
 31
0.0
  0
ARC
  5
CD
  8
DETAIL
  6
CONTINUOUS
 62
     5
 10
173.37899999999999
 20
-81.837790999999996
 30
0.0
 40
2.6265000000000001
 50
180.0
 51
0.0
  0
ARC
  5
CE
  8
DETAIL
  6
CONTINUOUS
 62
     5
 10
173.37899999999999
 20
-55.572791000000002
 30
0.0
 40
2.6265000000000001
 50
0.0
 51
180.0
  0
ARC
  5
CF
  8
DETAIL
  6
CONTINUOUS
 62
     5
 10
183.88499999999999
 20
48.436608999999997
 30
0.0
 40
2.6265000000000001
 50
0.0
 51
180.0
  0
ARC
  5
D0
  8
DETAIL
  6
CONTINUOUS
 62
     5
 10
183.88499999999999
 20
22.171609
 30
0.0
 40
2.6265000000000001
 50
180.0
 51
0.0
  0
LINE
  5
D1
  8
DETAIL
  6
CONTINUOUS
 62
     5
 10
181.2585
 20
48.436608999999997
 30
0.0
 11
181.2585
 21
22.171609
 31
0.0
  0
LINE
  5
D2
  8
DETAIL
  6
CONTINUOUS
 62
     5
 10
186.51150000000001
 20
48.436608999999997
 30
0.0
 11
186.51150000000001
 21
22.171609
 31
0.0
  0
LINE
  5
D3
  8
DETAIL
  6
CONTINUOUS
 62
     5
 10
186.51150000000001
 20
13.766809
 30
0.0
 11
186.51150000000001
 21
-12.498191
 31
0.0
  0
LINE
  5
D4
  8
DETAIL
  6
CONTINUOUS
 62
     5
 10
181.2585
 20
13.766809
 30
0.0
 11
181.2585
 21
-12.498191
 31
0.0
  0
ARC
  5
D5
  8
DETAIL
  6
CONTINUOUS
 62
     5
 10
183.88499999999999
 20
-12.498191
 30
0.0
 40
2.6265000000000001
 50
180.0
 51
0.0
  0
ARC
  5
D6
  8
DETAIL
  6
CONTINUOUS
 62
     5
 10
183.88499999999999
 20
13.766809
 30
0.0
 40
2.6265000000000001
 50
0.0
 51
180.0
  0
ARC
  5
D7
  8
DETAIL
  6
CONTINUOUS
 62
     5
 10
183.88499999999999
 20
-20.902991
 30
0.0
 40
2.6265000000000001
 50
0.0
 51
180.0
  0
ARC
  5
D8
  8
DETAIL
  6
CONTINUOUS
 62
     5
 10
162.87299999999999
 20
48.436608999999997
 30
0.0
 40
2.6265000000000001
 50
0.0
 51
180.0
  0
ARC
  5
D9
  8
DETAIL
  6
CONTINUOUS
 62
     5
 10
162.87299999999999
 20
22.171609
 30
0.0
 40
2.6265000000000001
 50
180.0
 51
0.0
  0
LINE
  5
DA
  8
DETAIL
  6
CONTINUOUS
 62
     5
 10
160.2465
 20
48.436608999999997
 30
0.0
 11
160.2465
 21
22.171609
 31
0.0
  0
LINE
  5
DB
  8
DETAIL
  6
CONTINUOUS
 62
     5
 10
165.49950000000001
 20
48.436608999999997
 30
0.0
 11
165.49950000000001
 21
22.171609
 31
0.0
  0
LINE
  5
DC
  8
DETAIL
  6
CONTINUOUS
 62
     5
 10
165.49950000000001
 20
13.766809
 30
0.0
 11
165.49950000000001
 21
-12.498191
 31
0.0
  0
LINE
  5
DD
  8
DETAIL
  6
CONTINUOUS
 62
     5
 10
160.2465
 20
13.766809
 30
0.0
 11
160.2465
 21
-12.498191
 31
0.0
  0
ARC
  5
DE
  8
DETAIL
  6
CONTINUOUS
 62
     5
 10
162.87299999999999
 20
-12.498191
 30
0.0
 40
2.6265000000000001
 50
180.0
 51
0.0
  0
ARC
  5
DF
  8
DETAIL
  6
CONTINUOUS
 62
     5
 10
162.87299999999999
 20
13.766809
 30
0.0
 40
2.6265000000000001
 50
0.0
 51
180.0
  0
ARC
  5
E0
  8
DETAIL
  6
CONTINUOUS
 62
     5
 10
162.87299999999999
 20
-20.902991
 30
0.0
 40
2.6265000000000001
 50
0.0
 51
180.0
  0
ARC
  5
E1
  8
DETAIL
  6
CONTINUOUS
 62
     5
 10
173.37899999999999
 20
-20.902991
 30
0.0
 40
2.6265000000000001
 50
0.0
 51
180.0
  0
ARC
  5
E2
  8
DETAIL
  6
CONTINUOUS
 62
     5
 10
173.37899999999999
 20
13.766809
 30
0.0
 40
2.6265000000000001
 50
0.0
 51
180.0
  0
ARC
  5
E3
  8
DETAIL
  6
CONTINUOUS
 62
     5
 10
173.37899999999999
 20
-12.498191
 30
0.0
 40
2.6265000000000001
 50
180.0
 51
0.0
  0
LINE
  5
E4
  8
DETAIL
  6
CONTINUOUS
 62
     5
 10
170.7525
 20
13.766809
 30
0.0
 11
170.7525
 21
-12.498191
 31
0.0
  0
LINE
  5
E5
  8
DETAIL
  6
CONTINUOUS
 62
     5
 10
176.00550000000001
 20
13.766809
 30
0.0
 11
176.00550000000001
 21
-12.498191
 31
0.0
  0
LINE
  5
E6
  8
DETAIL
  6
CONTINUOUS
 62
     5
 10
176.00550000000001
 20
48.436608999999997
 30
0.0
 11
176.00550000000001
 21
22.171609
 31
0.0
  0
LINE
  5
E7
  8
DETAIL
  6
CONTINUOUS
 62
     5
 10
170.7525
 20
48.436608999999997
 30
0.0
 11
170.7525
 21
22.171609
 31
0.0
  0
ARC
  5
E8
  8
DETAIL
  6
CONTINUOUS
 62
     5
 10
173.37899999999999
 20
22.171609
 30
0.0
 40
2.6265000000000001
 50
180.0
 51
0.0
  0
ARC
  5
E9
  8
DETAIL
  6
CONTINUOUS
 62
     5
 10
173.37899999999999
 20
48.436608999999997
 30
0.0
 40
2.6265000000000001
 50
0.0
 51
180.0
  0
ARC
  5
EA
  8
DETAIL
  6
CONTINUOUS
 62
     5
 10
173.37899999999999
 20
151.279685
 30
0.0
 40
2.6265000000000001
 50
0.0
 51
180.0
  0
ARC
  5
EB
  8
DETAIL
  6
CONTINUOUS
 62
     5
 10
173.37899999999999
 20
125.014685
 30
0.0
 40
2.6265000000000001
 50
180.0
 51
0.0
  0
LINE
  5
EC
  8
DETAIL
  6
CONTINUOUS
 62
     5
 10
170.7525
 20
125.014685
 30
0.0
 11
170.7525
 21
151.279685
 31
0.0
  0
ARC
  5
ED
  8
DETAIL
  6
CONTINUOUS
 62
     5
 10
162.87299999999999
 20
125.014685
 30
0.0
 40
2.6265000000000001
 50
180.0
 51
0.0
  0
ARC
  5
EE
  8
DETAIL
  6
CONTINUOUS
 62
     5
 10
162.87299999999999
 20
151.279685
 30
0.0
 40
2.6265000000000001
 50
0.0
 51
180.0
  0
LINE
  5
EF
  8
DETAIL
  6
CONTINUOUS
 62
     5
 10
160.2465
 20
125.014685
 30
0.0
 11
160.2465
 21
151.279685
 31
0.0
  0
LINE
  5
F0
  8
DETAIL
  6
CONTINUOUS
 62
     5
 10
165.49950000000001
 20
125.014685
 30
0.0
 11
165.49950000000001
 21
151.279685
 31
0.0
  0
LINE
  5
F1
  8
DETAIL
  6
CONTINUOUS
 62
     5
 10
176.00550000000001
 20
125.014685
 30
0.0
 11
176.00550000000001
 21
151.279685
 31
0.0
  0
ARC
  5
F2
  8
DETAIL
  6
CONTINUOUS
 62
     5
 10
183.88499999999999
 20
125.014685
 30
0.0
 40
2.6265000000000001
 50
180.0
 51
0.0
  0
ARC
  5
F3
  8
DETAIL
  6
CONTINUOUS
 62
     5
 10
183.88499999999999
 20
151.279685
 30
0.0
 40
2.6265000000000001
 50
0.0
 51
180.0
  0
LINE
  5
F4
  8
DETAIL
  6
CONTINUOUS
 62
     5
 10
181.2585
 20
125.014685
 30
0.0
 11
181.2585
 21
151.279685
 31
0.0
  0
LINE
  5
F5
  8
DETAIL
  6
CONTINUOUS
 62
     5
 10
186.51150000000001
 20
125.014685
 30
0.0
 11
186.51150000000001
 21
151.279685
 31
0.0
  0
ARC
  5
F6
  8
DETAIL
  6
CONTINUOUS
 62
     5
 10
173.37899999999999
 20
90.344885000000005
 30
0.0
 40
2.6265000000000001
 50
180.0
 51
0.0
  0
ARC
  5
F7
  8
DETAIL
  6
CONTINUOUS
 62
     5
 10
173.37899999999999
 20
116.60988500000001
 30
0.0
 40
2.6265000000000001
 50
0.0
 51
180.0
  0
ARC
  5
F8
  8
DETAIL
  6
CONTINUOUS
 62
     5
 10
162.87299999999999
 20
90.344885000000005
 30
0.0
 40
2.6265000000000001
 50
180.0
 51
0.0
  0
ARC
  5
F9
  8
DETAIL
  6
CONTINUOUS
 62
     5
 10
162.87299999999999
 20
116.60988500000001
 30
0.0
 40
2.6265000000000001
 50
0.0
 51
180.0
  0
LINE
  5
FA
  8
DETAIL
  6
CONTINUOUS
 62
     5
 10
170.7525
 20
90.344885000000005
 30
0.0
 11
170.7525
 21
116.60988500000001
 31
0.0
  0
LINE
  5
FB
  8
DETAIL
  6
CONTINUOUS
 62
     5
 10
160.2465
 20
90.344885000000005
 30
0.0
 11
160.2465
 21
116.60988500000001
 31
0.0
  0
LINE
  5
FC
  8
DETAIL
  6
CONTINUOUS
 62
     5
 10
165.49950000000001
 20
90.344885000000005
 30
0.0
 11
165.49950000000001
 21
116.60988500000001
 31
0.0
  0
ARC
  5
FD
  8
DETAIL
  6
CONTINUOUS
 62
     5
 10
183.88499999999999
 20
90.344885000000005
 30
0.0
 40
2.6265000000000001
 50
180.0
 51
0.0
  0
ARC
  5
FE
  8
DETAIL
  6
CONTINUOUS
 62
     5
 10
183.88499999999999
 20
116.60988500000001
 30
0.0
 40
2.6265000000000001
 50
0.0
 51
180.0
  0
LINE
  5
FF
  8
DETAIL
  6
CONTINUOUS
 62
     5
 10
176.00550000000001
 20
90.344885000000005
 30
0.0
 11
176.00550000000001
 21
116.60988500000001
 31
0.0
  0
LINE
  5
100
  8
DETAIL
  6
CONTINUOUS
 62
     5
 10
181.2585
 20
90.344885000000005
 30
0.0
 11
181.2585
 21
116.60988500000001
 31
0.0
  0
LINE
  5
101
  8
DETAIL
  6
CONTINUOUS
 62
     5
 10
186.51150000000001
 20
90.344885000000005
 30
0.0
 11
186.51150000000001
 21
116.60988500000001
 31
0.0
  0
ARC
  5
102
  8
DETAIL
  6
CONTINUOUS
 62
     5
 10
183.88499999999999
 20
81.940084999999996
 30
0.0
 40
2.6265000000000001
 50
0.0
 51
180.0
  0
ARC
  5
103
  8
DETAIL
  6
CONTINUOUS
 62
     5
 10
162.87299999999999
 20
81.940084999999996
 30
0.0
 40
2.6265000000000001
 50
0.0
 51
180.0
  0
ARC
  5
104
  8
DETAIL
  6
CONTINUOUS
 62
     5
 10
173.37899999999999
 20
81.940084999999996
 30
0.0
 40
2.6265000000000001
 50
0.0
 51
180.0
  0
ARC
  5
105
  8
DETAIL
  6
CONTINUOUS
 62
     5
 10
173.37899999999999
 20
55.675084999999989
 30
0.0
 40
2.6265000000000001
 50
180.0
 51
0.0
  0
ARC
  5
106
  8
DETAIL
  6
CONTINUOUS
 62
     5
 10
162.87299999999999
 20
55.675084999999989
 30
0.0
 40
2.6265000000000001
 50
180.0
 51
0.0
  0
LINE
  5
107
  8
DETAIL
  6
CONTINUOUS
 62
     5
 10
160.2465
 20
55.675084999999989
 30
0.0
 11
160.2465
 21
81.940084999999996
 31
0.0
  0
LINE
  5
108
  8
DETAIL
  6
CONTINUOUS
 62
     5
 10
165.49950000000001
 20
55.675084999999989
 30
0.0
 11
165.49950000000001
 21
81.940084999999996
 31
0.0
  0
LINE
  5
109
  8
DETAIL
  6
CONTINUOUS
 62
     5
 10
170.7525
 20
55.675084999999989
 30
0.0
 11
170.7525
 21
81.940084999999996
 31
0.0
  0
ARC
  5
10A
  8
DETAIL
  6
CONTINUOUS
 62
     5
 10
183.88499999999999
 20
55.675084999999989
 30
0.0
 40
2.6265000000000001
 50
180.0
 51
0.0
  0
LINE
  5
10B
  8
DETAIL
  6
CONTINUOUS
 62
     5
 10
181.2585
 20
55.675084999999989
 30
0.0
 11
181.2585
 21
81.940084999999996
 31
0.0
  0
LINE
  5
10C
  8
DETAIL
  6
CONTINUOUS
 62
     5
 10
186.51150000000001
 20
55.675084999999989
 30
0.0
 11
186.51150000000001
 21
81.940084999999996
 31
0.0
  0
LINE
  5
10D
  8
DETAIL
  6
CONTINUOUS
 62
     5
 10
176.00550000000001
 20
55.675084999999989
 30
0.0
 11
176.00550000000001
 21
81.940084999999996
 31
0.0
  0
LINE
  5
10E
  8
DETAIL
  6
CONTINUOUS
 62
     5
 10
154.99350000000001
 20
13.766809
 30
0.0
 11
154.99350000000001
 21
-12.498191
 31
0.0
  0
LINE
  5
10F
  8
DETAIL
  6
CONTINUOUS
 62
     5
 10
149.7405
 20
13.766809
 30
0.0
 11
149.7405
 21
-12.498191
 31
0.0
  0
ARC
  5
110
  8
DETAIL
  6
CONTINUOUS
 62
     5
 10
152.36699999999999
 20
-81.837790999999996
 30
0.0
 40
2.6265000000000001
 50
180.0
 51
0.0
  0
LINE
  5
111
  8
DETAIL
  6
CONTINUOUS
 62
     5
 10
154.99350000000001
 20
-90.242591000000004
 30
0.0
 11
154.99350000000001
 21
-116.50759100000001
 31
0.0
  0
LINE
  5
112
  8
DETAIL
  6
CONTINUOUS
 62
     5
 10
149.7405
 20
-90.242591000000004
 30
0.0
 11
149.7405
 21
-116.50759100000001
 31
0.0
  0
ARC
  5
113
  8
DETAIL
  6
CONTINUOUS
 62
     5
 10
152.36699999999999
 20
-116.50759100000001
 30
0.0
 40
2.6265000000000001
 50
180.0
 51
0.0
  0
LINE
  5
114
  8
DETAIL
  6
CONTINUOUS
 62
     5
 10
154.99350000000001
 20
-124.912391
 30
0.0
 11
154.99350000000001
 21
-151.177391
 31
0.0
  0
LINE
  5
115
  8
DETAIL
  6
CONTINUOUS
 62
     5
 10
149.7405
 20
-124.912391
 30
0.0
 11
149.7405
 21
-151.177391
 31
0.0
  0
ARC
  5
116
  8
DETAIL
  6
CONTINUOUS
 62
     5
 10
152.36699999999999
 20
-151.177391
 30
0.0
 40
2.6265000000000001
 50
180.0
 51
0.0
  0
ARC
  5
117
  8
DETAIL
  6
CONTINUOUS
 62
     5
 10
152.36699999999999
 20
-124.912391
 30
0.0
 40
2.6265000000000001
 50
0.0
 51
180.0
  0
ARC
  5
118
  8
DETAIL
  6
CONTINUOUS
 62
     5
 10
152.36699999999999
 20
-90.242591000000004
 30
0.0
 40
2.6265000000000001
 50
0.0
 51
180.0
  0
LINE
  5
119
  8
DETAIL
  6
CONTINUOUS
 62
     5
 10
154.99350000000001
 20
-20.902991
 30
0.0
 11
154.99350000000001
 21
-47.167991000000001
 31
0.0
  0
LINE
  5
11A
  8
DETAIL
  6
CONTINUOUS
 62
     5
 10
149.7405
 20
-20.902991
 30
0.0
 11
149.7405
 21
-47.167991000000001
 31
0.0
  0
ARC
  5
11B
  8
DETAIL
  6
CONTINUOUS
 62
     5
 10
152.36699999999999
 20
-55.572791000000002
 30
0.0
 40
2.6265000000000001
 50
0.0
 51
180.0
  0
ARC
  5
11C
  8
DETAIL
  6
CONTINUOUS
 62
     5
 10
152.36699999999999
 20
-47.167991000000001
 30
0.0
 40
2.6265000000000001
 50
180.0
 51
0.0
  0
ARC
  5
11D
  8
DETAIL
  6
CONTINUOUS
 62
     5
 10
152.36699999999999
 20
-12.498191
 30
0.0
 40
2.6265000000000001
 50
180.0
 51
0.0
  0
ARC
  5
11E
  8
DETAIL
  6
CONTINUOUS
 62
     5
 10
152.36699999999999
 20
-20.902991
 30
0.0
 40
2.6265000000000001
 50
0.0
 51
180.0
  0
LINE
  5
11F
  8
DETAIL
  6
CONTINUOUS
 62
     5
 10
149.7405
 20
-55.572791000000002
 30
0.0
 11
149.7405
 21
-81.837790999999996
 31
0.0
  0
LINE
  5
120
  8
DETAIL
  6
CONTINUOUS
 62
     5
 10
154.99350000000001
 20
-55.572791000000002
 30
0.0
 11
154.99350000000001
 21
-81.837790999999996
 31
0.0
  0
ARC
  5
121
  8
DETAIL
  6
CONTINUOUS
 62
     5
 10
152.36699999999999
 20
81.940084999999996
 30
0.0
 40
2.6265000000000001
 50
0.0
 51
180.0
  0
LINE
  5
122
  8
DETAIL
  6
CONTINUOUS
 62
     5
 10
149.7405
 20
55.675084999999989
 30
0.0
 11
149.7405
 21
81.940084999999996
 31
0.0
  0
LINE
  5
123
  8
DETAIL
  6
CONTINUOUS
 62
     5
 10
154.99350000000001
 20
55.675084999999989
 30
0.0
 11
154.99350000000001
 21
81.940084999999996
 31
0.0
  0
ARC
  5
124
  8
DETAIL
  6
CONTINUOUS
 62
     5
 10
152.36699999999999
 20
55.675084999999989
 30
0.0
 40
2.6265000000000001
 50
180.0
 51
0.0
  0
ARC
  5
125
  8
DETAIL
  6
CONTINUOUS
 62
     5
 10
152.36699999999999
 20
48.436608999999997
 30
0.0
 40
2.6265000000000001
 50
0.0
 51
180.0
  0
ARC
  5
126
  8
DETAIL
  6
CONTINUOUS
 62
     5
 10
152.36699999999999
 20
22.171609
 30
0.0
 40
2.6265000000000001
 50
180.0
 51
0.0
  0
LINE
  5
127
  8
DETAIL
  6
CONTINUOUS
 62
     5
 10
149.7405
 20
48.436608999999997
 30
0.0
 11
149.7405
 21
22.171609
 31
0.0
  0
LINE
  5
128
  8
DETAIL
  6
CONTINUOUS
 62
     5
 10
154.99350000000001
 20
48.436608999999997
 30
0.0
 11
154.99350000000001
 21
22.171609
 31
0.0
  0
ARC
  5
129
  8
DETAIL
  6
CONTINUOUS
 62
     5
 10
152.36699999999999
 20
13.766809
 30
0.0
 40
2.6265000000000001
 50
0.0
 51
180.0
  0
LINE
  5
12A
  8
DETAIL
  6
CONTINUOUS
 62
     5
 10
154.99350000000001
 20
90.344885000000005
 30
0.0
 11
154.99350000000001
 21
116.60988500000001
 31
0.0
  0
LINE
  5
12B
  8
DETAIL
  6
CONTINUOUS
 62
     5
 10
149.7405
 20
90.344885000000005
 30
0.0
 11
149.7405
 21
116.60988500000001
 31
0.0
  0
ARC
  5
12C
  8
DETAIL
  6
CONTINUOUS
 62
     5
 10
152.36699999999999
 20
116.60988500000001
 30
0.0
 40
2.6265000000000001
 50
0.0
 51
180.0
  0
ARC
  5
12D
  8
DETAIL
  6
CONTINUOUS
 62
     5
 10
152.36699999999999
 20
90.344885000000005
 30
0.0
 40
2.6265000000000001
 50
180.0
 51
0.0
  0
LINE
  5
12E
  8
DETAIL
  6
CONTINUOUS
 62
     5
 10
154.99350000000001
 20
125.014685
 30
0.0
 11
154.99350000000001
 21
151.279685
 31
0.0
  0
LINE
  5
12F
  8
DETAIL
  6
CONTINUOUS
 62
     5
 10
149.7405
 20
125.014685
 30
0.0
 11
149.7405
 21
151.279685
 31
0.0
  0
ARC
  5
130
  8
DETAIL
  6
CONTINUOUS
 62
     5
 10
152.36699999999999
 20
151.279685
 30
0.0
 40
2.6265000000000001
 50
0.0
 51
180.0
  0
ARC
  5
131
  8
DETAIL
  6
CONTINUOUS
 62
     5
 10
152.36699999999999
 20
125.014685
 30
0.0
 40
2.6265000000000001
 50
180.0
 51
0.0
  0
LINE
  5
132
  8
DETAIL
  6
CONTINUOUS
 62
     5
 10
118.2225
 20
13.766809
 30
0.0
 11
118.2225
 21
-12.498191
 31
0.0
  0
LINE
  5
133
  8
DETAIL
  6
CONTINUOUS
 62
     5
 10
123.4755
 20
13.766809
 30
0.0
 11
123.4755
 21
-12.498191
 31
0.0
  0
LINE
  5
134
  8
DETAIL
  6
CONTINUOUS
 62
     5
 10
133.98150000000001
 20
13.766809
 30
0.0
 11
133.98150000000001
 21
-12.498191
 31
0.0
  0
LINE
  5
135
  8
DETAIL
  6
CONTINUOUS
 62
     5
 10
128.7285
 20
13.766809
 30
0.0
 11
128.7285
 21
-12.498191
 31
0.0
  0
LINE
  5
136
  8
DETAIL
  6
CONTINUOUS
 62
     5
 10
139.2345
 20
13.766809
 30
0.0
 11
139.2345
 21
-12.498191
 31
0.0
  0
LINE
  5
137
  8
DETAIL
  6
CONTINUOUS
 62
     5
 10
144.48750000000001
 20
13.766809
 30
0.0
 11
144.48750000000001
 21
-12.498191
 31
0.0
  0
ARC
  5
138
  8
DETAIL
  6
CONTINUOUS
 62
     5
 10
120.849
 20
-81.837790999999996
 30
0.0
 40
2.6265000000000001
 50
180.0
 51
0.0
  0
ARC
  5
139
  8
DETAIL
  6
CONTINUOUS
 62
     5
 10
131.35499999999999
 20
-81.837790999999996
 30
0.0
 40
2.6265000000000001
 50
180.0
 51
0.0
  0
ARC
  5
13A
  8
DETAIL
  6
CONTINUOUS
 62
     5
 10
141.86099999999999
 20
-81.837790999999996
 30
0.0
 40
2.6265000000000001
 50
180.0
 51
0.0
  0
ARC
  5
13B
  8
DETAIL
  6
CONTINUOUS
 62
     5
 10
141.86099999999999
 20
-124.912391
 30
0.0
 40
2.6265000000000001
 50
0.0
 51
180.0
  0
ARC
  5
13C
  8
DETAIL
  6
CONTINUOUS
 62
     5
 10
141.86099999999999
 20
-151.177391
 30
0.0
 40
2.6265000000000001
 50
180.0
 51
0.0
  0
ARC
  5
13D
  8
DETAIL
  6
CONTINUOUS
 62
     5
 10
141.86099999999999
 20
-116.50759100000001
 30
0.0
 40
2.6265000000000001
 50
180.0
 51
0.0
  0
ARC
  5
13E
  8
DETAIL
  6
CONTINUOUS
 62
     5
 10
141.86099999999999
 20
-90.242591000000004
 30
0.0
 40
2.6265000000000001
 50
0.0
 51
180.0
  0
ARC
  5
13F
  8
DETAIL
  6
CONTINUOUS
 62
     5
 10
120.849
 20
-90.242591000000004
 30
0.0
 40
2.6265000000000001
 50
0.0
 51
180.0
  0
ARC
  5
140
  8
DETAIL
  6
CONTINUOUS
 62
     5
 10
120.849
 20
-124.912391
 30
0.0
 40
2.6265000000000001
 50
0.0
 51
180.0
  0
ARC
  5
141
  8
DETAIL
  6
CONTINUOUS
 62
     5
 10
120.849
 20
-151.177391
 30
0.0
 40
2.6265000000000001
 50
180.0
 51
0.0
  0
LINE
  5
142
  8
DETAIL
  6
CONTINUOUS
 62
     5
 10
118.2225
 20
-124.912391
 30
0.0
 11
118.2225
 21
-151.177391
 31
0.0
  0
LINE
  5
143
  8
DETAIL
  6
CONTINUOUS
 62
     5
 10
123.4755
 20
-124.912391
 30
0.0
 11
123.4755
 21
-151.177391
 31
0.0
  0
ARC
  5
144
  8
DETAIL
  6
CONTINUOUS
 62
     5
 10
120.849
 20
-116.50759100000001
 30
0.0
 40
2.6265000000000001
 50
180.0
 51
0.0
  0
LINE
  5
145
  8
DETAIL
  6
CONTINUOUS
 62
     5
 10
118.2225
 20
-90.242591000000004
 30
0.0
 11
118.2225
 21
-116.50759100000001
 31
0.0
  0
LINE
  5
146
  8
DETAIL
  6
CONTINUOUS
 62
     5
 10
123.4755
 20
-90.242591000000004
 30
0.0
 11
123.4755
 21
-116.50759100000001
 31
0.0
  0
LINE
  5
147
  8
DETAIL
  6
CONTINUOUS
 62
     5
 10
133.98150000000001
 20
-90.242591000000004
 30
0.0
 11
133.98150000000001
 21
-116.50759100000001
 31
0.0
  0
LINE
  5
148
  8
DETAIL
  6
CONTINUOUS
 62
     5
 10
128.7285
 20
-90.242591000000004
 30
0.0
 11
128.7285
 21
-116.50759100000001
 31
0.0
  0
LINE
  5
149
  8
DETAIL
  6
CONTINUOUS
 62
     5
 10
139.2345
 20
-90.242591000000004
 30
0.0
 11
139.2345
 21
-116.50759100000001
 31
0.0
  0
ARC
  5
14A
  8
DETAIL
  6
CONTINUOUS
 62
     5
 10
131.35499999999999
 20
-116.50759100000001
 30
0.0
 40
2.6265000000000001
 50
180.0
 51
0.0
  0
LINE
  5
14B
  8
DETAIL
  6
CONTINUOUS
 62
     5
 10
133.98150000000001
 20
-124.912391
 30
0.0
 11
133.98150000000001
 21
-151.177391
 31
0.0
  0
LINE
  5
14C
  8
DETAIL
  6
CONTINUOUS
 62
     5
 10
128.7285
 20
-124.912391
 30
0.0
 11
128.7285
 21
-151.177391
 31
0.0
  0
ARC
  5
14D
  8
DETAIL
  6
CONTINUOUS
 62
     5
 10
131.35499999999999
 20
-151.177391
 30
0.0
 40
2.6265000000000001
 50
180.0
 51
0.0
  0
ARC
  5
14E
  8
DETAIL
  6
CONTINUOUS
 62
     5
 10
131.35499999999999
 20
-124.912391
 30
0.0
 40
2.6265000000000001
 50
0.0
 51
180.0
  0
LINE
  5
14F
  8
DETAIL
  6
CONTINUOUS
 62
     5
 10
139.2345
 20
-124.912391
 30
0.0
 11
139.2345
 21
-151.177391
 31
0.0
  0
ARC
  5
150
  8
DETAIL
  6
CONTINUOUS
 62
     5
 10
131.35499999999999
 20
-90.242591000000004
 30
0.0
 40
2.6265000000000001
 50
0.0
 51
180.0
  0
LINE
  5
151
  8
DETAIL
  6
CONTINUOUS
 62
     5
 10
144.48750000000001
 20
-90.242591000000004
 30
0.0
 11
144.48750000000001
 21
-116.50759100000001
 31
0.0
  0
LINE
  5
152
  8
DETAIL
  6
CONTINUOUS
 62
     5
 10
144.48750000000001
 20
-124.912391
 30
0.0
 11
144.48750000000001
 21
-151.177391
 31
0.0
  0
ARC
  5
153
  8
DETAIL
  6
CONTINUOUS
 62
     5
 10
141.86099999999999
 20
-47.167991000000001
 30
0.0
 40
2.6265000000000001
 50
180.0
 51
0.0
  0
ARC
  5
154
  8
DETAIL
  6
CONTINUOUS
 62
     5
 10
141.86099999999999
 20
-55.572791000000002
 30
0.0
 40
2.6265000000000001
 50
0.0
 51
180.0
  0
ARC
  5
155
  8
DETAIL
  6
CONTINUOUS
 62
     5
 10
141.86099999999999
 20
-20.902991
 30
0.0
 40
2.6265000000000001
 50
0.0
 51
180.0
  0
ARC
  5
156
  8
DETAIL
  6
CONTINUOUS
 62
     5
 10
141.86099999999999
 20
-12.498191
 30
0.0
 40
2.6265000000000001
 50
180.0
 51
0.0
  0
LINE
  5
157
  8
DETAIL
  6
CONTINUOUS
 62
     5
 10
123.4755
 20
-55.572791000000002
 30
0.0
 11
123.4755
 21
-81.837790999999996
 31
0.0
  0
LINE
  5
158
  8
DETAIL
  6
CONTINUOUS
 62
     5
 10
118.2225
 20
-55.572791000000002
 30
0.0
 11
118.2225
 21
-81.837790999999996
 31
0.0
  0
ARC
  5
159
  8
DETAIL
  6
CONTINUOUS
 62
     5
 10
120.849
 20
-20.902991
 30
0.0
 40
2.6265000000000001
 50
0.0
 51
180.0
  0
ARC
  5
15A
  8
DETAIL
  6
CONTINUOUS
 62
     5
 10
120.849
 20
-12.498191
 30
0.0
 40
2.6265000000000001
 50
180.0
 51
0.0
  0
ARC
  5
15B
  8
DETAIL
  6
CONTINUOUS
 62
     5
 10
120.849
 20
-47.167991000000001
 30
0.0
 40
2.6265000000000001
 50
180.0
 51
0.0
  0
ARC
  5
15C
  8
DETAIL
  6
CONTINUOUS
 62
     5
 10
120.849
 20
-55.572791000000002
 30
0.0
 40
2.6265000000000001
 50
0.0
 51
180.0
  0
LINE
  5
15D
  8
DETAIL
  6
CONTINUOUS
 62
     5
 10
118.2225
 20
-20.902991
 30
0.0
 11
118.2225
 21
-47.167991000000001
 31
0.0
  0
LINE
  5
15E
  8
DETAIL
  6
CONTINUOUS
 62
     5
 10
123.4755
 20
-20.902991
 30
0.0
 11
123.4755
 21
-47.167991000000001
 31
0.0
  0
LINE
  5
15F
  8
DETAIL
  6
CONTINUOUS
 62
     5
 10
133.98150000000001
 20
-20.902991
 30
0.0
 11
133.98150000000001
 21
-47.167991000000001
 31
0.0
  0
LINE
  5
160
  8
DETAIL
  6
CONTINUOUS
 62
     5
 10
128.7285
 20
-20.902991
 30
0.0
 11
128.7285
 21
-47.167991000000001
 31
0.0
  0
LINE
  5
161
  8
DETAIL
  6
CONTINUOUS
 62
     5
 10
139.2345
 20
-20.902991
 30
0.0
 11
139.2345
 21
-47.167991000000001
 31
0.0
  0
ARC
  5
162
  8
DETAIL
  6
CONTINUOUS
 62
     5
 10
131.35499999999999
 20
-55.572791000000002
 30
0.0
 40
2.6265000000000001
 50
0.0
 51
180.0
  0
ARC
  5
163
  8
DETAIL
  6
CONTINUOUS
 62
     5
 10
131.35499999999999
 20
-47.167991000000001
 30
0.0
 40
2.6265000000000001
 50
180.0
 51
0.0
  0
ARC
  5
164
  8
DETAIL
  6
CONTINUOUS
 62
     5
 10
131.35499999999999
 20
-12.498191
 30
0.0
 40
2.6265000000000001
 50
180.0
 51
0.0
  0
ARC
  5
165
  8
DETAIL
  6
CONTINUOUS
 62
     5
 10
131.35499999999999
 20
-20.902991
 30
0.0
 40
2.6265000000000001
 50
0.0
 51
180.0
  0
LINE
  5
166
  8
DETAIL
  6
CONTINUOUS
 62
     5
 10
128.7285
 20
-55.572791000000002
 30
0.0
 11
128.7285
 21
-81.837790999999996
 31
0.0
  0
LINE
  5
167
  8
DETAIL
  6
CONTINUOUS
 62
     5
 10
133.98150000000001
 20
-55.572791000000002
 30
0.0
 11
133.98150000000001
 21
-81.837790999999996
 31
0.0
  0
LINE
  5
168
  8
DETAIL
  6
CONTINUOUS
 62
     5
 10
139.2345
 20
-55.572791000000002
 30
0.0
 11
139.2345
 21
-81.837790999999996
 31
0.0
  0
LINE
  5
169
  8
DETAIL
  6
CONTINUOUS
 62
     5
 10
144.48750000000001
 20
-20.902991
 30
0.0
 11
144.48750000000001
 21
-47.167991000000001
 31
0.0
  0
LINE
  5
16A
  8
DETAIL
  6
CONTINUOUS
 62
     5
 10
144.48750000000001
 20
-55.572791000000002
 30
0.0
 11
144.48750000000001
 21
-81.837790999999996
 31
0.0
  0
ARC
  5
16B
  8
DETAIL
  6
CONTINUOUS
 62
     5
 10
120.849
 20
81.940084999999996
 30
0.0
 40
2.6265000000000001
 50
0.0
 51
180.0
  0
ARC
  5
16C
  8
DETAIL
  6
CONTINUOUS
 62
     5
 10
141.86099999999999
 20
81.940084999999996
 30
0.0
 40
2.6265000000000001
 50
0.0
 51
180.0
  0
ARC
  5
16D
  8
DETAIL
  6
CONTINUOUS
 62
     5
 10
131.35499999999999
 20
81.940084999999996
 30
0.0
 40
2.6265000000000001
 50
0.0
 51
180.0
  0
ARC
  5
16E
  8
DETAIL
  6
CONTINUOUS
 62
     5
 10
141.86099999999999
 20
55.675084999999989
 30
0.0
 40
2.6265000000000001
 50
180.0
 51
0.0
  0
ARC
  5
16F
  8
DETAIL
  6
CONTINUOUS
 62
     5
 10
141.86099999999999
 20
13.766809
 30
0.0
 40
2.6265000000000001
 50
0.0
 51
180.0
  0
ARC
  5
170
  8
DETAIL
  6
CONTINUOUS
 62
     5
 10
141.86099999999999
 20
22.171609
 30
0.0
 40
2.6265000000000001
 50
180.0
 51
0.0
  0
ARC
  5
171
  8
DETAIL
  6
CONTINUOUS
 62
     5
 10
141.86099999999999
 20
48.436608999999997
 30
0.0
 40
2.6265000000000001
 50
0.0
 51
180.0
  0
ARC
  5
172
  8
DETAIL
  6
CONTINUOUS
 62
     5
 10
120.849
 20
13.766809
 30
0.0
 40
2.6265000000000001
 50
0.0
 51
180.0
  0
LINE
  5
173
  8
DETAIL
  6
CONTINUOUS
 62
     5
 10
123.4755
 20
48.436608999999997
 30
0.0
 11
123.4755
 21
22.171609
 31
0.0
  0
LINE
  5
174
  8
DETAIL
  6
CONTINUOUS
 62
     5
 10
118.2225
 20
48.436608999999997
 30
0.0
 11
118.2225
 21
22.171609
 31
0.0
  0
ARC
  5
175
  8
DETAIL
  6
CONTINUOUS
 62
     5
 10
120.849
 20
22.171609
 30
0.0
 40
2.6265000000000001
 50
180.0
 51
0.0
  0
ARC
  5
176
  8
DETAIL
  6
CONTINUOUS
 62
     5
 10
120.849
 20
48.436608999999997
 30
0.0
 40
2.6265000000000001
 50
0.0
 51
180.0
  0
ARC
  5
177
  8
DETAIL
  6
CONTINUOUS
 62
     5
 10
120.849
 20
55.675084999999989
 30
0.0
 40
2.6265000000000001
 50
180.0
 51
0.0
  0
LINE
  5
178
  8
DETAIL
  6
CONTINUOUS
 62
     5
 10
123.4755
 20
55.675084999999989
 30
0.0
 11
123.4755
 21
81.940084999999996
 31
0.0
  0
LINE
  5
179
  8
DETAIL
  6
CONTINUOUS
 62
     5
 10
118.2225
 20
55.675084999999989
 30
0.0
 11
118.2225
 21
81.940084999999996
 31
0.0
  0
LINE
  5
17A
  8
DETAIL
  6
CONTINUOUS
 62
     5
 10
128.7285
 20
55.675084999999989
 30
0.0
 11
128.7285
 21
81.940084999999996
 31
0.0
  0
LINE
  5
17B
  8
DETAIL
  6
CONTINUOUS
 62
     5
 10
133.98150000000001
 20
55.675084999999989
 30
0.0
 11
133.98150000000001
 21
81.940084999999996
 31
0.0
  0
LINE
  5
17C
  8
DETAIL
  6
CONTINUOUS
 62
     5
 10
139.2345
 20
55.675084999999989
 30
0.0
 11
139.2345
 21
81.940084999999996
 31
0.0
  0
ARC
  5
17D
  8
DETAIL
  6
CONTINUOUS
 62
     5
 10
131.35499999999999
 20
55.675084999999989
 30
0.0
 40
2.6265000000000001
 50
180.0
 51
0.0
  0
ARC
  5
17E
  8
DETAIL
  6
CONTINUOUS
 62
     5
 10
131.35499999999999
 20
48.436608999999997
 30
0.0
 40
2.6265000000000001
 50
0.0
 51
180.0
  0
ARC
  5
17F
  8
DETAIL
  6
CONTINUOUS
 62
     5
 10
131.35499999999999
 20
22.171609
 30
0.0
 40
2.6265000000000001
 50
180.0
 51
0.0
  0
LINE
  5
180
  8
DETAIL
  6
CONTINUOUS
 62
     5
 10
128.7285
 20
48.436608999999997
 30
0.0
 11
128.7285
 21
22.171609
 31
0.0
  0
LINE
  5
181
  8
DETAIL
  6
CONTINUOUS
 62
     5
 10
133.98150000000001
 20
48.436608999999997
 30
0.0
 11
133.98150000000001
 21
22.171609
 31
0.0
  0
ARC
  5
182
  8
DETAIL
  6
CONTINUOUS
 62
     5
 10
131.35499999999999
 20
13.766809
 30
0.0
 40
2.6265000000000001
 50
0.0
 51
180.0
  0
LINE
  5
183
  8
DETAIL
  6
CONTINUOUS
 62
     5
 10
139.2345
 20
48.436608999999997
 30
0.0
 11
139.2345
 21
22.171609
 31
0.0
  0
LINE
  5
184
  8
DETAIL
  6
CONTINUOUS
 62
     5
 10
144.48750000000001
 20
55.675084999999989
 30
0.0
 11
144.48750000000001
 21
81.940084999999996
 31
0.0
  0
LINE
  5
185
  8
DETAIL
  6
CONTINUOUS
 62
     5
 10
144.48750000000001
 20
48.436608999999997
 30
0.0
 11
144.48750000000001
 21
22.171609
 31
0.0
  0
ARC
  5
186
  8
DETAIL
  6
CONTINUOUS
 62
     5
 10
141.86099999999999
 20
116.60988500000001
 30
0.0
 40
2.6265000000000001
 50
0.0
 51
180.0
  0
ARC
  5
187
  8
DETAIL
  6
CONTINUOUS
 62
     5
 10
141.86099999999999
 20
90.344885000000005
 30
0.0
 40
2.6265000000000001
 50
180.0
 51
0.0
  0
ARC
  5
188
  8
DETAIL
  6
CONTINUOUS
 62
     5
 10
141.86099999999999
 20
125.014685
 30
0.0
 40
2.6265000000000001
 50
180.0
 51
0.0
  0
ARC
  5
189
  8
DETAIL
  6
CONTINUOUS
 62
     5
 10
141.86099999999999
 20
151.279685
 30
0.0
 40
2.6265000000000001
 50
0.0
 51
180.0
  0
ARC
  5
18A
  8
DETAIL
  6
CONTINUOUS
 62
     5
 10
120.849
 20
125.014685
 30
0.0
 40
2.6265000000000001
 50
180.0
 51
0.0
  0
ARC
  5
18B
  8
DETAIL
  6
CONTINUOUS
 62
     5
 10
120.849
 20
151.279685
 30
0.0
 40
2.6265000000000001
 50
0.0
 51
180.0
  0
LINE
  5
18C
  8
DETAIL
  6
CONTINUOUS
 62
     5
 10
118.2225
 20
125.014685
 30
0.0
 11
118.2225
 21
151.279685
 31
0.0
  0
LINE
  5
18D
  8
DETAIL
  6
CONTINUOUS
 62
     5
 10
123.4755
 20
125.014685
 30
0.0
 11
123.4755
 21
151.279685
 31
0.0
  0
ARC
  5
18E
  8
DETAIL
  6
CONTINUOUS
 62
     5
 10
120.849
 20
90.344885000000005
 30
0.0
 40
2.6265000000000001
 50
180.0
 51
0.0
  0
ARC
  5
18F
  8
DETAIL
  6
CONTINUOUS
 62
     5
 10
120.849
 20
116.60988500000001
 30
0.0
 40
2.6265000000000001
 50
0.0
 51
180.0
  0
LINE
  5
190
  8
DETAIL
  6
CONTINUOUS
 62
     5
 10
118.2225
 20
90.344885000000005
 30
0.0
 11
118.2225
 21
116.60988500000001
 31
0.0
  0
LINE
  5
191
  8
DETAIL
  6
CONTINUOUS
 62
     5
 10
123.4755
 20
90.344885000000005
 30
0.0
 11
123.4755
 21
116.60988500000001
 31
0.0
  0
LINE
  5
192
  8
DETAIL
  6
CONTINUOUS
 62
     5
 10
133.98150000000001
 20
90.344885000000005
 30
0.0
 11
133.98150000000001
 21
116.60988500000001
 31
0.0
  0
LINE
  5
193
  8
DETAIL
  6
CONTINUOUS
 62
     5
 10
128.7285
 20
90.344885000000005
 30
0.0
 11
128.7285
 21
116.60988500000001
 31
0.0
  0
LINE
  5
194
  8
DETAIL
  6
CONTINUOUS
 62
     5
 10
139.2345
 20
90.344885000000005
 30
0.0
 11
139.2345
 21
116.60988500000001
 31
0.0
  0
ARC
  5
195
  8
DETAIL
  6
CONTINUOUS
 62
     5
 10
131.35499999999999
 20
116.60988500000001
 30
0.0
 40
2.6265000000000001
 50
0.0
 51
180.0
  0
ARC
  5
196
  8
DETAIL
  6
CONTINUOUS
 62
     5
 10
131.35499999999999
 20
90.344885000000005
 30
0.0
 40
2.6265000000000001
 50
180.0
 51
0.0
  0
LINE
  5
197
  8
DETAIL
  6
CONTINUOUS
 62
     5
 10
133.98150000000001
 20
125.014685
 30
0.0
 11
133.98150000000001
 21
151.279685
 31
0.0
  0
LINE
  5
198
  8
DETAIL
  6
CONTINUOUS
 62
     5
 10
128.7285
 20
125.014685
 30
0.0
 11
128.7285
 21
151.279685
 31
0.0
  0
ARC
  5
199
  8
DETAIL
  6
CONTINUOUS
 62
     5
 10
131.35499999999999
 20
151.279685
 30
0.0
 40
2.6265000000000001
 50
0.0
 51
180.0
  0
ARC
  5
19A
  8
DETAIL
  6
CONTINUOUS
 62
     5
 10
131.35499999999999
 20
125.014685
 30
0.0
 40
2.6265000000000001
 50
180.0
 51
0.0
  0
LINE
  5
19B
  8
DETAIL
  6
CONTINUOUS
 62
     5
 10
139.2345
 20
125.014685
 30
0.0
 11
139.2345
 21
151.279685
 31
0.0
  0
LINE
  5
19C
  8
DETAIL
  6
CONTINUOUS
 62
     5
 10
144.48750000000001
 20
90.344885000000005
 30
0.0
 11
144.48750000000001
 21
116.60988500000001
 31
0.0
  0
LINE
  5
19D
  8
DETAIL
  6
CONTINUOUS
 62
     5
 10
144.48750000000001
 20
125.014685
 30
0.0
 11
144.48750000000001
 21
151.279685
 31
0.0
  0
LINE
  5
19E
  8
DETAIL
  6
CONTINUOUS
 62
     5
 10
81.451499999999996
 20
13.766809
 30
0.0
 11
81.451499999999996
 21
-12.498191
 31
0.0
  0
LINE
  5
19F
  8
DETAIL
  6
CONTINUOUS
 62
     5
 10
76.198499999999996
 20
13.766809
 30
0.0
 11
76.198499999999996
 21
-12.498191
 31
0.0
  0
LINE
  5
1A0
  8
DETAIL
  6
CONTINUOUS
 62
     5
 10
65.692499999999995
 20
13.766809
 30
0.0
 11
65.692499999999995
 21
-12.498191
 31
0.0
  0
LINE
  5
1A1
  8
DETAIL
  6
CONTINUOUS
 62
     5
 10
70.945499999999996
 20
13.766809
 30
0.0
 11
70.945499999999996
 21
-12.498191
 31
0.0
  0
LINE
  5
1A2
  8
DETAIL
  6
CONTINUOUS
 62
     5
 10
60.439500000000002
 20
13.766809
 30
0.0
 11
60.439500000000002
 21
-12.498191
 31
0.0
  0
LINE
  5
1A3
  8
DETAIL
  6
CONTINUOUS
 62
     5
 10
55.186500000000002
 20
13.766809
 30
0.0
 11
55.186500000000002
 21
-12.498191
 31
0.0
  0
LINE
  5
1A4
  8
DETAIL
  6
CONTINUOUS
 62
     5
 10
86.704499999999996
 20
13.766809
 30
0.0
 11
86.704499999999996
 21
-12.498191
 31
0.0
  0
LINE
  5
1A5
  8
DETAIL
  6
CONTINUOUS
 62
     5
 10
91.957499999999996
 20
13.766809
 30
0.0
 11
91.957499999999996
 21
-12.498191
 31
0.0
  0
LINE
  5
1A6
  8
DETAIL
  6
CONTINUOUS
 62
     5
 10
102.4635
 20
13.766809
 30
0.0
 11
102.4635
 21
-12.498191
 31
0.0
  0
LINE
  5
1A7
  8
DETAIL
  6
CONTINUOUS
 62
     5
 10
97.210499999999996
 20
13.766809
 30
0.0
 11
97.210499999999996
 21
-12.498191
 31
0.0
  0
LINE
  5
1A8
  8
DETAIL
  6
CONTINUOUS
 62
     5
 10
107.7165
 20
13.766809
 30
0.0
 11
107.7165
 21
-12.498191
 31
0.0
  0
LINE
  5
1A9
  8
DETAIL
  6
CONTINUOUS
 62
     5
 10
112.9695
 20
13.766809
 30
0.0
 11
112.9695
 21
-12.498191
 31
0.0
  0
ARC
  5
1AA
  8
DETAIL
  6
CONTINUOUS
 62
     5
 10
78.825000000000003
 20
-81.837790999999996
 30
0.0
 40
2.6265000000000001
 50
180.0
 51
0.0
  0
ARC
  5
1AB
  8
DETAIL
  6
CONTINUOUS
 62
     5
 10
68.319000000000003
 20
-81.837790999999996
 30
0.0
 40
2.6265000000000001
 50
180.0
 51
0.0
  0
ARC
  5
1AC
  8
DETAIL
  6
CONTINUOUS
 62
     5
 10
57.813000000000002
 20
-81.837790999999996
 30
0.0
 40
2.6265000000000001
 50
180.0
 51
0.0
  0
ARC
  5
1AD
  8
DETAIL
  6
CONTINUOUS
 62
     5
 10
89.331000000000003
 20
-81.837790999999996
 30
0.0
 40
2.6265000000000001
 50
180.0
 51
0.0
  0
ARC
  5
1AE
  8
DETAIL
  6
CONTINUOUS
 62
     5
 10
99.837000000000003
 20
-81.837790999999996
 30
0.0
 40
2.6265000000000001
 50
180.0
 51
0.0
  0
ARC
  5
1AF
  8
DETAIL
  6
CONTINUOUS
 62
     5
 10
110.343
 20
-81.837790999999996
 30
0.0
 40
2.6265000000000001
 50
180.0
 51
0.0
  0
ARC
  5
1B0
  8
DETAIL
  6
CONTINUOUS
 62
     5
 10
110.343
 20
-124.912391
 30
0.0
 40
2.6265000000000001
 50
0.0
 51
180.0
  0
ARC
  5
1B1
  8
DETAIL
  6
CONTINUOUS
 62
     5
 10
110.343
 20
-151.177391
 30
0.0
 40
2.6265000000000001
 50
180.0
 51
0.0
  0
ARC
  5
1B2
  8
DETAIL
  6
CONTINUOUS
 62
     5
 10
110.343
 20
-116.50759100000001
 30
0.0
 40
2.6265000000000001
 50
180.0
 51
0.0
  0
ARC
  5
1B3
  8
DETAIL
  6
CONTINUOUS
 62
     5
 10
110.343
 20
-90.242591000000004
 30
0.0
 40
2.6265000000000001
 50
0.0
 51
180.0
  0
LINE
  5
1B4
  8
DETAIL
  6
CONTINUOUS
 62
     5
 10
81.451499999999996
 20
-124.912391
 30
0.0
 11
81.451499999999996
 21
-151.177391
 31
0.0
  0
LINE
  5
1B5
  8
DETAIL
  6
CONTINUOUS
 62
     5
 10
81.451499999999996
 20
-90.242591000000004
 30
0.0
 11
81.451499999999996
 21
-116.50759100000001
 31
0.0
  0
ARC
  5
1B6
  8
DETAIL
  6
CONTINUOUS
 62
     5
 10
68.319000000000003
 20
-90.242591000000004
 30
0.0
 40
2.6265000000000001
 50
0.0
 51
180.0
  0
LINE
  5
1B7
  8
DETAIL
  6
CONTINUOUS
 62
     5
 10
76.198499999999996
 20
-124.912391
 30
0.0
 11
76.198499999999996
 21
-151.177391
 31
0.0
  0
ARC
  5
1B8
  8
DETAIL
  6
CONTINUOUS
 62
     5
 10
68.319000000000003
 20
-124.912391
 30
0.0
 40
2.6265000000000001
 50
0.0
 51
180.0
  0
ARC
  5
1B9
  8
DETAIL
  6
CONTINUOUS
 62
     5
 10
68.319000000000003
 20
-151.177391
 30
0.0
 40
2.6265000000000001
 50
180.0
 51
0.0
  0
LINE
  5
1BA
  8
DETAIL
  6
CONTINUOUS
 62
     5
 10
65.692499999999995
 20
-124.912391
 30
0.0
 11
65.692499999999995
 21
-151.177391
 31
0.0
  0
LINE
  5
1BB
  8
DETAIL
  6
CONTINUOUS
 62
     5
 10
70.945499999999996
 20
-124.912391
 30
0.0
 11
70.945499999999996
 21
-151.177391
 31
0.0
  0
ARC
  5
1BC
  8
DETAIL
  6
CONTINUOUS
 62
     5
 10
68.319000000000003
 20
-116.50759100000001
 30
0.0
 40
2.6265000000000001
 50
180.0
 51
0.0
  0
LINE
  5
1BD
  8
DETAIL
  6
CONTINUOUS
 62
     5
 10
76.198499999999996
 20
-90.242591000000004
 30
0.0
 11
76.198499999999996
 21
-116.50759100000001
 31
0.0
  0
LINE
  5
1BE
  8
DETAIL
  6
CONTINUOUS
 62
     5
 10
65.692499999999995
 20
-90.242591000000004
 30
0.0
 11
65.692499999999995
 21
-116.50759100000001
 31
0.0
  0
LINE
  5
1BF
  8
DETAIL
  6
CONTINUOUS
 62
     5
 10
70.945499999999996
 20
-90.242591000000004
 30
0.0
 11
70.945499999999996
 21
-116.50759100000001
 31
0.0
  0
LINE
  5
1C0
  8
DETAIL
  6
CONTINUOUS
 62
     5
 10
60.439500000000002
 20
-90.242591000000004
 30
0.0
 11
60.439500000000002
 21
-116.50759100000001
 31
0.0
  0
LINE
  5
1C1
  8
DETAIL
  6
CONTINUOUS
 62
     5
 10
55.186500000000002
 20
-90.242591000000004
 30
0.0
 11
55.186500000000002
 21
-116.50759100000001
 31
0.0
  0
ARC
  5
1C2
  8
DETAIL
  6
CONTINUOUS
 62
     5
 10
57.813000000000002
 20
-116.50759100000001
 30
0.0
 40
2.6265000000000001
 50
180.0
 51
0.0
  0
LINE
  5
1C3
  8
DETAIL
  6
CONTINUOUS
 62
     5
 10
60.439500000000002
 20
-124.912391
 30
0.0
 11
60.439500000000002
 21
-151.177391
 31
0.0
  0
LINE
  5
1C4
  8
DETAIL
  6
CONTINUOUS
 62
     5
 10
55.186500000000002
 20
-124.912391
 30
0.0
 11
55.186500000000002
 21
-151.177391
 31
0.0
  0
ARC
  5
1C5
  8
DETAIL
  6
CONTINUOUS
 62
     5
 10
57.813000000000002
 20
-151.177391
 30
0.0
 40
2.6265000000000001
 50
180.0
 51
0.0
  0
ARC
  5
1C6
  8
DETAIL
  6
CONTINUOUS
 62
     5
 10
57.813000000000002
 20
-124.912391
 30
0.0
 40
2.6265000000000001
 50
0.0
 51
180.0
  0
ARC
  5
1C7
  8
DETAIL
  6
CONTINUOUS
 62
     5
 10
57.813000000000002
 20
-90.242591000000004
 30
0.0
 40
2.6265000000000001
 50
0.0
 51
180.0
  0
ARC
  5
1C8
  8
DETAIL
  6
CONTINUOUS
 62
     5
 10
78.825000000000003
 20
-90.242591000000004
 30
0.0
 40
2.6265000000000001
 50
0.0
 51
180.0
  0
ARC
  5
1C9
  8
DETAIL
  6
CONTINUOUS
 62
     5
 10
78.825000000000003
 20
-116.50759100000001
 30
0.0
 40
2.6265000000000001
 50
180.0
 51
0.0
  0
ARC
  5
1CA
  8
DETAIL
  6
CONTINUOUS
 62
     5
 10
78.825000000000003
 20
-151.177391
 30
0.0
 40
2.6265000000000001
 50
180.0
 51
0.0
  0
ARC
  5
1CB
  8
DETAIL
  6
CONTINUOUS
 62
     5
 10
78.825000000000003
 20
-124.912391
 30
0.0
 40
2.6265000000000001
 50
0.0
 51
180.0
  0
ARC
  5
1CC
  8
DETAIL
  6
CONTINUOUS
 62
     5
 10
89.331000000000003
 20
-90.242591000000004
 30
0.0
 40
2.6265000000000001
 50
0.0
 51
180.0
  0
ARC
  5
1CD
  8
DETAIL
  6
CONTINUOUS
 62
     5
 10
89.331000000000003
 20
-124.912391
 30
0.0
 40
2.6265000000000001
 50
0.0
 51
180.0
  0
ARC
  5
1CE
  8
DETAIL
  6
CONTINUOUS
 62
     5
 10
89.331000000000003
 20
-151.177391
 30
0.0
 40
2.6265000000000001
 50
180.0
 51
0.0
  0
LINE
  5
1CF
  8
DETAIL
  6
CONTINUOUS
 62
     5
 10
86.704499999999996
 20
-124.912391
 30
0.0
 11
86.704499999999996
 21
-151.177391
 31
0.0
  0
LINE
  5
1D0
  8
DETAIL
  6
CONTINUOUS
 62
     5
 10
91.957499999999996
 20
-124.912391
 30
0.0
 11
91.957499999999996
 21
-151.177391
 31
0.0
  0
ARC
  5
1D1
  8
DETAIL
  6
CONTINUOUS
 62
     5
 10
89.331000000000003
 20
-116.50759100000001
 30
0.0
 40
2.6265000000000001
 50
180.0
 51
0.0
  0
LINE
  5
1D2
  8
DETAIL
  6
CONTINUOUS
 62
     5
 10
86.704499999999996
 20
-90.242591000000004
 30
0.0
 11
86.704499999999996
 21
-116.50759100000001
 31
0.0
  0
LINE
  5
1D3
  8
DETAIL
  6
CONTINUOUS
 62
     5
 10
91.957499999999996
 20
-90.242591000000004
 30
0.0
 11
91.957499999999996
 21
-116.50759100000001
 31
0.0
  0
LINE
  5
1D4
  8
DETAIL
  6
CONTINUOUS
 62
     5
 10
102.4635
 20
-90.242591000000004
 30
0.0
 11
102.4635
 21
-116.50759100000001
 31
0.0
  0
LINE
  5
1D5
  8
DETAIL
  6
CONTINUOUS
 62
     5
 10
97.210499999999996
 20
-90.242591000000004
 30
0.0
 11
97.210499999999996
 21
-116.50759100000001
 31
0.0
  0
LINE
  5
1D6
  8
DETAIL
  6
CONTINUOUS
 62
     5
 10
107.7165
 20
-90.242591000000004
 30
0.0
 11
107.7165
 21
-116.50759100000001
 31
0.0
  0
ARC
  5
1D7
  8
DETAIL
  6
CONTINUOUS
 62
     5
 10
99.837000000000003
 20
-116.50759100000001
 30
0.0
 40
2.6265000000000001
 50
180.0
 51
0.0
  0
LINE
  5
1D8
  8
DETAIL
  6
CONTINUOUS
 62
     5
 10
102.4635
 20
-124.912391
 30
0.0
 11
102.4635
 21
-151.177391
 31
0.0
  0
LINE
  5
1D9
  8
DETAIL
  6
CONTINUOUS
 62
     5
 10
97.210499999999996
 20
-124.912391
 30
0.0
 11
97.210499999999996
 21
-151.177391
 31
0.0
  0
ARC
  5
1DA
  8
DETAIL
  6
CONTINUOUS
 62
     5
 10
99.837000000000003
 20
-151.177391
 30
0.0
 40
2.6265000000000001
 50
180.0
 51
0.0
  0
ARC
  5
1DB
  8
DETAIL
  6
CONTINUOUS
 62
     5
 10
99.837000000000003
 20
-124.912391
 30
0.0
 40
2.6265000000000001
 50
0.0
 51
180.0
  0
LINE
  5
1DC
  8
DETAIL
  6
CONTINUOUS
 62
     5
 10
107.7165
 20
-124.912391
 30
0.0
 11
107.7165
 21
-151.177391
 31
0.0
  0
ARC
  5
1DD
  8
DETAIL
  6
CONTINUOUS
 62
     5
 10
99.837000000000003
 20
-90.242591000000004
 30
0.0
 40
2.6265000000000001
 50
0.0
 51
180.0
  0
LINE
  5
1DE
  8
DETAIL
  6
CONTINUOUS
 62
     5
 10
112.9695
 20
-90.242591000000004
 30
0.0
 11
112.9695
 21
-116.50759100000001
 31
0.0
  0
LINE
  5
1DF
  8
DETAIL
  6
CONTINUOUS
 62
     5
 10
112.9695
 20
-124.912391
 30
0.0
 11
112.9695
 21
-151.177391
 31
0.0
  0
ARC
  5
1E0
  8
DETAIL
  6
CONTINUOUS
 62
     5
 10
110.343
 20
-47.167991000000001
 30
0.0
 40
2.6265000000000001
 50
180.0
 51
0.0
  0
ARC
  5
1E1
  8
DETAIL
  6
CONTINUOUS
 62
     5
 10
110.343
 20
-55.572791000000002
 30
0.0
 40
2.6265000000000001
 50
0.0
 51
180.0
  0
ARC
  5
1E2
  8
DETAIL
  6
CONTINUOUS
 62
     5
 10
110.343
 20
-20.902991
 30
0.0
 40
2.6265000000000001
 50
0.0
 51
180.0
  0
ARC
  5
1E3
  8
DETAIL
  6
CONTINUOUS
 62
     5
 10
110.343
 20
-12.498191
 30
0.0
 40
2.6265000000000001
 50
180.0
 51
0.0
  0
LINE
  5
1E4
  8
DETAIL
  6
CONTINUOUS
 62
     5
 10
81.451499999999996
 20
-55.572791000000002
 30
0.0
 11
81.451499999999996
 21
-81.837790999999996
 31
0.0
  0
LINE
  5
1E5
  8
DETAIL
  6
CONTINUOUS
 62
     5
 10
81.451499999999996
 20
-20.902991
 30
0.0
 11
81.451499999999996
 21
-47.167991000000001
 31
0.0
  0
LINE
  5
1E6
  8
DETAIL
  6
CONTINUOUS
 62
     5
 10
76.198499999999996
 20
-55.572791000000002
 30
0.0
 11
76.198499999999996
 21
-81.837790999999996
 31
0.0
  0
LINE
  5
1E7
  8
DETAIL
  6
CONTINUOUS
 62
     5
 10
70.945499999999996
 20
-55.572791000000002
 30
0.0
 11
70.945499999999996
 21
-81.837790999999996
 31
0.0
  0
LINE
  5
1E8
  8
DETAIL
  6
CONTINUOUS
 62
     5
 10
65.692499999999995
 20
-55.572791000000002
 30
0.0
 11
65.692499999999995
 21
-81.837790999999996
 31
0.0
  0
ARC
  5
1E9
  8
DETAIL
  6
CONTINUOUS
 62
     5
 10
68.319000000000003
 20
-20.902991
 30
0.0
 40
2.6265000000000001
 50
0.0
 51
180.0
  0
ARC
  5
1EA
  8
DETAIL
  6
CONTINUOUS
 62
     5
 10
68.319000000000003
 20
-12.498191
 30
0.0
 40
2.6265000000000001
 50
180.0
 51
0.0
  0
ARC
  5
1EB
  8
DETAIL
  6
CONTINUOUS
 62
     5
 10
68.319000000000003
 20
-47.167991000000001
 30
0.0
 40
2.6265000000000001
 50
180.0
 51
0.0
  0
ARC
  5
1EC
  8
DETAIL
  6
CONTINUOUS
 62
     5
 10
68.319000000000003
 20
-55.572791000000002
 30
0.0
 40
2.6265000000000001
 50
0.0
 51
180.0
  0
LINE
  5
1ED
  8
DETAIL
  6
CONTINUOUS
 62
     5
 10
76.198499999999996
 20
-20.902991
 30
0.0
 11
76.198499999999996
 21
-47.167991000000001
 31
0.0
  0
LINE
  5
1EE
  8
DETAIL
  6
CONTINUOUS
 62
     5
 10
65.692499999999995
 20
-20.902991
 30
0.0
 11
65.692499999999995
 21
-47.167991000000001
 31
0.0
  0
LINE
  5
1EF
  8
DETAIL
  6
CONTINUOUS
 62
     5
 10
70.945499999999996
 20
-20.902991
 30
0.0
 11
70.945499999999996
 21
-47.167991000000001
 31
0.0
  0
LINE
  5
1F0
  8
DETAIL
  6
CONTINUOUS
 62
     5
 10
60.439500000000002
 20
-20.902991
 30
0.0
 11
60.439500000000002
 21
-47.167991000000001
 31
0.0
  0
LINE
  5
1F1
  8
DETAIL
  6
CONTINUOUS
 62
     5
 10
55.186500000000002
 20
-20.902991
 30
0.0
 11
55.186500000000002
 21
-47.167991000000001
 31
0.0
  0
ARC
  5
1F2
  8
DETAIL
  6
CONTINUOUS
 62
     5
 10
57.813000000000002
 20
-55.572791000000002
 30
0.0
 40
2.6265000000000001
 50
0.0
 51
180.0
  0
ARC
  5
1F3
  8
DETAIL
  6
CONTINUOUS
 62
     5
 10
57.813000000000002
 20
-47.167991000000001
 30
0.0
 40
2.6265000000000001
 50
180.0
 51
0.0
  0
ARC
  5
1F4
  8
DETAIL
  6
CONTINUOUS
 62
     5
 10
57.813000000000002
 20
-12.498191
 30
0.0
 40
2.6265000000000001
 50
180.0
 51
0.0
  0
ARC
  5
1F5
  8
DETAIL
  6
CONTINUOUS
 62
     5
 10
57.813000000000002
 20
-20.902991
 30
0.0
 40
2.6265000000000001
 50
0.0
 51
180.0
  0
LINE
  5
1F6
  8
DETAIL
  6
CONTINUOUS
 62
     5
 10
55.186500000000002
 20
-55.572791000000002
 30
0.0
 11
55.186500000000002
 21
-81.837790999999996
 31
0.0
  0
LINE
  5
1F7
  8
DETAIL
  6
CONTINUOUS
 62
     5
 10
60.439500000000002
 20
-55.572791000000002
 30
0.0
 11
60.439500000000002
 21
-81.837790999999996
 31
0.0
  0
ARC
  5
1F8
  8
DETAIL
  6
CONTINUOUS
 62
     5
 10
78.825000000000003
 20
-12.498191
 30
0.0
 40
2.6265000000000001
 50
180.0
 51
0.0
  0
ARC
  5
1F9
  8
DETAIL
  6
CONTINUOUS
 62
     5
 10
78.825000000000003
 20
-20.902991
 30
0.0
 40
2.6265000000000001
 50
0.0
 51
180.0
  0
ARC
  5
1FA
  8
DETAIL
  6
CONTINUOUS
 62
     5
 10
78.825000000000003
 20
-55.572791000000002
 30
0.0
 40
2.6265000000000001
 50
0.0
 51
180.0
  0
ARC
  5
1FB
  8
DETAIL
  6
CONTINUOUS
 62
     5
 10
78.825000000000003
 20
-47.167991000000001
 30
0.0
 40
2.6265000000000001
 50
180.0
 51
0.0
  0
LINE
  5
1FC
  8
DETAIL
  6
CONTINUOUS
 62
     5
 10
91.957499999999996
 20
-55.572791000000002
 30
0.0
 11
91.957499999999996
 21
-81.837790999999996
 31
0.0
  0
LINE
  5
1FD
  8
DETAIL
  6
CONTINUOUS
 62
     5
 10
86.704499999999996
 20
-55.572791000000002
 30
0.0
 11
86.704499999999996
 21
-81.837790999999996
 31
0.0
  0
ARC
  5
1FE
  8
DETAIL
  6
CONTINUOUS
 62
     5
 10
89.331000000000003
 20
-20.902991
 30
0.0
 40
2.6265000000000001
 50
0.0
 51
180.0
  0
ARC
  5
1FF
  8
DETAIL
  6
CONTINUOUS
 62
     5
 10
89.331000000000003
 20
-12.498191
 30
0.0
 40
2.6265000000000001
 50
180.0
 51
0.0
  0
ARC
  5
200
  8
DETAIL
  6
CONTINUOUS
 62
     5
 10
89.331000000000003
 20
-47.167991000000001
 30
0.0
 40
2.6265000000000001
 50
180.0
 51
0.0
  0
ARC
  5
201
  8
DETAIL
  6
CONTINUOUS
 62
     5
 10
89.331000000000003
 20
-55.572791000000002
 30
0.0
 40
2.6265000000000001
 50
0.0
 51
180.0
  0
LINE
  5
202
  8
DETAIL
  6
CONTINUOUS
 62
     5
 10
86.704499999999996
 20
-20.902991
 30
0.0
 11
86.704499999999996
 21
-47.167991000000001
 31
0.0
  0
LINE
  5
203
  8
DETAIL
  6
CONTINUOUS
 62
     5
 10
91.957499999999996
 20
-20.902991
 30
0.0
 11
91.957499999999996
 21
-47.167991000000001
 31
0.0
  0
LINE
  5
204
  8
DETAIL
  6
CONTINUOUS
 62
     5
 10
102.4635
 20
-20.902991
 30
0.0
 11
102.4635
 21
-47.167991000000001
 31
0.0
  0
LINE
  5
205
  8
DETAIL
  6
CONTINUOUS
 62
     5
 10
97.210499999999996
 20
-20.902991
 30
0.0
 11
97.210499999999996
 21
-47.167991000000001
 31
0.0
  0
LINE
  5
206
  8
DETAIL
  6
CONTINUOUS
 62
     5
 10
107.7165
 20
-20.902991
 30
0.0
 11
107.7165
 21
-47.167991000000001
 31
0.0
  0
ARC
  5
207
  8
DETAIL
  6
CONTINUOUS
 62
     5
 10
99.837000000000003
 20
-55.572791000000002
 30
0.0
 40
2.6265000000000001
 50
0.0
 51
180.0
  0
ARC
  5
208
  8
DETAIL
  6
CONTINUOUS
 62
     5
 10
99.837000000000003
 20
-47.167991000000001
 30
0.0
 40
2.6265000000000001
 50
180.0
 51
0.0
  0
ARC
  5
209
  8
DETAIL
  6
CONTINUOUS
 62
     5
 10
99.837000000000003
 20
-12.498191
 30
0.0
 40
2.6265000000000001
 50
180.0
 51
0.0
  0
ARC
  5
20A
  8
DETAIL
  6
CONTINUOUS
 62
     5
 10
99.837000000000003
 20
-20.902991
 30
0.0
 40
2.6265000000000001
 50
0.0
 51
180.0
  0
LINE
  5
20B
  8
DETAIL
  6
CONTINUOUS
 62
     5
 10
97.210499999999996
 20
-55.572791000000002
 30
0.0
 11
97.210499999999996
 21
-81.837790999999996
 31
0.0
  0
LINE
  5
20C
  8
DETAIL
  6
CONTINUOUS
 62
     5
 10
102.4635
 20
-55.572791000000002
 30
0.0
 11
102.4635
 21
-81.837790999999996
 31
0.0
  0
LINE
  5
20D
  8
DETAIL
  6
CONTINUOUS
 62
     5
 10
107.7165
 20
-55.572791000000002
 30
0.0
 11
107.7165
 21
-81.837790999999996
 31
0.0
  0
LINE
  5
20E
  8
DETAIL
  6
CONTINUOUS
 62
     5
 10
112.9695
 20
-20.902991
 30
0.0
 11
112.9695
 21
-47.167991000000001
 31
0.0
  0
LINE
  5
20F
  8
DETAIL
  6
CONTINUOUS
 62
     5
 10
112.9695
 20
-55.572791000000002
 30
0.0
 11
112.9695
 21
-81.837790999999996
 31
0.0
  0
ARC
  5
210
  8
DETAIL
  6
CONTINUOUS
 62
     5
 10
68.319000000000003
 20
81.940084999999996
 30
0.0
 40
2.6265000000000001
 50
0.0
 51
180.0
  0
ARC
  5
211
  8
DETAIL
  6
CONTINUOUS
 62
     5
 10
78.825000000000003
 20
81.940084999999996
 30
0.0
 40
2.6265000000000001
 50
0.0
 51
180.0
  0
ARC
  5
212
  8
DETAIL
  6
CONTINUOUS
 62
     5
 10
57.813000000000002
 20
81.940084999999996
 30
0.0
 40
2.6265000000000001
 50
0.0
 51
180.0
  0
ARC
  5
213
  8
DETAIL
  6
CONTINUOUS
 62
     5
 10
89.331000000000003
 20
81.940084999999996
 30
0.0
 40
2.6265000000000001
 50
0.0
 51
180.0
  0
ARC
  5
214
  8
DETAIL
  6
CONTINUOUS
 62
     5
 10
110.343
 20
81.940084999999996
 30
0.0
 40
2.6265000000000001
 50
0.0
 51
180.0
  0
ARC
  5
215
  8
DETAIL
  6
CONTINUOUS
 62
     5
 10
99.837000000000003
 20
81.940084999999996
 30
0.0
 40
2.6265000000000001
 50
0.0
 51
180.0
  0
ARC
  5
216
  8
DETAIL
  6
CONTINUOUS
 62
     5
 10
110.343
 20
55.675084999999989
 30
0.0
 40
2.6265000000000001
 50
180.0
 51
0.0
  0
ARC
  5
217
  8
DETAIL
  6
CONTINUOUS
 62
     5
 10
110.343
 20
13.766809
 30
0.0
 40
2.6265000000000001
 50
0.0
 51
180.0
  0
ARC
  5
218
  8
DETAIL
  6
CONTINUOUS
 62
     5
 10
110.343
 20
22.171609
 30
0.0
 40
2.6265000000000001
 50
180.0
 51
0.0
  0
ARC
  5
219
  8
DETAIL
  6
CONTINUOUS
 62
     5
 10
110.343
 20
48.436608999999997
 30
0.0
 40
2.6265000000000001
 50
0.0
 51
180.0
  0
LINE
  5
21A
  8
DETAIL
  6
CONTINUOUS
 62
     5
 10
81.451499999999996
 20
48.436608999999997
 30
0.0
 11
81.451499999999996
 21
22.171609
 31
0.0
  0
LINE
  5
21B
  8
DETAIL
  6
CONTINUOUS
 62
     5
 10
81.451499999999996
 20
55.675084999999989
 30
0.0
 11
81.451499999999996
 21
81.940084999999996
 31
0.0
  0
LINE
  5
21C
  8
DETAIL
  6
CONTINUOUS
 62
     5
 10
76.198499999999996
 20
48.436608999999997
 30
0.0
 11
76.198499999999996
 21
22.171609
 31
0.0
  0
ARC
  5
21D
  8
DETAIL
  6
CONTINUOUS
 62
     5
 10
68.319000000000003
 20
13.766809
 30
0.0
 40
2.6265000000000001
 50
0.0
 51
180.0
  0
LINE
  5
21E
  8
DETAIL
  6
CONTINUOUS
 62
     5
 10
70.945499999999996
 20
48.436608999999997
 30
0.0
 11
70.945499999999996
 21
22.171609
 31
0.0
  0
LINE
  5
21F
  8
DETAIL
  6
CONTINUOUS
 62
     5
 10
65.692499999999995
 20
48.436608999999997
 30
0.0
 11
65.692499999999995
 21
22.171609
 31
0.0
  0
ARC
  5
220
  8
DETAIL
  6
CONTINUOUS
 62
     5
 10
68.319000000000003
 20
22.171609
 30
0.0
 40
2.6265000000000001
 50
180.0
 51
0.0
  0
ARC
  5
221
  8
DETAIL
  6
CONTINUOUS
 62
     5
 10
68.319000000000003
 20
48.436608999999997
 30
0.0
 40
2.6265000000000001
 50
0.0
 51
180.0
  0
ARC
  5
222
  8
DETAIL
  6
CONTINUOUS
 62
     5
 10
68.319000000000003
 20
55.675084999999989
 30
0.0
 40
2.6265000000000001
 50
180.0
 51
0.0
  0
LINE
  5
223
  8
DETAIL
  6
CONTINUOUS
 62
     5
 10
76.198499999999996
 20
55.675084999999989
 30
0.0
 11
76.198499999999996
 21
81.940084999999996
 31
0.0
  0
LINE
  5
224
  8
DETAIL
  6
CONTINUOUS
 62
     5
 10
70.945499999999996
 20
55.675084999999989
 30
0.0
 11
70.945499999999996
 21
81.940084999999996
 31
0.0
  0
LINE
  5
225
  8
DETAIL
  6
CONTINUOUS
 62
     5
 10
65.692499999999995
 20
55.675084999999989
 30
0.0
 11
65.692499999999995
 21
81.940084999999996
 31
0.0
  0
LINE
  5
226
  8
DETAIL
  6
CONTINUOUS
 62
     5
 10
55.186500000000002
 20
55.675084999999989
 30
0.0
 11
55.186500000000002
 21
81.940084999999996
 31
0.0
  0
LINE
  5
227
  8
DETAIL
  6
CONTINUOUS
 62
     5
 10
60.439500000000002
 20
55.675084999999989
 30
0.0
 11
60.439500000000002
 21
81.940084999999996
 31
0.0
  0
ARC
  5
228
  8
DETAIL
  6
CONTINUOUS
 62
     5
 10
57.813000000000002
 20
55.675084999999989
 30
0.0
 40
2.6265000000000001
 50
180.0
 51
0.0
  0
ARC
  5
229
  8
DETAIL
  6
CONTINUOUS
 62
     5
 10
57.813000000000002
 20
48.436608999999997
 30
0.0
 40
2.6265000000000001
 50
0.0
 51
180.0
  0
ARC
  5
22A
  8
DETAIL
  6
CONTINUOUS
 62
     5
 10
57.813000000000002
 20
22.171609
 30
0.0
 40
2.6265000000000001
 50
180.0
 51
0.0
  0
LINE
  5
22B
  8
DETAIL
  6
CONTINUOUS
 62
     5
 10
55.186500000000002
 20
48.436608999999997
 30
0.0
 11
55.186500000000002
 21
22.171609
 31
0.0
  0
LINE
  5
22C
  8
DETAIL
  6
CONTINUOUS
 62
     5
 10
60.439500000000002
 20
48.436608999999997
 30
0.0
 11
60.439500000000002
 21
22.171609
 31
0.0
  0
ARC
  5
22D
  8
DETAIL
  6
CONTINUOUS
 62
     5
 10
57.813000000000002
 20
13.766809
 30
0.0
 40
2.6265000000000001
 50
0.0
 51
180.0
  0
ARC
  5
22E
  8
DETAIL
  6
CONTINUOUS
 62
     5
 10
78.825000000000003
 20
48.436608999999997
 30
0.0
 40
2.6265000000000001
 50
0.0
 51
180.0
  0
ARC
  5
22F
  8
DETAIL
  6
CONTINUOUS
 62
     5
 10
78.825000000000003
 20
22.171609
 30
0.0
 40
2.6265000000000001
 50
180.0
 51
0.0
  0
ARC
  5
230
  8
DETAIL
  6
CONTINUOUS
 62
     5
 10
78.825000000000003
 20
13.766809
 30
0.0
 40
2.6265000000000001
 50
0.0
 51
180.0
  0
ARC
  5
231
  8
DETAIL
  6
CONTINUOUS
 62
     5
 10
78.825000000000003
 20
55.675084999999989
 30
0.0
 40
2.6265000000000001
 50
180.0
 51
0.0
  0
ARC
  5
232
  8
DETAIL
  6
CONTINUOUS
 62
     5
 10
89.331000000000003
 20
13.766809
 30
0.0
 40
2.6265000000000001
 50
0.0
 51
180.0
  0
LINE
  5
233
  8
DETAIL
  6
CONTINUOUS
 62
     5
 10
91.957499999999996
 20
48.436608999999997
 30
0.0
 11
91.957499999999996
 21
22.171609
 31
0.0
  0
LINE
  5
234
  8
DETAIL
  6
CONTINUOUS
 62
     5
 10
86.704499999999996
 20
48.436608999999997
 30
0.0
 11
86.704499999999996
 21
22.171609
 31
0.0
  0
ARC
  5
235
  8
DETAIL
  6
CONTINUOUS
 62
     5
 10
89.331000000000003
 20
22.171609
 30
0.0
 40
2.6265000000000001
 50
180.0
 51
0.0
  0
ARC
  5
236
  8
DETAIL
  6
CONTINUOUS
 62
     5
 10
89.331000000000003
 20
48.436608999999997
 30
0.0
 40
2.6265000000000001
 50
0.0
 51
180.0
  0
ARC
  5
237
  8
DETAIL
  6
CONTINUOUS
 62
     5
 10
89.331000000000003
 20
55.675084999999989
 30
0.0
 40
2.6265000000000001
 50
180.0
 51
0.0
  0
LINE
  5
238
  8
DETAIL
  6
CONTINUOUS
 62
     5
 10
91.957499999999996
 20
55.675084999999989
 30
0.0
 11
91.957499999999996
 21
81.940084999999996
 31
0.0
  0
LINE
  5
239
  8
DETAIL
  6
CONTINUOUS
 62
     5
 10
86.704499999999996
 20
55.675084999999989
 30
0.0
 11
86.704499999999996
 21
81.940084999999996
 31
0.0
  0
LINE
  5
23A
  8
DETAIL
  6
CONTINUOUS
 62
     5
 10
97.210499999999996
 20
55.675084999999989
 30
0.0
 11
97.210499999999996
 21
81.940084999999996
 31
0.0
  0
LINE
  5
23B
  8
DETAIL
  6
CONTINUOUS
 62
     5
 10
102.4635
 20
55.675084999999989
 30
0.0
 11
102.4635
 21
81.940084999999996
 31
0.0
  0
LINE
  5
23C
  8
DETAIL
  6
CONTINUOUS
 62
     5
 10
107.7165
 20
55.675084999999989
 30
0.0
 11
107.7165
 21
81.940084999999996
 31
0.0
  0
ARC
  5
23D
  8
DETAIL
  6
CONTINUOUS
 62
     5
 10
99.837000000000003
 20
55.675084999999989
 30
0.0
 40
2.6265000000000001
 50
180.0
 51
0.0
  0
ARC
  5
23E
  8
DETAIL
  6
CONTINUOUS
 62
     5
 10
99.837000000000003
 20
48.436608999999997
 30
0.0
 40
2.6265000000000001
 50
0.0
 51
180.0
  0
ARC
  5
23F
  8
DETAIL
  6
CONTINUOUS
 62
     5
 10
99.837000000000003
 20
22.171609
 30
0.0
 40
2.6265000000000001
 50
180.0
 51
0.0
  0
LINE
  5
240
  8
DETAIL
  6
CONTINUOUS
 62
     5
 10
97.210499999999996
 20
48.436608999999997
 30
0.0
 11
97.210499999999996
 21
22.171609
 31
0.0
  0
LINE
  5
241
  8
DETAIL
  6
CONTINUOUS
 62
     5
 10
102.4635
 20
48.436608999999997
 30
0.0
 11
102.4635
 21
22.171609
 31
0.0
  0
ARC
  5
242
  8
DETAIL
  6
CONTINUOUS
 62
     5
 10
99.837000000000003
 20
13.766809
 30
0.0
 40
2.6265000000000001
 50
0.0
 51
180.0
  0
LINE
  5
243
  8
DETAIL
  6
CONTINUOUS
 62
     5
 10
107.7165
 20
48.436608999999997
 30
0.0
 11
107.7165
 21
22.171609
 31
0.0
  0
LINE
  5
244
  8
DETAIL
  6
CONTINUOUS
 62
     5
 10
112.9695
 20
55.675084999999989
 30
0.0
 11
112.9695
 21
81.940084999999996
 31
0.0
  0
LINE
  5
245
  8
DETAIL
  6
CONTINUOUS
 62
     5
 10
112.9695
 20
48.436608999999997
 30
0.0
 11
112.9695
 21
22.171609
 31
0.0
  0
ARC
  5
246
  8
DETAIL
  6
CONTINUOUS
 62
     5
 10
110.343
 20
116.60988500000001
 30
0.0
 40
2.6265000000000001
 50
0.0
 51
180.0
  0
ARC
  5
247
  8
DETAIL
  6
CONTINUOUS
 62
     5
 10
110.343
 20
90.344885000000005
 30
0.0
 40
2.6265000000000001
 50
180.0
 51
0.0
  0
ARC
  5
248
  8
DETAIL
  6
CONTINUOUS
 62
     5
 10
110.343
 20
125.014685
 30
0.0
 40
2.6265000000000001
 50
180.0
 51
0.0
  0
ARC
  5
249
  8
DETAIL
  6
CONTINUOUS
 62
     5
 10
110.343
 20
151.279685
 30
0.0
 40
2.6265000000000001
 50
0.0
 51
180.0
  0
LINE
  5
24A
  8
DETAIL
  6
CONTINUOUS
 62
     5
 10
81.451499999999996
 20
125.014685
 30
0.0
 11
81.451499999999996
 21
151.279685
 31
0.0
  0
LINE
  5
24B
  8
DETAIL
  6
CONTINUOUS
 62
     5
 10
81.451499999999996
 20
90.344885000000005
 30
0.0
 11
81.451499999999996
 21
116.60988500000001
 31
0.0
  0
LINE
  5
24C
  8
DETAIL
  6
CONTINUOUS
 62
     5
 10
76.198499999999996
 20
125.014685
 30
0.0
 11
76.198499999999996
 21
151.279685
 31
0.0
  0
ARC
  5
24D
  8
DETAIL
  6
CONTINUOUS
 62
     5
 10
68.319000000000003
 20
125.014685
 30
0.0
 40
2.6265000000000001
 50
180.0
 51
0.0
  0
ARC
  5
24E
  8
DETAIL
  6
CONTINUOUS
 62
     5
 10
68.319000000000003
 20
151.279685
 30
0.0
 40
2.6265000000000001
 50
0.0
 51
180.0
  0
LINE
  5
24F
  8
DETAIL
  6
CONTINUOUS
 62
     5
 10
65.692499999999995
 20
125.014685
 30
0.0
 11
65.692499999999995
 21
151.279685
 31
0.0
  0
LINE
  5
250
  8
DETAIL
  6
CONTINUOUS
 62
     5
 10
70.945499999999996
 20
125.014685
 30
0.0
 11
70.945499999999996
 21
151.279685
 31
0.0
  0
ARC
  5
251
  8
DETAIL
  6
CONTINUOUS
 62
     5
 10
68.319000000000003
 20
90.344885000000005
 30
0.0
 40
2.6265000000000001
 50
180.0
 51
0.0
  0
ARC
  5
252
  8
DETAIL
  6
CONTINUOUS
 62
     5
 10
68.319000000000003
 20
116.60988500000001
 30
0.0
 40
2.6265000000000001
 50
0.0
 51
180.0
  0
LINE
  5
253
  8
DETAIL
  6
CONTINUOUS
 62
     5
 10
76.198499999999996
 20
90.344885000000005
 30
0.0
 11
76.198499999999996
 21
116.60988500000001
 31
0.0
  0
LINE
  5
254
  8
DETAIL
  6
CONTINUOUS
 62
     5
 10
65.692499999999995
 20
90.344885000000005
 30
0.0
 11
65.692499999999995
 21
116.60988500000001
 31
0.0
  0
LINE
  5
255
  8
DETAIL
  6
CONTINUOUS
 62
     5
 10
70.945499999999996
 20
90.344885000000005
 30
0.0
 11
70.945499999999996
 21
116.60988500000001
 31
0.0
  0
LINE
  5
256
  8
DETAIL
  6
CONTINUOUS
 62
     5
 10
60.439500000000002
 20
90.344885000000005
 30
0.0
 11
60.439500000000002
 21
116.60988500000001
 31
0.0
  0
LINE
  5
257
  8
DETAIL
  6
CONTINUOUS
 62
     5
 10
55.186500000000002
 20
90.344885000000005
 30
0.0
 11
55.186500000000002
 21
116.60988500000001
 31
0.0
  0
ARC
  5
258
  8
DETAIL
  6
CONTINUOUS
 62
     5
 10
57.813000000000002
 20
116.60988500000001
 30
0.0
 40
2.6265000000000001
 50
0.0
 51
180.0
  0
ARC
  5
259
  8
DETAIL
  6
CONTINUOUS
 62
     5
 10
57.813000000000002
 20
90.344885000000005
 30
0.0
 40
2.6265000000000001
 50
180.0
 51
0.0
  0
LINE
  5
25A
  8
DETAIL
  6
CONTINUOUS
 62
     5
 10
60.439500000000002
 20
125.014685
 30
0.0
 11
60.439500000000002
 21
151.279685
 31
0.0
  0
LINE
  5
25B
  8
DETAIL
  6
CONTINUOUS
 62
     5
 10
55.186500000000002
 20
125.014685
 30
0.0
 11
55.186500000000002
 21
151.279685
 31
0.0
  0
ARC
  5
25C
  8
DETAIL
  6
CONTINUOUS
 62
     5
 10
57.813000000000002
 20
151.279685
 30
0.0
 40
2.6265000000000001
 50
0.0
 51
180.0
  0
ARC
  5
25D
  8
DETAIL
  6
CONTINUOUS
 62
     5
 10
57.813000000000002
 20
125.014685
 30
0.0
 40
2.6265000000000001
 50
180.0
 51
0.0
  0
ARC
  5
25E
  8
DETAIL
  6
CONTINUOUS
 62
     5
 10
78.825000000000003
 20
151.279685
 30
0.0
 40
2.6265000000000001
 50
0.0
 51
180.0
  0
ARC
  5
25F
  8
DETAIL
  6
CONTINUOUS
 62
     5
 10
78.825000000000003
 20
125.014685
 30
0.0
 40
2.6265000000000001
 50
180.0
 51
0.0
  0
ARC
  5
260
  8
DETAIL
  6
CONTINUOUS
 62
     5
 10
78.825000000000003
 20
90.344885000000005
 30
0.0
 40
2.6265000000000001
 50
180.0
 51
0.0
  0
ARC
  5
261
  8
DETAIL
  6
CONTINUOUS
 62
     5
 10
78.825000000000003
 20
116.60988500000001
 30
0.0
 40
2.6265000000000001
 50
0.0
 51
180.0
  0
ARC
  5
262
  8
DETAIL
  6
CONTINUOUS
 62
     5
 10
89.331000000000003
 20
125.014685
 30
0.0
 40
2.6265000000000001
 50
180.0
 51
0.0
  0
ARC
  5
263
  8
DETAIL
  6
CONTINUOUS
 62
     5
 10
89.331000000000003
 20
151.279685
 30
0.0
 40
2.6265000000000001
 50
0.0
 51
180.0
  0
LINE
  5
264
  8
DETAIL
  6
CONTINUOUS
 62
     5
 10
86.704499999999996
 20
125.014685
 30
0.0
 11
86.704499999999996
 21
151.279685
 31
0.0
  0
LINE
  5
265
  8
DETAIL
  6
CONTINUOUS
 62
     5
 10
91.957499999999996
 20
125.014685
 30
0.0
 11
91.957499999999996
 21
151.279685
 31
0.0
  0
ARC
  5
266
  8
DETAIL
  6
CONTINUOUS
 62
     5
 10
89.331000000000003
 20
90.344885000000005
 30
0.0
 40
2.6265000000000001
 50
180.0
 51
0.0
  0
ARC
  5
267
  8
DETAIL
  6
CONTINUOUS
 62
     5
 10
89.331000000000003
 20
116.60988500000001
 30
0.0
 40
2.6265000000000001
 50
0.0
 51
180.0
  0
LINE
  5
268
  8
DETAIL
  6
CONTINUOUS
 62
     5
 10
86.704499999999996
 20
90.344885000000005
 30
0.0
 11
86.704499999999996
 21
116.60988500000001
 31
0.0
  0
LINE
  5
269
  8
DETAIL
  6
CONTINUOUS
 62
     5
 10
91.957499999999996
 20
90.344885000000005
 30
0.0
 11
91.957499999999996
 21
116.60988500000001
 31
0.0
  0
LINE
  5
26A
  8
DETAIL
  6
CONTINUOUS
 62
     5
 10
102.4635
 20
90.344885000000005
 30
0.0
 11
102.4635
 21
116.60988500000001
 31
0.0
  0
LINE
  5
26B
  8
DETAIL
  6
CONTINUOUS
 62
     5
 10
97.210499999999996
 20
90.344885000000005
 30
0.0
 11
97.210499999999996
 21
116.60988500000001
 31
0.0
  0
LINE
  5
26C
  8
DETAIL
  6
CONTINUOUS
 62
     5
 10
107.7165
 20
90.344885000000005
 30
0.0
 11
107.7165
 21
116.60988500000001
 31
0.0
  0
ARC
  5
26D
  8
DETAIL
  6
CONTINUOUS
 62
     5
 10
99.837000000000003
 20
116.60988500000001
 30
0.0
 40
2.6265000000000001
 50
0.0
 51
180.0
  0
ARC
  5
26E
  8
DETAIL
  6
CONTINUOUS
 62
     5
 10
99.837000000000003
 20
90.344885000000005
 30
0.0
 40
2.6265000000000001
 50
180.0
 51
0.0
  0
LINE
  5
26F
  8
DETAIL
  6
CONTINUOUS
 62
     5
 10
102.4635
 20
125.014685
 30
0.0
 11
102.4635
 21
151.279685
 31
0.0
  0
LINE
  5
270
  8
DETAIL
  6
CONTINUOUS
 62
     5
 10
97.210499999999996
 20
125.014685
 30
0.0
 11
97.210499999999996
 21
151.279685
 31
0.0
  0
ARC
  5
271
  8
DETAIL
  6
CONTINUOUS
 62
     5
 10
99.837000000000003
 20
151.279685
 30
0.0
 40
2.6265000000000001
 50
0.0
 51
180.0
  0
ARC
  5
272
  8
DETAIL
  6
CONTINUOUS
 62
     5
 10
99.837000000000003
 20
125.014685
 30
0.0
 40
2.6265000000000001
 50
180.0
 51
0.0
  0
LINE
  5
273
  8
DETAIL
  6
CONTINUOUS
 62
     5
 10
107.7165
 20
125.014685
 30
0.0
 11
107.7165
 21
151.279685
 31
0.0
  0
LINE
  5
274
  8
DETAIL
  6
CONTINUOUS
 62
     5
 10
112.9695
 20
90.344885000000005
 30
0.0
 11
112.9695
 21
116.60988500000001
 31
0.0
  0
LINE
  5
275
  8
DETAIL
  6
CONTINUOUS
 62
     5
 10
112.9695
 20
125.014685
 30
0.0
 11
112.9695
 21
151.279685
 31
0.0
  0
LINE
  5
276
  8
DETAIL
  6
CONTINUOUS
 62
     5
 10
44.680500000000002
 20
13.766809
 30
0.0
 11
44.680500000000002
 21
-12.498191
 31
0.0
  0
LINE
  5
277
  8
DETAIL
  6
CONTINUOUS
 62
     5
 10
49.933500000000002
 20
13.766809
 30
0.0
 11
49.933500000000002
 21
-12.498191
 31
0.0
  0
LINE
  5
278
  8
DETAIL
  6
CONTINUOUS
 62
     5
 10
39.427500000000002
 20
13.766809
 30
0.0
 11
39.427500000000002
 21
-12.498191
 31
0.0
  0
LINE
  5
279
  8
DETAIL
  6
CONTINUOUS
 62
     5
 10
34.174500000000002
 20
13.766809
 30
0.0
 11
34.174500000000002
 21
-12.498191
 31
0.0
  0
LINE
  5
27A
  8
DETAIL
  6
CONTINUOUS
 62
     5
 10
2.656499999999999
 20
13.766809
 30
0.0
 11
2.656499999999999
 21
-12.498191
 31
0.0
  0
LINE
  5
27B
  8
DETAIL
  6
CONTINUOUS
 62
     5
 10
7.9095000000000004
 20
13.766809
 30
0.0
 11
7.9095000000000004
 21
-12.498191
 31
0.0
  0
LINE
  5
27C
  8
DETAIL
  6
CONTINUOUS
 62
     5
 10
18.415500000000002
 20
13.766809
 30
0.0
 11
18.415500000000002
 21
-12.498191
 31
0.0
  0
LINE
  5
27D
  8
DETAIL
  6
CONTINUOUS
 62
     5
 10
13.1625
 20
13.766809
 30
0.0
 11
13.1625
 21
-12.498191
 31
0.0
  0
LINE
  5
27E
  8
DETAIL
  6
CONTINUOUS
 62
     5
 10
23.668500000000002
 20
13.766809
 30
0.0
 11
23.668500000000002
 21
-12.498191
 31
0.0
  0
LINE
  5
27F
  8
DETAIL
  6
CONTINUOUS
 62
     5
 10
28.921500000000002
 20
13.766809
 30
0.0
 11
28.921500000000002
 21
-12.498191
 31
0.0
  0
ARC
  5
280
  8
DETAIL
  6
CONTINUOUS
 62
     5
 10
47.306999999999988
 20
-81.837790999999996
 30
0.0
 40
2.6265000000000001
 50
180.0
 51
0.0
  0
ARC
  5
281
  8
DETAIL
  6
CONTINUOUS
 62
     5
 10
36.801000000000002
 20
-81.837790999999996
 30
0.0
 40
2.6265000000000001
 50
180.0
 51
0.0
  0
ARC
  5
282
  8
DETAIL
  6
CONTINUOUS
 62
     5
 10
5.2829999999999986
 20
-81.837790999999996
 30
0.0
 40
2.6265000000000001
 50
180.0
 51
0.0
  0
ARC
  5
283
  8
DETAIL
  6
CONTINUOUS
 62
     5
 10
15.789
 20
-81.837790999999996
 30
0.0
 40
2.6265000000000001
 50
180.0
 51
0.0
  0
ARC
  5
284
  8
DETAIL
  6
CONTINUOUS
 62
     5
 10
26.295000000000002
 20
-81.837790999999996
 30
0.0
 40
2.6265000000000001
 50
180.0
 51
0.0
  0
ARC
  5
285
  8
DETAIL
  6
CONTINUOUS
 62
     5
 10
5.2829999999999986
 20
-90.242591000000004
 30
0.0
 40
2.6265000000000001
 50
0.0
 51
180.0
  0
ARC
  5
286
  8
DETAIL
  6
CONTINUOUS
 62
     5
 10
5.2829999999999986
 20
-124.912391
 30
0.0
 40
2.6265000000000001
 50
0.0
 51
180.0
  0
ARC
  5
287
  8
DETAIL
  6
CONTINUOUS
 62
     5
 10
5.2829999999999986
 20
-151.177391
 30
0.0
 40
2.6265000000000001
 50
180.0
 51
0.0
  0
ARC
  5
288
  8
DETAIL
  6
CONTINUOUS
 62
     5
 10
5.2829999999999986
 20
-116.50759100000001
 30
0.0
 40
2.6265000000000001
 50
180.0
 51
0.0
  0
LINE
  5
289
  8
DETAIL
  6
CONTINUOUS
 62
     5
 10
2.656499999999999
 20
-124.912391
 30
0.0
 11
2.656499999999999
 21
-151.177391
 31
0.0
  0
LINE
  5
28A
  8
DETAIL
  6
CONTINUOUS
 62
     5
 10
2.656499999999999
 20
-90.242591000000004
 30
0.0
 11
2.656499999999999
 21
-116.50759100000001
 31
0.0
  0
ARC
  5
28B
  8
DETAIL
  6
CONTINUOUS
 62
     5
 10
47.306999999999988
 20
-90.242591000000004
 30
0.0
 40
2.6265000000000001
 50
0.0
 51
180.0
  0
ARC
  5
28C
  8
DETAIL
  6
CONTINUOUS
 62
     5
 10
47.306999999999988
 20
-124.912391
 30
0.0
 40
2.6265000000000001
 50
0.0
 51
180.0
  0
ARC
  5
28D
  8
DETAIL
  6
CONTINUOUS
 62
     5
 10
47.306999999999988
 20
-151.177391
 30
0.0
 40
2.6265000000000001
 50
180.0
 51
0.0
  0
LINE
  5
28E
  8
DETAIL
  6
CONTINUOUS
 62
     5
 10
44.680500000000002
 20
-124.912391
 30
0.0
 11
44.680500000000002
 21
-151.177391
 31
0.0
  0
LINE
  5
28F
  8
DETAIL
  6
CONTINUOUS
 62
     5
 10
49.933500000000002
 20
-124.912391
 30
0.0
 11
49.933500000000002
 21
-151.177391
 31
0.0
  0
ARC
  5
290
  8
DETAIL
  6
CONTINUOUS
 62
     5
 10
47.306999999999988
 20
-116.50759100000001
 30
0.0
 40
2.6265000000000001
 50
180.0
 51
0.0
  0
LINE
  5
291
  8
DETAIL
  6
CONTINUOUS
 62
     5
 10
44.680500000000002
 20
-90.242591000000004
 30
0.0
 11
44.680500000000002
 21
-116.50759100000001
 31
0.0
  0
LINE
  5
292
  8
DETAIL
  6
CONTINUOUS
 62
     5
 10
49.933500000000002
 20
-90.242591000000004
 30
0.0
 11
49.933500000000002
 21
-116.50759100000001
 31
0.0
  0
LINE
  5
293
  8
DETAIL
  6
CONTINUOUS
 62
     5
 10
39.427500000000002
 20
-90.242591000000004
 30
0.0
 11
39.427500000000002
 21
-116.50759100000001
 31
0.0
  0
LINE
  5
294
  8
DETAIL
  6
CONTINUOUS
 62
     5
 10
34.174500000000002
 20
-90.242591000000004
 30
0.0
 11
34.174500000000002
 21
-116.50759100000001
 31
0.0
  0
ARC
  5
295
  8
DETAIL
  6
CONTINUOUS
 62
     5
 10
36.801000000000002
 20
-116.50759100000001
 30
0.0
 40
2.6265000000000001
 50
180.0
 51
0.0
  0
LINE
  5
296
  8
DETAIL
  6
CONTINUOUS
 62
     5
 10
39.427500000000002
 20
-124.912391
 30
0.0
 11
39.427500000000002
 21
-151.177391
 31
0.0
  0
LINE
  5
297
  8
DETAIL
  6
CONTINUOUS
 62
     5
 10
34.174500000000002
 20
-124.912391
 30
0.0
 11
34.174500000000002
 21
-151.177391
 31
0.0
  0
ARC
  5
298
  8
DETAIL
  6
CONTINUOUS
 62
     5
 10
36.801000000000002
 20
-151.177391
 30
0.0
 40
2.6265000000000001
 50
180.0
 51
0.0
  0
ARC
  5
299
  8
DETAIL
  6
CONTINUOUS
 62
     5
 10
36.801000000000002
 20
-124.912391
 30
0.0
 40
2.6265000000000001
 50
0.0
 51
180.0
  0
ARC
  5
29A
  8
DETAIL
  6
CONTINUOUS
 62
     5
 10
36.801000000000002
 20
-90.242591000000004
 30
0.0
 40
2.6265000000000001
 50
0.0
 51
180.0
  0
ARC
  5
29B
  8
DETAIL
  6
CONTINUOUS
 62
     5
 10
26.295000000000002
 20
-124.912391
 30
0.0
 40
2.6265000000000001
 50
0.0
 51
180.0
  0
ARC
  5
29C
  8
DETAIL
  6
CONTINUOUS
 62
     5
 10
26.295000000000002
 20
-151.177391
 30
0.0
 40
2.6265000000000001
 50
180.0
 51
0.0
  0
ARC
  5
29D
  8
DETAIL
  6
CONTINUOUS
 62
     5
 10
26.295000000000002
 20
-116.50759100000001
 30
0.0
 40
2.6265000000000001
 50
180.0
 51
0.0
  0
ARC
  5
29E
  8
DETAIL
  6
CONTINUOUS
 62
     5
 10
26.295000000000002
 20
-90.242591000000004
 30
0.0
 40
2.6265000000000001
 50
0.0
 51
180.0
  0
LINE
  5
29F
  8
DETAIL
  6
CONTINUOUS
 62
     5
 10
7.9095000000000004
 20
-124.912391
 30
0.0
 11
7.9095000000000004
 21
-151.177391
 31
0.0
  0
LINE
  5
2A0
  8
DETAIL
  6
CONTINUOUS
 62
     5
 10
7.9095000000000004
 20
-90.242591000000004
 30
0.0
 11
7.9095000000000004
 21
-116.50759100000001
 31
0.0
  0
LINE
  5
2A1
  8
DETAIL
  6
CONTINUOUS
 62
     5
 10
18.415500000000002
 20
-90.242591000000004
 30
0.0
 11
18.415500000000002
 21
-116.50759100000001
 31
0.0
  0
LINE
  5
2A2
  8
DETAIL
  6
CONTINUOUS
 62
     5
 10
13.1625
 20
-90.242591000000004
 30
0.0
 11
13.1625
 21
-116.50759100000001
 31
0.0
  0
LINE
  5
2A3
  8
DETAIL
  6
CONTINUOUS
 62
     5
 10
23.668500000000002
 20
-90.242591000000004
 30
0.0
 11
23.668500000000002
 21
-116.50759100000001
 31
0.0
  0
ARC
  5
2A4
  8
DETAIL
  6
CONTINUOUS
 62
     5
 10
15.789
 20
-116.50759100000001
 30
0.0
 40
2.6265000000000001
 50
180.0
 51
0.0
  0
LINE
  5
2A5
  8
DETAIL
  6
CONTINUOUS
 62
     5
 10
18.415500000000002
 20
-124.912391
 30
0.0
 11
18.415500000000002
 21
-151.177391
 31
0.0
  0
LINE
  5
2A6
  8
DETAIL
  6
CONTINUOUS
 62
     5
 10
13.1625
 20
-124.912391
 30
0.0
 11
13.1625
 21
-151.177391
 31
0.0
  0
ARC
  5
2A7
  8
DETAIL
  6
CONTINUOUS
 62
     5
 10
15.789
 20
-151.177391
 30
0.0
 40
2.6265000000000001
 50
180.0
 51
0.0
  0
ARC
  5
2A8
  8
DETAIL
  6
CONTINUOUS
 62
     5
 10
15.789
 20
-124.912391
 30
0.0
 40
2.6265000000000001
 50
0.0
 51
180.0
  0
LINE
  5
2A9
  8
DETAIL
  6
CONTINUOUS
 62
     5
 10
23.668500000000002
 20
-124.912391
 30
0.0
 11
23.668500000000002
 21
-151.177391
 31
0.0
  0
ARC
  5
2AA
  8
DETAIL
  6
CONTINUOUS
 62
     5
 10
15.789
 20
-90.242591000000004
 30
0.0
 40
2.6265000000000001
 50
0.0
 51
180.0
  0
LINE
  5
2AB
  8
DETAIL
  6
CONTINUOUS
 62
     5
 10
28.921500000000002
 20
-90.242591000000004
 30
0.0
 11
28.921500000000002
 21
-116.50759100000001
 31
0.0
  0
LINE
  5
2AC
  8
DETAIL
  6
CONTINUOUS
 62
     5
 10
28.921500000000002
 20
-124.912391
 30
0.0
 11
28.921500000000002
 21
-151.177391
 31
0.0
  0
ARC
  5
2AD
  8
DETAIL
  6
CONTINUOUS
 62
     5
 10
5.2829999999999986
 20
-20.902991
 30
0.0
 40
2.6265000000000001
 50
0.0
 51
180.0
  0
ARC
  5
2AE
  8
DETAIL
  6
CONTINUOUS
 62
     5
 10
5.2829999999999986
 20
-12.498191
 30
0.0
 40
2.6265000000000001
 50
180.0
 51
0.0
  0
ARC
  5
2AF
  8
DETAIL
  6
CONTINUOUS
 62
     5
 10
5.2829999999999986
 20
-47.167991000000001
 30
0.0
 40
2.6265000000000001
 50
180.0
 51
0.0
  0
ARC
  5
2B0
  8
DETAIL
  6
CONTINUOUS
 62
     5
 10
5.2829999999999986
 20
-55.572791000000002
 30
0.0
 40
2.6265000000000001
 50
0.0
 51
180.0
  0
LINE
  5
2B1
  8
DETAIL
  6
CONTINUOUS
 62
     5
 10
2.656499999999999
 20
-55.572791000000002
 30
0.0
 11
2.656499999999999
 21
-81.837790999999996
 31
0.0
  0
LINE
  5
2B2
  8
DETAIL
  6
CONTINUOUS
 62
     5
 10
2.656499999999999
 20
-20.902991
 30
0.0
 11
2.656499999999999
 21
-47.167991000000001
 31
0.0
  0
LINE
  5
2B3
  8
DETAIL
  6
CONTINUOUS
 62
     5
 10
49.933500000000002
 20
-55.572791000000002
 30
0.0
 11
49.933500000000002
 21
-81.837790999999996
 31
0.0
  0
LINE
  5
2B4
  8
DETAIL
  6
CONTINUOUS
 62
     5
 10
44.680500000000002
 20
-55.572791000000002
 30
0.0
 11
44.680500000000002
 21
-81.837790999999996
 31
0.0
  0
ARC
  5
2B5
  8
DETAIL
  6
CONTINUOUS
 62
     5
 10
47.306999999999988
 20
-20.902991
 30
0.0
 40
2.6265000000000001
 50
0.0
 51
180.0
  0
ARC
  5
2B6
  8
DETAIL
  6
CONTINUOUS
 62
     5
 10
47.306999999999988
 20
-12.498191
 30
0.0
 40
2.6265000000000001
 50
180.0
 51
0.0
  0
ARC
  5
2B7
  8
DETAIL
  6
CONTINUOUS
 62
     5
 10
47.306999999999988
 20
-47.167991000000001
 30
0.0
 40
2.6265000000000001
 50
180.0
 51
0.0
  0
ARC
  5
2B8
  8
DETAIL
  6
CONTINUOUS
 62
     5
 10
47.306999999999988
 20
-55.572791000000002
 30
0.0
 40
2.6265000000000001
 50
0.0
 51
180.0
  0
LINE
  5
2B9
  8
DETAIL
  6
CONTINUOUS
 62
     5
 10
44.680500000000002
 20
-20.902991
 30
0.0
 11
44.680500000000002
 21
-47.167991000000001
 31
0.0
  0
LINE
  5
2BA
  8
DETAIL
  6
CONTINUOUS
 62
     5
 10
49.933500000000002
 20
-20.902991
 30
0.0
 11
49.933500000000002
 21
-47.167991000000001
 31
0.0
  0
LINE
  5
2BB
  8
DETAIL
  6
CONTINUOUS
 62
     5
 10
39.427500000000002
 20
-20.902991
 30
0.0
 11
39.427500000000002
 21
-47.167991000000001
 31
0.0
  0
LINE
  5
2BC
  8
DETAIL
  6
CONTINUOUS
 62
     5
 10
34.174500000000002
 20
-20.902991
 30
0.0
 11
34.174500000000002
 21
-47.167991000000001
 31
0.0
  0
ARC
  5
2BD
  8
DETAIL
  6
CONTINUOUS
 62
     5
 10
36.801000000000002
 20
-55.572791000000002
 30
0.0
 40
2.6265000000000001
 50
0.0
 51
180.0
  0
ARC
  5
2BE
  8
DETAIL
  6
CONTINUOUS
 62
     5
 10
36.801000000000002
 20
-47.167991000000001
 30
0.0
 40
2.6265000000000001
 50
180.0
 51
0.0
  0
ARC
  5
2BF
  8
DETAIL
  6
CONTINUOUS
 62
     5
 10
36.801000000000002
 20
-12.498191
 30
0.0
 40
2.6265000000000001
 50
180.0
 51
0.0
  0
ARC
  5
2C0
  8
DETAIL
  6
CONTINUOUS
 62
     5
 10
36.801000000000002
 20
-20.902991
 30
0.0
 40
2.6265000000000001
 50
0.0
 51
180.0
  0
LINE
  5
2C1
  8
DETAIL
  6
CONTINUOUS
 62
     5
 10
34.174500000000002
 20
-55.572791000000002
 30
0.0
 11
34.174500000000002
 21
-81.837790999999996
 31
0.0
  0
LINE
  5
2C2
  8
DETAIL
  6
CONTINUOUS
 62
     5
 10
39.427500000000002
 20
-55.572791000000002
 30
0.0
 11
39.427500000000002
 21
-81.837790999999996
 31
0.0
  0
ARC
  5
2C3
  8
DETAIL
  6
CONTINUOUS
 62
     5
 10
26.295000000000002
 20
-47.167991000000001
 30
0.0
 40
2.6265000000000001
 50
180.0
 51
0.0
  0
ARC
  5
2C4
  8
DETAIL
  6
CONTINUOUS
 62
     5
 10
26.295000000000002
 20
-55.572791000000002
 30
0.0
 40
2.6265000000000001
 50
0.0
 51
180.0
  0
ARC
  5
2C5
  8
DETAIL
  6
CONTINUOUS
 62
     5
 10
26.295000000000002
 20
-20.902991
 30
0.0
 40
2.6265000000000001
 50
0.0
 51
180.0
  0
ARC
  5
2C6
  8
DETAIL
  6
CONTINUOUS
 62
     5
 10
26.295000000000002
 20
-12.498191
 30
0.0
 40
2.6265000000000001
 50
180.0
 51
0.0
  0
LINE
  5
2C7
  8
DETAIL
  6
CONTINUOUS
 62
     5
 10
7.9095000000000004
 20
-55.572791000000002
 30
0.0
 11
7.9095000000000004
 21
-81.837790999999996
 31
0.0
  0
LINE
  5
2C8
  8
DETAIL
  6
CONTINUOUS
 62
     5
 10
7.9095000000000004
 20
-20.902991
 30
0.0
 11
7.9095000000000004
 21
-47.167991000000001
 31
0.0
  0
LINE
  5
2C9
  8
DETAIL
  6
CONTINUOUS
 62
     5
 10
18.415500000000002
 20
-20.902991
 30
0.0
 11
18.415500000000002
 21
-47.167991000000001
 31
0.0
  0
LINE
  5
2CA
  8
DETAIL
  6
CONTINUOUS
 62
     5
 10
13.1625
 20
-20.902991
 30
0.0
 11
13.1625
 21
-47.167991000000001
 31
0.0
  0
LINE
  5
2CB
  8
DETAIL
  6
CONTINUOUS
 62
     5
 10
23.668500000000002
 20
-20.902991
 30
0.0
 11
23.668500000000002
 21
-47.167991000000001
 31
0.0
  0
ARC
  5
2CC
  8
DETAIL
  6
CONTINUOUS
 62
     5
 10
15.789
 20
-55.572791000000002
 30
0.0
 40
2.6265000000000001
 50
0.0
 51
180.0
  0
ARC
  5
2CD
  8
DETAIL
  6
CONTINUOUS
 62
     5
 10
15.789
 20
-47.167991000000001
 30
0.0
 40
2.6265000000000001
 50
180.0
 51
0.0
  0
ARC
  5
2CE
  8
DETAIL
  6
CONTINUOUS
 62
     5
 10
15.789
 20
-12.498191
 30
0.0
 40
2.6265000000000001
 50
180.0
 51
0.0
  0
ARC
  5
2CF
  8
DETAIL
  6
CONTINUOUS
 62
     5
 10
15.789
 20
-20.902991
 30
0.0
 40
2.6265000000000001
 50
0.0
 51
180.0
  0
LINE
  5
2D0
  8
DETAIL
  6
CONTINUOUS
 62
     5
 10
13.1625
 20
-55.572791000000002
 30
0.0
 11
13.1625
 21
-81.837790999999996
 31
0.0
  0
LINE
  5
2D1
  8
DETAIL
  6
CONTINUOUS
 62
     5
 10
18.415500000000002
 20
-55.572791000000002
 30
0.0
 11
18.415500000000002
 21
-81.837790999999996
 31
0.0
  0
LINE
  5
2D2
  8
DETAIL
  6
CONTINUOUS
 62
     5
 10
23.668500000000002
 20
-55.572791000000002
 30
0.0
 11
23.668500000000002
 21
-81.837790999999996
 31
0.0
  0
LINE
  5
2D3
  8
DETAIL
  6
CONTINUOUS
 62
     5
 10
28.921500000000002
 20
-20.902991
 30
0.0
 11
28.921500000000002
 21
-47.167991000000001
 31
0.0
  0
LINE
  5
2D4
  8
DETAIL
  6
CONTINUOUS
 62
     5
 10
28.921500000000002
 20
-55.572791000000002
 30
0.0
 11
28.921500000000002
 21
-81.837790999999996
 31
0.0
  0
ARC
  5
2D5
  8
DETAIL
  6
CONTINUOUS
 62
     5
 10
47.306999999999988
 20
81.940084999999996
 30
0.0
 40
2.6265000000000001
 50
0.0
 51
180.0
  0
ARC
  5
2D6
  8
DETAIL
  6
CONTINUOUS
 62
     5
 10
36.801000000000002
 20
81.940084999999996
 30
0.0
 40
2.6265000000000001
 50
0.0
 51
180.0
  0
ARC
  5
2D7
  8
DETAIL
  6
CONTINUOUS
 62
     5
 10
5.2829999999999986
 20
81.940084999999996
 30
0.0
 40
2.6265000000000001
 50
0.0
 51
180.0
  0
ARC
  5
2D8
  8
DETAIL
  6
CONTINUOUS
 62
     5
 10
26.295000000000002
 20
81.940084999999996
 30
0.0
 40
2.6265000000000001
 50
0.0
 51
180.0
  0
ARC
  5
2D9
  8
DETAIL
  6
CONTINUOUS
 62
     5
 10
15.789
 20
81.940084999999996
 30
0.0
 40
2.6265000000000001
 50
0.0
 51
180.0
  0
ARC
  5
2DA
  8
DETAIL
  6
CONTINUOUS
 62
     5
 10
5.2829999999999986
 20
13.766809
 30
0.0
 40
2.6265000000000001
 50
0.0
 51
180.0
  0
ARC
  5
2DB
  8
DETAIL
  6
CONTINUOUS
 62
     5
 10
5.2829999999999986
 20
22.171609
 30
0.0
 40
2.6265000000000001
 50
180.0
 51
0.0
  0
ARC
  5
2DC
  8
DETAIL
  6
CONTINUOUS
 62
     5
 10
5.2829999999999986
 20
48.436608999999997
 30
0.0
 40
2.6265000000000001
 50
0.0
 51
180.0
  0
ARC
  5
2DD
  8
DETAIL
  6
CONTINUOUS
 62
     5
 10
5.2829999999999986
 20
55.675084999999989
 30
0.0
 40
2.6265000000000001
 50
180.0
 51
0.0
  0
LINE
  5
2DE
  8
DETAIL
  6
CONTINUOUS
 62
     5
 10
2.656499999999999
 20
48.436608999999997
 30
0.0
 11
2.656499999999999
 21
22.171609
 31
0.0
  0
LINE
  5
2DF
  8
DETAIL
  6
CONTINUOUS
 62
     5
 10
2.656499999999999
 20
55.675084999999989
 30
0.0
 11
2.656499999999999
 21
81.940084999999996
 31
0.0
  0
ARC
  5
2E0
  8
DETAIL
  6
CONTINUOUS
 62
     5
 10
47.306999999999988
 20
13.766809
 30
0.0
 40
2.6265000000000001
 50
0.0
 51
180.0
  0
LINE
  5
2E1
  8
DETAIL
  6
CONTINUOUS
 62
     5
 10
49.933500000000002
 20
48.436608999999997
 30
0.0
 11
49.933500000000002
 21
22.171609
 31
0.0
  0
LINE
  5
2E2
  8
DETAIL
  6
CONTINUOUS
 62
     5
 10
44.680500000000002
 20
48.436608999999997
 30
0.0
 11
44.680500000000002
 21
22.171609
 31
0.0
  0
ARC
  5
2E3
  8
DETAIL
  6
CONTINUOUS
 62
     5
 10
47.306999999999988
 20
22.171609
 30
0.0
 40
2.6265000000000001
 50
180.0
 51
0.0
  0
ARC
  5
2E4
  8
DETAIL
  6
CONTINUOUS
 62
     5
 10
47.306999999999988
 20
48.436608999999997
 30
0.0
 40
2.6265000000000001
 50
0.0
 51
180.0
  0
ARC
  5
2E5
  8
DETAIL
  6
CONTINUOUS
 62
     5
 10
47.306999999999988
 20
55.675084999999989
 30
0.0
 40
2.6265000000000001
 50
180.0
 51
0.0
  0
LINE
  5
2E6
  8
DETAIL
  6
CONTINUOUS
 62
     5
 10
49.933500000000002
 20
55.675084999999989
 30
0.0
 11
49.933500000000002
 21
81.940084999999996
 31
0.0
  0
LINE
  5
2E7
  8
DETAIL
  6
CONTINUOUS
 62
     5
 10
44.680500000000002
 20
55.675084999999989
 30
0.0
 11
44.680500000000002
 21
81.940084999999996
 31
0.0
  0
LINE
  5
2E8
  8
DETAIL
  6
CONTINUOUS
 62
     5
 10
34.174500000000002
 20
55.675084999999989
 30
0.0
 11
34.174500000000002
 21
81.940084999999996
 31
0.0
  0
LINE
  5
2E9
  8
DETAIL
  6
CONTINUOUS
 62
     5
 10
39.427500000000002
 20
55.675084999999989
 30
0.0
 11
39.427500000000002
 21
81.940084999999996
 31
0.0
  0
ARC
  5
2EA
  8
DETAIL
  6
CONTINUOUS
 62
     5
 10
36.801000000000002
 20
55.675084999999989
 30
0.0
 40
2.6265000000000001
 50
180.0
 51
0.0
  0
ARC
  5
2EB
  8
DETAIL
  6
CONTINUOUS
 62
     5
 10
36.801000000000002
 20
48.436608999999997
 30
0.0
 40
2.6265000000000001
 50
0.0
 51
180.0
  0
ARC
  5
2EC
  8
DETAIL
  6
CONTINUOUS
 62
     5
 10
36.801000000000002
 20
22.171609
 30
0.0
 40
2.6265000000000001
 50
180.0
 51
0.0
  0
LINE
  5
2ED
  8
DETAIL
  6
CONTINUOUS
 62
     5
 10
34.174500000000002
 20
48.436608999999997
 30
0.0
 11
34.174500000000002
 21
22.171609
 31
0.0
  0
LINE
  5
2EE
  8
DETAIL
  6
CONTINUOUS
 62
     5
 10
39.427500000000002
 20
48.436608999999997
 30
0.0
 11
39.427500000000002
 21
22.171609
 31
0.0
  0
ARC
  5
2EF
  8
DETAIL
  6
CONTINUOUS
 62
     5
 10
36.801000000000002
 20
13.766809
 30
0.0
 40
2.6265000000000001
 50
0.0
 51
180.0
  0
ARC
  5
2F0
  8
DETAIL
  6
CONTINUOUS
 62
     5
 10
26.295000000000002
 20
55.675084999999989
 30
0.0
 40
2.6265000000000001
 50
180.0
 51
0.0
  0
ARC
  5
2F1
  8
DETAIL
  6
CONTINUOUS
 62
     5
 10
26.295000000000002
 20
13.766809
 30
0.0
 40
2.6265000000000001
 50
0.0
 51
180.0
  0
ARC
  5
2F2
  8
DETAIL
  6
CONTINUOUS
 62
     5
 10
26.295000000000002
 20
22.171609
 30
0.0
 40
2.6265000000000001
 50
180.0
 51
0.0
  0
ARC
  5
2F3
  8
DETAIL
  6
CONTINUOUS
 62
     5
 10
26.295000000000002
 20
48.436608999999997
 30
0.0
 40
2.6265000000000001
 50
0.0
 51
180.0
  0
LINE
  5
2F4
  8
DETAIL
  6
CONTINUOUS
 62
     5
 10
7.9095000000000004
 20
48.436608999999997
 30
0.0
 11
7.9095000000000004
 21
22.171609
 31
0.0
  0
LINE
  5
2F5
  8
DETAIL
  6
CONTINUOUS
 62
     5
 10
7.9095000000000004
 20
55.675084999999989
 30
0.0
 11
7.9095000000000004
 21
81.940084999999996
 31
0.0
  0
LINE
  5
2F6
  8
DETAIL
  6
CONTINUOUS
 62
     5
 10
13.1625
 20
55.675084999999989
 30
0.0
 11
13.1625
 21
81.940084999999996
 31
0.0
  0
LINE
  5
2F7
  8
DETAIL
  6
CONTINUOUS
 62
     5
 10
18.415500000000002
 20
55.675084999999989
 30
0.0
 11
18.415500000000002
 21
81.940084999999996
 31
0.0
  0
LINE
  5
2F8
  8
DETAIL
  6
CONTINUOUS
 62
     5
 10
23.668500000000002
 20
55.675084999999989
 30
0.0
 11
23.668500000000002
 21
81.940084999999996
 31
0.0
  0
ARC
  5
2F9
  8
DETAIL
  6
CONTINUOUS
 62
     5
 10
15.789
 20
55.675084999999989
 30
0.0
 40
2.6265000000000001
 50
180.0
 51
0.0
  0
ARC
  5
2FA
  8
DETAIL
  6
CONTINUOUS
 62
     5
 10
15.789
 20
48.436608999999997
 30
0.0
 40
2.6265000000000001
 50
0.0
 51
180.0
  0
ARC
  5
2FB
  8
DETAIL
  6
CONTINUOUS
 62
     5
 10
15.789
 20
22.171609
 30
0.0
 40
2.6265000000000001
 50
180.0
 51
0.0
  0
LINE
  5
2FC
  8
DETAIL
  6
CONTINUOUS
 62
     5
 10
13.1625
 20
48.436608999999997
 30
0.0
 11
13.1625
 21
22.171609
 31
0.0
  0
LINE
  5
2FD
  8
DETAIL
  6
CONTINUOUS
 62
     5
 10
18.415500000000002
 20
48.436608999999997
 30
0.0
 11
18.415500000000002
 21
22.171609
 31
0.0
  0
ARC
  5
2FE
  8
DETAIL
  6
CONTINUOUS
 62
     5
 10
15.789
 20
13.766809
 30
0.0
 40
2.6265000000000001
 50
0.0
 51
180.0
  0
LINE
  5
2FF
  8
DETAIL
  6
CONTINUOUS
 62
     5
 10
23.668500000000002
 20
48.436608999999997
 30
0.0
 11
23.668500000000002
 21
22.171609
 31
0.0
  0
LINE
  5
300
  8
DETAIL
  6
CONTINUOUS
 62
     5
 10
28.921500000000002
 20
55.675084999999989
 30
0.0
 11
28.921500000000002
 21
81.940084999999996
 31
0.0
  0
LINE
  5
301
  8
DETAIL
  6
CONTINUOUS
 62
     5
 10
28.921500000000002
 20
48.436608999999997
 30
0.0
 11
28.921500000000002
 21
22.171609
 31
0.0
  0
ARC
  5
302
  8
DETAIL
  6
CONTINUOUS
 62
     5
 10
5.2829999999999986
 20
125.014685
 30
0.0
 40
2.6265000000000001
 50
180.0
 51
0.0
  0
ARC
  5
303
  8
DETAIL
  6
CONTINUOUS
 62
     5
 10
5.2829999999999986
 20
151.279685
 30
0.0
 40
2.6265000000000001
 50
0.0
 51
180.0
  0
ARC
  5
304
  8
DETAIL
  6
CONTINUOUS
 62
     5
 10
5.2829999999999986
 20
90.344885000000005
 30
0.0
 40
2.6265000000000001
 50
180.0
 51
0.0
  0
ARC
  5
305
  8
DETAIL
  6
CONTINUOUS
 62
     5
 10
5.2829999999999986
 20
116.60988500000001
 30
0.0
 40
2.6265000000000001
 50
0.0
 51
180.0
  0
LINE
  5
306
  8
DETAIL
  6
CONTINUOUS
 62
     5
 10
2.656499999999999
 20
125.014685
 30
0.0
 11
2.656499999999999
 21
151.279685
 31
0.0
  0
LINE
  5
307
  8
DETAIL
  6
CONTINUOUS
 62
     5
 10
2.656499999999999
 20
90.344885000000005
 30
0.0
 11
2.656499999999999
 21
116.60988500000001
 31
0.0
  0
ARC
  5
308
  8
DETAIL
  6
CONTINUOUS
 62
     5
 10
47.306999999999988
 20
125.014685
 30
0.0
 40
2.6265000000000001
 50
180.0
 51
0.0
  0
ARC
  5
309
  8
DETAIL
  6
CONTINUOUS
 62
     5
 10
47.306999999999988
 20
151.279685
 30
0.0
 40
2.6265000000000001
 50
0.0
 51
180.0
  0
LINE
  5
30A
  8
DETAIL
  6
CONTINUOUS
 62
     5
 10
44.680500000000002
 20
125.014685
 30
0.0
 11
44.680500000000002
 21
151.279685
 31
0.0
  0
LINE
  5
30B
  8
DETAIL
  6
CONTINUOUS
 62
     5
 10
49.933500000000002
 20
125.014685
 30
0.0
 11
49.933500000000002
 21
151.279685
 31
0.0
  0
ARC
  5
30C
  8
DETAIL
  6
CONTINUOUS
 62
     5
 10
47.306999999999988
 20
90.344885000000005
 30
0.0
 40
2.6265000000000001
 50
180.0
 51
0.0
  0
ARC
  5
30D
  8
DETAIL
  6
CONTINUOUS
 62
     5
 10
47.306999999999988
 20
116.60988500000001
 30
0.0
 40
2.6265000000000001
 50
0.0
 51
180.0
  0
LINE
  5
30E
  8
DETAIL
  6
CONTINUOUS
 62
     5
 10
44.680500000000002
 20
90.344885000000005
 30
0.0
 11
44.680500000000002
 21
116.60988500000001
 31
0.0
  0
LINE
  5
30F
  8
DETAIL
  6
CONTINUOUS
 62
     5
 10
49.933500000000002
 20
90.344885000000005
 30
0.0
 11
49.933500000000002
 21
116.60988500000001
 31
0.0
  0
LINE
  5
310
  8
DETAIL
  6
CONTINUOUS
 62
     5
 10
39.427500000000002
 20
90.344885000000005
 30
0.0
 11
39.427500000000002
 21
116.60988500000001
 31
0.0
  0
LINE
  5
311
  8
DETAIL
  6
CONTINUOUS
 62
     5
 10
34.174500000000002
 20
90.344885000000005
 30
0.0
 11
34.174500000000002
 21
116.60988500000001
 31
0.0
  0
ARC
  5
312
  8
DETAIL
  6
CONTINUOUS
 62
     5
 10
36.801000000000002
 20
116.60988500000001
 30
0.0
 40
2.6265000000000001
 50
0.0
 51
180.0
  0
ARC
  5
313
  8
DETAIL
  6
CONTINUOUS
 62
     5
 10
36.801000000000002
 20
90.344885000000005
 30
0.0
 40
2.6265000000000001
 50
180.0
 51
0.0
  0
LINE
  5
314
  8
DETAIL
  6
CONTINUOUS
 62
     5
 10
39.427500000000002
 20
125.014685
 30
0.0
 11
39.427500000000002
 21
151.279685
 31
0.0
  0
LINE
  5
315
  8
DETAIL
  6
CONTINUOUS
 62
     5
 10
34.174500000000002
 20
125.014685
 30
0.0
 11
34.174500000000002
 21
151.279685
 31
0.0
  0
ARC
  5
316
  8
DETAIL
  6
CONTINUOUS
 62
     5
 10
36.801000000000002
 20
151.279685
 30
0.0
 40
2.6265000000000001
 50
0.0
 51
180.0
  0
ARC
  5
317
  8
DETAIL
  6
CONTINUOUS
 62
     5
 10
36.801000000000002
 20
125.014685
 30
0.0
 40
2.6265000000000001
 50
180.0
 51
0.0
  0
ARC
  5
318
  8
DETAIL
  6
CONTINUOUS
 62
     5
 10
26.295000000000002
 20
116.60988500000001
 30
0.0
 40
2.6265000000000001
 50
0.0
 51
180.0
  0
ARC
  5
319
  8
DETAIL
  6
CONTINUOUS
 62
     5
 10
26.295000000000002
 20
90.344885000000005
 30
0.0
 40
2.6265000000000001
 50
180.0
 51
0.0
  0
ARC
  5
31A
  8
DETAIL
  6
CONTINUOUS
 62
     5
 10
26.295000000000002
 20
125.014685
 30
0.0
 40
2.6265000000000001
 50
180.0
 51
0.0
  0
ARC
  5
31B
  8
DETAIL
  6
CONTINUOUS
 62
     5
 10
26.295000000000002
 20
151.279685
 30
0.0
 40
2.6265000000000001
 50
0.0
 51
180.0
  0
LINE
  5
31C
  8
DETAIL
  6
CONTINUOUS
 62
     5
 10
7.9095000000000004
 20
125.014685
 30
0.0
 11
7.9095000000000004
 21
151.279685
 31
0.0
  0
LINE
  5
31D
  8
DETAIL
  6
CONTINUOUS
 62
     5
 10
7.9095000000000004
 20
90.344885000000005
 30
0.0
 11
7.9095000000000004
 21
116.60988500000001
 31
0.0
  0
LINE
  5
31E
  8
DETAIL
  6
CONTINUOUS
 62
     5
 10
18.415500000000002
 20
90.344885000000005
 30
0.0
 11
18.415500000000002
 21
116.60988500000001
 31
0.0
  0
LINE
  5
31F
  8
DETAIL
  6
CONTINUOUS
 62
     5
 10
13.1625
 20
90.344885000000005
 30
0.0
 11
13.1625
 21
116.60988500000001
 31
0.0
  0
LINE
  5
320
  8
DETAIL
  6
CONTINUOUS
 62
     5
 10
23.668500000000002
 20
90.344885000000005
 30
0.0
 11
23.668500000000002
 21
116.60988500000001
 31
0.0
  0
ARC
  5
321
  8
DETAIL
  6
CONTINUOUS
 62
     5
 10
15.789
 20
116.60988500000001
 30
0.0
 40
2.6265000000000001
 50
0.0
 51
180.0
  0
ARC
  5
322
  8
DETAIL
  6
CONTINUOUS
 62
     5
 10
15.789
 20
90.344885000000005
 30
0.0
 40
2.6265000000000001
 50
180.0
 51
0.0
  0
LINE
  5
323
  8
DETAIL
  6
CONTINUOUS
 62
     5
 10
18.415500000000002
 20
125.014685
 30
0.0
 11
18.415500000000002
 21
151.279685
 31
0.0
  0
LINE
  5
324
  8
DETAIL
  6
CONTINUOUS
 62
     5
 10
13.1625
 20
125.014685
 30
0.0
 11
13.1625
 21
151.279685
 31
0.0
  0
ARC
  5
325
  8
DETAIL
  6
CONTINUOUS
 62
     5
 10
15.789
 20
151.279685
 30
0.0
 40
2.6265000000000001
 50
0.0
 51
180.0
  0
ARC
  5
326
  8
DETAIL
  6
CONTINUOUS
 62
     5
 10
15.789
 20
125.014685
 30
0.0
 40
2.6265000000000001
 50
180.0
 51
0.0
  0
LINE
  5
327
  8
DETAIL
  6
CONTINUOUS
 62
     5
 10
23.668500000000002
 20
125.014685
 30
0.0
 11
23.668500000000002
 21
151.279685
 31
0.0
  0
LINE
  5
328
  8
DETAIL
  6
CONTINUOUS
 62
     5
 10
28.921500000000002
 20
90.344885000000005
 30
0.0
 11
28.921500000000002
 21
116.60988500000001
 31
0.0
  0
LINE
  5
329
  8
DETAIL
  6
CONTINUOUS
 62
     5
 10
28.921500000000002
 20
125.014685
 30
0.0
 11
28.921500000000002
 21
151.279685
 31
0.0
  0
LINE
  5
32A
  8
DETAIL
  6
CONTINUOUS
 62
     5
 10
-149.68049999999999
 20
13.766809
 30
0.0
 11
-149.68049999999999
 21
-12.498191
 31
0.0
  0
LINE
  5
32B
  8
DETAIL
  6
CONTINUOUS
 62
     5
 10
-154.93350000000001
 20
13.766809
 30
0.0
 11
-154.93350000000001
 21
-12.498191
 31
0.0
  0
LINE
  5
32C
  8
DETAIL
  6
CONTINUOUS
 62
     5
 10
-165.43950000000001
 20
13.766809
 30
0.0
 11
-165.43950000000001
 21
-12.498191
 31
0.0
  0
LINE
  5
32D
  8
DETAIL
  6
CONTINUOUS
 62
     5
 10
-160.1865
 20
13.766809
 30
0.0
 11
-160.1865
 21
-12.498191
 31
0.0
  0
LINE
  5
32E
  8
DETAIL
  6
CONTINUOUS
 62
     5
 10
-170.6925
 20
13.766809
 30
0.0
 11
-170.6925
 21
-12.498191
 31
0.0
  0
LINE
  5
32F
  8
DETAIL
  6
CONTINUOUS
 62
     5
 10
-175.94550000000001
 20
13.766809
 30
0.0
 11
-175.94550000000001
 21
-12.498191
 31
0.0
  0
LINE
  5
330
  8
DETAIL
  6
CONTINUOUS
 62
     5
 10
-144.42750000000001
 20
13.766809
 30
0.0
 11
-144.42750000000001
 21
-12.498191
 31
0.0
  0
LINE
  5
331
  8
DETAIL
  6
CONTINUOUS
 62
     5
 10
-139.17449999999999
 20
13.766809
 30
0.0
 11
-139.17449999999999
 21
-12.498191
 31
0.0
  0
LINE
  5
332
  8
DETAIL
  6
CONTINUOUS
 62
     5
 10
-128.66849999999999
 20
13.766809
 30
0.0
 11
-128.66849999999999
 21
-12.498191
 31
0.0
  0
LINE
  5
333
  8
DETAIL
  6
CONTINUOUS
 62
     5
 10
-133.92150000000001
 20
13.766809
 30
0.0
 11
-133.92150000000001
 21
-12.498191
 31
0.0
  0
LINE
  5
334
  8
DETAIL
  6
CONTINUOUS
 62
     5
 10
-65.632499999999993
 20
13.766809
 30
0.0
 11
-65.632499999999993
 21
-12.498191
 31
0.0
  0
LINE
  5
335
  8
DETAIL
  6
CONTINUOUS
 62
     5
 10
-70.885499999999993
 20
13.766809
 30
0.0
 11
-70.885499999999993
 21
-12.498191
 31
0.0
  0
LINE
  5
336
  8
DETAIL
  6
CONTINUOUS
 62
     5
 10
-81.391499999999979
 20
13.766809
 30
0.0
 11
-81.391499999999979
 21
-12.498191
 31
0.0
  0
LINE
  5
337
  8
DETAIL
  6
CONTINUOUS
 62
     5
 10
-76.138499999999993
 20
13.766809
 30
0.0
 11
-76.138499999999993
 21
-12.498191
 31
0.0
  0
LINE
  5
338
  8
DETAIL
  6
CONTINUOUS
 62
     5
 10
-86.644499999999994
 20
13.766809
 30
0.0
 11
-86.644499999999994
 21
-12.498191
 31
0.0
  0
LINE
  5
339
  8
DETAIL
  6
CONTINUOUS
 62
     5
 10
-91.897499999999994
 20
13.766809
 30
0.0
 11
-91.897499999999994
 21
-12.498191
 31
0.0
  0
LINE
  5
33A
  8
DETAIL
  6
CONTINUOUS
 62
     5
 10
-123.41549999999999
 20
13.766809
 30
0.0
 11
-123.41549999999999
 21
-12.498191
 31
0.0
  0
LINE
  5
33B
  8
DETAIL
  6
CONTINUOUS
 62
     5
 10
-118.16249999999999
 20
13.766809
 30
0.0
 11
-118.16249999999999
 21
-12.498191
 31
0.0
  0
LINE
  5
33C
  8
DETAIL
  6
CONTINUOUS
 62
     5
 10
-107.65649999999999
 20
13.766809
 30
0.0
 11
-107.65649999999999
 21
-12.498191
 31
0.0
  0
LINE
  5
33D
  8
DETAIL
  6
CONTINUOUS
 62
     5
 10
-112.90949999999999
 20
13.766809
 30
0.0
 11
-112.90949999999999
 21
-12.498191
 31
0.0
  0
LINE
  5
33E
  8
DETAIL
  6
CONTINUOUS
 62
     5
 10
-102.40349999999999
 20
13.766809
 30
0.0
 11
-102.40349999999999
 21
-12.498191
 31
0.0
  0
LINE
  5
33F
  8
DETAIL
  6
CONTINUOUS
 62
     5
 10
-97.150499999999994
 20
13.766809
 30
0.0
 11
-97.150499999999994
 21
-12.498191
 31
0.0
  0
LINE
  5
340
  8
DETAIL
  6
CONTINUOUS
 62
     5
 10
-34.1145
 20
13.766809
 30
0.0
 11
-34.1145
 21
-12.498191
 31
0.0
  0
LINE
  5
341
  8
DETAIL
  6
CONTINUOUS
 62
     5
 10
-39.3675
 20
13.766809
 30
0.0
 11
-39.3675
 21
-12.498191
 31
0.0
  0
LINE
  5
342
  8
DETAIL
  6
CONTINUOUS
 62
     5
 10
-49.8735
 20
13.766809
 30
0.0
 11
-49.8735
 21
-12.498191
 31
0.0
  0
LINE
  5
343
  8
DETAIL
  6
CONTINUOUS
 62
     5
 10
-44.6205
 20
13.766809
 30
0.0
 11
-44.6205
 21
-12.498191
 31
0.0
  0
LINE
  5
344
  8
DETAIL
  6
CONTINUOUS
 62
     5
 10
-55.1265
 20
13.766809
 30
0.0
 11
-55.1265
 21
-12.498191
 31
0.0
  0
LINE
  5
345
  8
DETAIL
  6
CONTINUOUS
 62
     5
 10
-60.3795
 20
13.766809
 30
0.0
 11
-60.3795
 21
-12.498191
 31
0.0
  0
LINE
  5
346
  8
DETAIL
  6
CONTINUOUS
 62
     5
 10
-28.861499999999999
 20
13.766809
 30
0.0
 11
-28.861499999999999
 21
-12.498191
 31
0.0
  0
LINE
  5
347
  8
DETAIL
  6
CONTINUOUS
 62
     5
 10
-23.608499999999999
 20
13.766809
 30
0.0
 11
-23.608499999999999
 21
-12.498191
 31
0.0
  0
LINE
  5
348
  8
DETAIL
  6
CONTINUOUS
 62
     5
 10
-13.102499999999999
 20
13.766809
 30
0.0
 11
-13.102499999999999
 21
-12.498191
 31
0.0
  0
LINE
  5
349
  8
DETAIL
  6
CONTINUOUS
 62
     5
 10
-18.355499999999999
 20
13.766809
 30
0.0
 11
-18.355499999999999
 21
-12.498191
 31
0.0
  0
LINE
  5
34A
  8
DETAIL
  6
CONTINUOUS
 62
     5
 10
-7.849499999999999
 20
13.766809
 30
0.0
 11
-7.849499999999999
 21
-12.498191
 31
0.0
  0
LINE
  5
34B
  8
DETAIL
  6
CONTINUOUS
 62
     5
 10
-2.5964999999999989
 20
13.766809
 30
0.0
 11
-2.5964999999999989
 21
-12.498191
 31
0.0
  0
ARC
  5
34C
  8
DETAIL
  6
CONTINUOUS
 62
     5
 10
-152.30699999999999
 20
-81.837790999999996
 30
0.0
 40
2.6265000000000001
 50
180.0
 51
0.0
  0
ARC
  5
34D
  8
DETAIL
  6
CONTINUOUS
 62
     5
 10
-162.81299999999999
 20
-81.837790999999996
 30
0.0
 40
2.6265000000000001
 50
180.0
 51
0.0
  0
ARC
  5
34E
  8
DETAIL
  6
CONTINUOUS
 62
     5
 10
-173.31899999999999
 20
-81.837790999999996
 30
0.0
 40
2.6265000000000001
 50
180.0
 51
0.0
  0
ARC
  5
34F
  8
DETAIL
  6
CONTINUOUS
 62
     5
 10
-141.80099999999999
 20
-81.837790999999996
 30
0.0
 40
2.6265000000000001
 50
180.0
 51
0.0
  0
ARC
  5
350
  8
DETAIL
  6
CONTINUOUS
 62
     5
 10
-131.29499999999999
 20
-81.837790999999996
 30
0.0
 40
2.6265000000000001
 50
180.0
 51
0.0
  0
ARC
  5
351
  8
DETAIL
  6
CONTINUOUS
 62
     5
 10
-68.259
 20
-81.837790999999996
 30
0.0
 40
2.6265000000000001
 50
180.0
 51
0.0
  0
ARC
  5
352
  8
DETAIL
  6
CONTINUOUS
 62
     5
 10
-78.765000000000001
 20
-81.837790999999996
 30
0.0
 40
2.6265000000000001
 50
180.0
 51
0.0
  0
ARC
  5
353
  8
DETAIL
  6
CONTINUOUS
 62
     5
 10
-89.271000000000015
 20
-81.837790999999996
 30
0.0
 40
2.6265000000000001
 50
180.0
 51
0.0
  0
ARC
  5
354
  8
DETAIL
  6
CONTINUOUS
 62
     5
 10
-120.789
 20
-81.837790999999996
 30
0.0
 40
2.6265000000000001
 50
180.0
 51
0.0
  0
ARC
  5
355
  8
DETAIL
  6
CONTINUOUS
 62
     5
 10
-110.283
 20
-81.837790999999996
 30
0.0
 40
2.6265000000000001
 50
180.0
 51
0.0
  0
ARC
  5
356
  8
DETAIL
  6
CONTINUOUS
 62
     5
 10
-99.777000000000001
 20
-81.837790999999996
 30
0.0
 40
2.6265000000000001
 50
180.0
 51
0.0
  0
ARC
  5
357
  8
DETAIL
  6
CONTINUOUS
 62
     5
 10
-120.789
 20
-90.242591000000004
 30
0.0
 40
2.6265000000000001
 50
0.0
 51
180.0
  0
ARC
  5
358
  8
DETAIL
  6
CONTINUOUS
 62
     5
 10
-120.789
 20
-124.912391
 30
0.0
 40
2.6265000000000001
 50
0.0
 51
180.0
  0
ARC
  5
359
  8
DETAIL
  6
CONTINUOUS
 62
     5
 10
-120.789
 20
-151.177391
 30
0.0
 40
2.6265000000000001
 50
180.0
 51
0.0
  0
ARC
  5
35A
  8
DETAIL
  6
CONTINUOUS
 62
     5
 10
-120.789
 20
-116.50759100000001
 30
0.0
 40
2.6265000000000001
 50
180.0
 51
0.0
  0
LINE
  5
35B
  8
DETAIL
  6
CONTINUOUS
 62
     5
 10
-149.68049999999999
 20
-124.912391
 30
0.0
 11
-149.68049999999999
 21
-151.177391
 31
0.0
  0
LINE
  5
35C
  8
DETAIL
  6
CONTINUOUS
 62
     5
 10
-149.68049999999999
 20
-90.242591000000004
 30
0.0
 11
-149.68049999999999
 21
-116.50759100000001
 31
0.0
  0
ARC
  5
35D
  8
DETAIL
  6
CONTINUOUS
 62
     5
 10
-162.81299999999999
 20
-90.242591000000004
 30
0.0
 40
2.6265000000000001
 50
0.0
 51
180.0
  0
LINE
  5
35E
  8
DETAIL
  6
CONTINUOUS
 62
     5
 10
-154.93350000000001
 20
-124.912391
 30
0.0
 11
-154.93350000000001
 21
-151.177391
 31
0.0
  0
ARC
  5
35F
  8
DETAIL
  6
CONTINUOUS
 62
     5
 10
-162.81299999999999
 20
-124.912391
 30
0.0
 40
2.6265000000000001
 50
0.0
 51
180.0
  0
ARC
  5
360
  8
DETAIL
  6
CONTINUOUS
 62
     5
 10
-162.81299999999999
 20
-151.177391
 30
0.0
 40
2.6265000000000001
 50
180.0
 51
0.0
  0
LINE
  5
361
  8
DETAIL
  6
CONTINUOUS
 62
     5
 10
-165.43950000000001
 20
-124.912391
 30
0.0
 11
-165.43950000000001
 21
-151.177391
 31
0.0
  0
LINE
  5
362
  8
DETAIL
  6
CONTINUOUS
 62
     5
 10
-160.1865
 20
-124.912391
 30
0.0
 11
-160.1865
 21
-151.177391
 31
0.0
  0
ARC
  5
363
  8
DETAIL
  6
CONTINUOUS
 62
     5
 10
-162.81299999999999
 20
-116.50759100000001
 30
0.0
 40
2.6265000000000001
 50
180.0
 51
0.0
  0
LINE
  5
364
  8
DETAIL
  6
CONTINUOUS
 62
     5
 10
-154.93350000000001
 20
-90.242591000000004
 30
0.0
 11
-154.93350000000001
 21
-116.50759100000001
 31
0.0
  0
LINE
  5
365
  8
DETAIL
  6
CONTINUOUS
 62
     5
 10
-165.43950000000001
 20
-90.242591000000004
 30
0.0
 11
-165.43950000000001
 21
-116.50759100000001
 31
0.0
  0
LINE
  5
366
  8
DETAIL
  6
CONTINUOUS
 62
     5
 10
-160.1865
 20
-90.242591000000004
 30
0.0
 11
-160.1865
 21
-116.50759100000001
 31
0.0
  0
LINE
  5
367
  8
DETAIL
  6
CONTINUOUS
 62
     5
 10
-170.6925
 20
-90.242591000000004
 30
0.0
 11
-170.6925
 21
-116.50759100000001
 31
0.0
  0
LINE
  5
368
  8
DETAIL
  6
CONTINUOUS
 62
     5
 10
-170.6925
 20
-124.912391
 30
0.0
 11
-170.6925
 21
-151.177391
 31
0.0
  0
ARC
  5
369
  8
DETAIL
  6
CONTINUOUS
 62
     5
 10
-152.30699999999999
 20
-90.242591000000004
 30
0.0
 40
2.6265000000000001
 50
0.0
 51
180.0
  0
ARC
  5
36A
  8
DETAIL
  6
CONTINUOUS
 62
     5
 10
-152.30699999999999
 20
-116.50759100000001
 30
0.0
 40
2.6265000000000001
 50
180.0
 51
0.0
  0
ARC
  5
36B
  8
DETAIL
  6
CONTINUOUS
 62
     5
 10
-152.30699999999999
 20
-151.177391
 30
0.0
 40
2.6265000000000001
 50
180.0
 51
0.0
  0
ARC
  5
36C
  8
DETAIL
  6
CONTINUOUS
 62
     5
 10
-152.30699999999999
 20
-124.912391
 30
0.0
 40
2.6265000000000001
 50
0.0
 51
180.0
  0
ARC
  5
36D
  8
DETAIL
  6
CONTINUOUS
 62
     5
 10
-141.80099999999999
 20
-90.242591000000004
 30
0.0
 40
2.6265000000000001
 50
0.0
 51
180.0
  0
ARC
  5
36E
  8
DETAIL
  6
CONTINUOUS
 62
     5
 10
-141.80099999999999
 20
-124.912391
 30
0.0
 40
2.6265000000000001
 50
0.0
 51
180.0
  0
ARC
  5
36F
  8
DETAIL
  6
CONTINUOUS
 62
     5
 10
-141.80099999999999
 20
-151.177391
 30
0.0
 40
2.6265000000000001
 50
180.0
 51
0.0
  0
LINE
  5
370
  8
DETAIL
  6
CONTINUOUS
 62
     5
 10
-144.42750000000001
 20
-124.912391
 30
0.0
 11
-144.42750000000001
 21
-151.177391
 31
0.0
  0
LINE
  5
371
  8
DETAIL
  6
CONTINUOUS
 62
     5
 10
-139.17449999999999
 20
-124.912391
 30
0.0
 11
-139.17449999999999
 21
-151.177391
 31
0.0
  0
ARC
  5
372
  8
DETAIL
  6
CONTINUOUS
 62
     5
 10
-141.80099999999999
 20
-116.50759100000001
 30
0.0
 40
2.6265000000000001
 50
180.0
 51
0.0
  0
LINE
  5
373
  8
DETAIL
  6
CONTINUOUS
 62
     5
 10
-144.42750000000001
 20
-90.242591000000004
 30
0.0
 11
-144.42750000000001
 21
-116.50759100000001
 31
0.0
  0
LINE
  5
374
  8
DETAIL
  6
CONTINUOUS
 62
     5
 10
-139.17449999999999
 20
-90.242591000000004
 30
0.0
 11
-139.17449999999999
 21
-116.50759100000001
 31
0.0
  0
LINE
  5
375
  8
DETAIL
  6
CONTINUOUS
 62
     5
 10
-128.66849999999999
 20
-90.242591000000004
 30
0.0
 11
-128.66849999999999
 21
-116.50759100000001
 31
0.0
  0
LINE
  5
376
  8
DETAIL
  6
CONTINUOUS
 62
     5
 10
-133.92150000000001
 20
-90.242591000000004
 30
0.0
 11
-133.92150000000001
 21
-116.50759100000001
 31
0.0
  0
ARC
  5
377
  8
DETAIL
  6
CONTINUOUS
 62
     5
 10
-131.29499999999999
 20
-116.50759100000001
 30
0.0
 40
2.6265000000000001
 50
180.0
 51
0.0
  0
LINE
  5
378
  8
DETAIL
  6
CONTINUOUS
 62
     5
 10
-128.66849999999999
 20
-124.912391
 30
0.0
 11
-128.66849999999999
 21
-151.177391
 31
0.0
  0
LINE
  5
379
  8
DETAIL
  6
CONTINUOUS
 62
     5
 10
-133.92150000000001
 20
-124.912391
 30
0.0
 11
-133.92150000000001
 21
-151.177391
 31
0.0
  0
ARC
  5
37A
  8
DETAIL
  6
CONTINUOUS
 62
     5
 10
-131.29499999999999
 20
-151.177391
 30
0.0
 40
2.6265000000000001
 50
180.0
 51
0.0
  0
ARC
  5
37B
  8
DETAIL
  6
CONTINUOUS
 62
     5
 10
-131.29499999999999
 20
-124.912391
 30
0.0
 40
2.6265000000000001
 50
0.0
 51
180.0
  0
ARC
  5
37C
  8
DETAIL
  6
CONTINUOUS
 62
     5
 10
-131.29499999999999
 20
-90.242591000000004
 30
0.0
 40
2.6265000000000001
 50
0.0
 51
180.0
  0
LINE
  5
37D
  8
DETAIL
  6
CONTINUOUS
 62
     5
 10
-175.94550000000001
 20
-90.242591000000004
 30
0.0
 11
-175.94550000000001
 21
-116.50759100000001
 31
0.0
  0
LINE
  5
37E
  8
DETAIL
  6
CONTINUOUS
 62
     5
 10
-175.94550000000001
 20
-124.912391
 30
0.0
 11
-175.94550000000001
 21
-151.177391
 31
0.0
  0
ARC
  5
37F
  8
DETAIL
  6
CONTINUOUS
 62
     5
 10
-173.31899999999999
 20
-116.50759100000001
 30
0.0
 40
2.6265000000000001
 50
180.0
 51
0.0
  0
ARC
  5
380
  8
DETAIL
  6
CONTINUOUS
 62
     5
 10
-173.31899999999999
 20
-151.177391
 30
0.0
 40
2.6265000000000001
 50
180.0
 51
0.0
  0
ARC
  5
381
  8
DETAIL
  6
CONTINUOUS
 62
     5
 10
-173.31899999999999
 20
-124.912391
 30
0.0
 40
2.6265000000000001
 50
0.0
 51
180.0
  0
ARC
  5
382
  8
DETAIL
  6
CONTINUOUS
 62
     5
 10
-173.31899999999999
 20
-90.242591000000004
 30
0.0
 40
2.6265000000000001
 50
0.0
 51
180.0
  0
LINE
  5
383
  8
DETAIL
  6
CONTINUOUS
 62
     5
 10
-123.41549999999999
 20
-124.912391
 30
0.0
 11
-123.41549999999999
 21
-151.177391
 31
0.0
  0
LINE
  5
384
  8
DETAIL
  6
CONTINUOUS
 62
     5
 10
-123.41549999999999
 20
-90.242591000000004
 30
0.0
 11
-123.41549999999999
 21
-116.50759100000001
 31
0.0
  0
LINE
  5
385
  8
DETAIL
  6
CONTINUOUS
 62
     5
 10
-65.632499999999993
 20
-124.912391
 30
0.0
 11
-65.632499999999993
 21
-151.177391
 31
0.0
  0
LINE
  5
386
  8
DETAIL
  6
CONTINUOUS
 62
     5
 10
-65.632499999999993
 20
-90.242591000000004
 30
0.0
 11
-65.632499999999993
 21
-116.50759100000001
 31
0.0
  0
ARC
  5
387
  8
DETAIL
  6
CONTINUOUS
 62
     5
 10
-78.765000000000001
 20
-90.242591000000004
 30
0.0
 40
2.6265000000000001
 50
0.0
 51
180.0
  0
LINE
  5
388
  8
DETAIL
  6
CONTINUOUS
 62
     5
 10
-70.885499999999993
 20
-124.912391
 30
0.0
 11
-70.885499999999993
 21
-151.177391
 31
0.0
  0
ARC
  5
389
  8
DETAIL
  6
CONTINUOUS
 62
     5
 10
-78.765000000000001
 20
-124.912391
 30
0.0
 40
2.6265000000000001
 50
0.0
 51
180.0
  0
ARC
  5
38A
  8
DETAIL
  6
CONTINUOUS
 62
     5
 10
-78.765000000000001
 20
-151.177391
 30
0.0
 40
2.6265000000000001
 50
180.0
 51
0.0
  0
LINE
  5
38B
  8
DETAIL
  6
CONTINUOUS
 62
     5
 10
-81.391499999999979
 20
-124.912391
 30
0.0
 11
-81.391499999999979
 21
-151.177391
 31
0.0
  0
LINE
  5
38C
  8
DETAIL
  6
CONTINUOUS
 62
     5
 10
-76.138499999999993
 20
-124.912391
 30
0.0
 11
-76.138499999999993
 21
-151.177391
 31
0.0
  0
ARC
  5
38D
  8
DETAIL
  6
CONTINUOUS
 62
     5
 10
-78.765000000000001
 20
-116.50759100000001
 30
0.0
 40
2.6265000000000001
 50
180.0
 51
0.0
  0
LINE
  5
38E
  8
DETAIL
  6
CONTINUOUS
 62
     5
 10
-70.885499999999993
 20
-90.242591000000004
 30
0.0
 11
-70.885499999999993
 21
-116.50759100000001
 31
0.0
  0
LINE
  5
38F
  8
DETAIL
  6
CONTINUOUS
 62
     5
 10
-81.391499999999979
 20
-90.242591000000004
 30
0.0
 11
-81.391499999999979
 21
-116.50759100000001
 31
0.0
  0
LINE
  5
390
  8
DETAIL
  6
CONTINUOUS
 62
     5
 10
-76.138499999999993
 20
-90.242591000000004
 30
0.0
 11
-76.138499999999993
 21
-116.50759100000001
 31
0.0
  0
LINE
  5
391
  8
DETAIL
  6
CONTINUOUS
 62
     5
 10
-86.644499999999994
 20
-90.242591000000004
 30
0.0
 11
-86.644499999999994
 21
-116.50759100000001
 31
0.0
  0
LINE
  5
392
  8
DETAIL
  6
CONTINUOUS
 62
     5
 10
-91.897499999999994
 20
-90.242591000000004
 30
0.0
 11
-91.897499999999994
 21
-116.50759100000001
 31
0.0
  0
ARC
  5
393
  8
DETAIL
  6
CONTINUOUS
 62
     5
 10
-89.271000000000015
 20
-116.50759100000001
 30
0.0
 40
2.6265000000000001
 50
180.0
 51
0.0
  0
LINE
  5
394
  8
DETAIL
  6
CONTINUOUS
 62
     5
 10
-86.644499999999994
 20
-124.912391
 30
0.0
 11
-86.644499999999994
 21
-151.177391
 31
0.0
  0
LINE
  5
395
  8
DETAIL
  6
CONTINUOUS
 62
     5
 10
-91.897499999999994
 20
-124.912391
 30
0.0
 11
-91.897499999999994
 21
-151.177391
 31
0.0
  0
ARC
  5
396
  8
DETAIL
  6
CONTINUOUS
 62
     5
 10
-89.271000000000015
 20
-151.177391
 30
0.0
 40
2.6265000000000001
 50
180.0
 51
0.0
  0
ARC
  5
397
  8
DETAIL
  6
CONTINUOUS
 62
     5
 10
-89.271000000000015
 20
-124.912391
 30
0.0
 40
2.6265000000000001
 50
0.0
 51
180.0
  0
ARC
  5
398
  8
DETAIL
  6
CONTINUOUS
 62
     5
 10
-89.271000000000015
 20
-90.242591000000004
 30
0.0
 40
2.6265000000000001
 50
0.0
 51
180.0
  0
ARC
  5
399
  8
DETAIL
  6
CONTINUOUS
 62
     5
 10
-99.777000000000001
 20
-124.912391
 30
0.0
 40
2.6265000000000001
 50
0.0
 51
180.0
  0
ARC
  5
39A
  8
DETAIL
  6
CONTINUOUS
 62
     5
 10
-99.777000000000001
 20
-151.177391
 30
0.0
 40
2.6265000000000001
 50
180.0
 51
0.0
  0
ARC
  5
39B
  8
DETAIL
  6
CONTINUOUS
 62
     5
 10
-99.777000000000001
 20
-116.50759100000001
 30
0.0
 40
2.6265000000000001
 50
180.0
 51
0.0
  0
ARC
  5
39C
  8
DETAIL
  6
CONTINUOUS
 62
     5
 10
-99.777000000000001
 20
-90.242591000000004
 30
0.0
 40
2.6265000000000001
 50
0.0
 51
180.0
  0
LINE
  5
39D
  8
DETAIL
  6
CONTINUOUS
 62
     5
 10
-118.16249999999999
 20
-124.912391
 30
0.0
 11
-118.16249999999999
 21
-151.177391
 31
0.0
  0
LINE
  5
39E
  8
DETAIL
  6
CONTINUOUS
 62
     5
 10
-118.16249999999999
 20
-90.242591000000004
 30
0.0
 11
-118.16249999999999
 21
-116.50759100000001
 31
0.0
  0
LINE
  5
39F
  8
DETAIL
  6
CONTINUOUS
 62
     5
 10
-107.65649999999999
 20
-90.242591000000004
 30
0.0
 11
-107.65649999999999
 21
-116.50759100000001
 31
0.0
  0
LINE
  5
3A0
  8
DETAIL
  6
CONTINUOUS
 62
     5
 10
-112.90949999999999
 20
-90.242591000000004
 30
0.0
 11
-112.90949999999999
 21
-116.50759100000001
 31
0.0
  0
LINE
  5
3A1
  8
DETAIL
  6
CONTINUOUS
 62
     5
 10
-102.40349999999999
 20
-90.242591000000004
 30
0.0
 11
-102.40349999999999
 21
-116.50759100000001
 31
0.0
  0
ARC
  5
3A2
  8
DETAIL
  6
CONTINUOUS
 62
     5
 10
-110.283
 20
-116.50759100000001
 30
0.0
 40
2.6265000000000001
 50
180.0
 51
0.0
  0
LINE
  5
3A3
  8
DETAIL
  6
CONTINUOUS
 62
     5
 10
-107.65649999999999
 20
-124.912391
 30
0.0
 11
-107.65649999999999
 21
-151.177391
 31
0.0
  0
LINE
  5
3A4
  8
DETAIL
  6
CONTINUOUS
 62
     5
 10
-112.90949999999999
 20
-124.912391
 30
0.0
 11
-112.90949999999999
 21
-151.177391
 31
0.0
  0
ARC
  5
3A5
  8
DETAIL
  6
CONTINUOUS
 62
     5
 10
-110.283
 20
-151.177391
 30
0.0
 40
2.6265000000000001
 50
180.0
 51
0.0
  0
ARC
  5
3A6
  8
DETAIL
  6
CONTINUOUS
 62
     5
 10
-110.283
 20
-124.912391
 30
0.0
 40
2.6265000000000001
 50
0.0
 51
180.0
  0
LINE
  5
3A7
  8
DETAIL
  6
CONTINUOUS
 62
     5
 10
-102.40349999999999
 20
-124.912391
 30
0.0
 11
-102.40349999999999
 21
-151.177391
 31
0.0
  0
ARC
  5
3A8
  8
DETAIL
  6
CONTINUOUS
 62
     5
 10
-110.283
 20
-90.242591000000004
 30
0.0
 40
2.6265000000000001
 50
0.0
 51
180.0
  0
LINE
  5
3A9
  8
DETAIL
  6
CONTINUOUS
 62
     5
 10
-97.150499999999994
 20
-90.242591000000004
 30
0.0
 11
-97.150499999999994
 21
-116.50759100000001
 31
0.0
  0
LINE
  5
3AA
  8
DETAIL
  6
CONTINUOUS
 62
     5
 10
-97.150499999999994
 20
-124.912391
 30
0.0
 11
-97.150499999999994
 21
-151.177391
 31
0.0
  0
ARC
  5
3AB
  8
DETAIL
  6
CONTINUOUS
 62
     5
 10
-68.259
 20
-90.242591000000004
 30
0.0
 40
2.6265000000000001
 50
0.0
 51
180.0
  0
ARC
  5
3AC
  8
DETAIL
  6
CONTINUOUS
 62
     5
 10
-68.259
 20
-116.50759100000001
 30
0.0
 40
2.6265000000000001
 50
180.0
 51
0.0
  0
ARC
  5
3AD
  8
DETAIL
  6
CONTINUOUS
 62
     5
 10
-68.259
 20
-151.177391
 30
0.0
 40
2.6265000000000001
 50
180.0
 51
0.0
  0
ARC
  5
3AE
  8
DETAIL
  6
CONTINUOUS
 62
     5
 10
-68.259
 20
-124.912391
 30
0.0
 40
2.6265000000000001
 50
0.0
 51
180.0
  0
ARC
  5
3AF
  8
DETAIL
  6
CONTINUOUS
 62
     5
 10
-120.789
 20
-20.902991
 30
0.0
 40
2.6265000000000001
 50
0.0
 51
180.0
  0
ARC
  5
3B0
  8
DETAIL
  6
CONTINUOUS
 62
     5
 10
-120.789
 20
-12.498191
 30
0.0
 40
2.6265000000000001
 50
180.0
 51
0.0
  0
ARC
  5
3B1
  8
DETAIL
  6
CONTINUOUS
 62
     5
 10
-120.789
 20
-47.167991000000001
 30
0.0
 40
2.6265000000000001
 50
180.0
 51
0.0
  0
ARC
  5
3B2
  8
DETAIL
  6
CONTINUOUS
 62
     5
 10
-120.789
 20
-55.572791000000002
 30
0.0
 40
2.6265000000000001
 50
0.0
 51
180.0
  0
LINE
  5
3B3
  8
DETAIL
  6
CONTINUOUS
 62
     5
 10
-149.68049999999999
 20
-55.572791000000002
 30
0.0
 11
-149.68049999999999
 21
-81.837790999999996
 31
0.0
  0
LINE
  5
3B4
  8
DETAIL
  6
CONTINUOUS
 62
     5
 10
-149.68049999999999
 20
-20.902991
 30
0.0
 11
-149.68049999999999
 21
-47.167991000000001
 31
0.0
  0
LINE
  5
3B5
  8
DETAIL
  6
CONTINUOUS
 62
     5
 10
-154.93350000000001
 20
-55.572791000000002
 30
0.0
 11
-154.93350000000001
 21
-81.837790999999996
 31
0.0
  0
LINE
  5
3B6
  8
DETAIL
  6
CONTINUOUS
 62
     5
 10
-160.1865
 20
-55.572791000000002
 30
0.0
 11
-160.1865
 21
-81.837790999999996
 31
0.0
  0
LINE
  5
3B7
  8
DETAIL
  6
CONTINUOUS
 62
     5
 10
-165.43950000000001
 20
-55.572791000000002
 30
0.0
 11
-165.43950000000001
 21
-81.837790999999996
 31
0.0
  0
ARC
  5
3B8
  8
DETAIL
  6
CONTINUOUS
 62
     5
 10
-162.81299999999999
 20
-20.902991
 30
0.0
 40
2.6265000000000001
 50
0.0
 51
180.0
  0
ARC
  5
3B9
  8
DETAIL
  6
CONTINUOUS
 62
     5
 10
-162.81299999999999
 20
-12.498191
 30
0.0
 40
2.6265000000000001
 50
180.0
 51
0.0
  0
ARC
  5
3BA
  8
DETAIL
  6
CONTINUOUS
 62
     5
 10
-162.81299999999999
 20
-47.167991000000001
 30
0.0
 40
2.6265000000000001
 50
180.0
 51
0.0
  0
ARC
  5
3BB
  8
DETAIL
  6
CONTINUOUS
 62
     5
 10
-162.81299999999999
 20
-55.572791000000002
 30
0.0
 40
2.6265000000000001
 50
0.0
 51
180.0
  0
LINE
  5
3BC
  8
DETAIL
  6
CONTINUOUS
 62
     5
 10
-154.93350000000001
 20
-20.902991
 30
0.0
 11
-154.93350000000001
 21
-47.167991000000001
 31
0.0
  0
LINE
  5
3BD
  8
DETAIL
  6
CONTINUOUS
 62
     5
 10
-165.43950000000001
 20
-20.902991
 30
0.0
 11
-165.43950000000001
 21
-47.167991000000001
 31
0.0
  0
LINE
  5
3BE
  8
DETAIL
  6
CONTINUOUS
 62
     5
 10
-160.1865
 20
-20.902991
 30
0.0
 11
-160.1865
 21
-47.167991000000001
 31
0.0
  0
LINE
  5
3BF
  8
DETAIL
  6
CONTINUOUS
 62
     5
 10
-170.6925
 20
-20.902991
 30
0.0
 11
-170.6925
 21
-47.167991000000001
 31
0.0
  0
LINE
  5
3C0
  8
DETAIL
  6
CONTINUOUS
 62
     5
 10
-170.6925
 20
-55.572791000000002
 30
0.0
 11
-170.6925
 21
-81.837790999999996
 31
0.0
  0
ARC
  5
3C1
  8
DETAIL
  6
CONTINUOUS
 62
     5
 10
-152.30699999999999
 20
-12.498191
 30
0.0
 40
2.6265000000000001
 50
180.0
 51
0.0
  0
ARC
  5
3C2
  8
DETAIL
  6
CONTINUOUS
 62
     5
 10
-152.30699999999999
 20
-20.902991
 30
0.0
 40
2.6265000000000001
 50
0.0
 51
180.0
  0
ARC
  5
3C3
  8
DETAIL
  6
CONTINUOUS
 62
     5
 10
-152.30699999999999
 20
-55.572791000000002
 30
0.0
 40
2.6265000000000001
 50
0.0
 51
180.0
  0
ARC
  5
3C4
  8
DETAIL
  6
CONTINUOUS
 62
     5
 10
-152.30699999999999
 20
-47.167991000000001
 30
0.0
 40
2.6265000000000001
 50
180.0
 51
0.0
  0
LINE
  5
3C5
  8
DETAIL
  6
CONTINUOUS
 62
     5
 10
-139.17449999999999
 20
-55.572791000000002
 30
0.0
 11
-139.17449999999999
 21
-81.837790999999996
 31
0.0
  0
LINE
  5
3C6
  8
DETAIL
  6
CONTINUOUS
 62
     5
 10
-144.42750000000001
 20
-55.572791000000002
 30
0.0
 11
-144.42750000000001
 21
-81.837790999999996
 31
0.0
  0
ARC
  5
3C7
  8
DETAIL
  6
CONTINUOUS
 62
     5
 10
-141.80099999999999
 20
-20.902991
 30
0.0
 40
2.6265000000000001
 50
0.0
 51
180.0
  0
ARC
  5
3C8
  8
DETAIL
  6
CONTINUOUS
 62
     5
 10
-141.80099999999999
 20
-12.498191
 30
0.0
 40
2.6265000000000001
 50
180.0
 51
0.0
  0
ARC
  5
3C9
  8
DETAIL
  6
CONTINUOUS
 62
     5
 10
-141.80099999999999
 20
-47.167991000000001
 30
0.0
 40
2.6265000000000001
 50
180.0
 51
0.0
  0
ARC
  5
3CA
  8
DETAIL
  6
CONTINUOUS
 62
     5
 10
-141.80099999999999
 20
-55.572791000000002
 30
0.0
 40
2.6265000000000001
 50
0.0
 51
180.0
  0
LINE
  5
3CB
  8
DETAIL
  6
CONTINUOUS
 62
     5
 10
-144.42750000000001
 20
-20.902991
 30
0.0
 11
-144.42750000000001
 21
-47.167991000000001
 31
0.0
  0
LINE
  5
3CC
  8
DETAIL
  6
CONTINUOUS
 62
     5
 10
-139.17449999999999
 20
-20.902991
 30
0.0
 11
-139.17449999999999
 21
-47.167991000000001
 31
0.0
  0
LINE
  5
3CD
  8
DETAIL
  6
CONTINUOUS
 62
     5
 10
-128.66849999999999
 20
-20.902991
 30
0.0
 11
-128.66849999999999
 21
-47.167991000000001
 31
0.0
  0
LINE
  5
3CE
  8
DETAIL
  6
CONTINUOUS
 62
     5
 10
-133.92150000000001
 20
-20.902991
 30
0.0
 11
-133.92150000000001
 21
-47.167991000000001
 31
0.0
  0
ARC
  5
3CF
  8
DETAIL
  6
CONTINUOUS
 62
     5
 10
-131.29499999999999
 20
-55.572791000000002
 30
0.0
 40
2.6265000000000001
 50
0.0
 51
180.0
  0
ARC
  5
3D0
  8
DETAIL
  6
CONTINUOUS
 62
     5
 10
-131.29499999999999
 20
-47.167991000000001
 30
0.0
 40
2.6265000000000001
 50
180.0
 51
0.0
  0
ARC
  5
3D1
  8
DETAIL
  6
CONTINUOUS
 62
     5
 10
-131.29499999999999
 20
-12.498191
 30
0.0
 40
2.6265000000000001
 50
180.0
 51
0.0
  0
ARC
  5
3D2
  8
DETAIL
  6
CONTINUOUS
 62
     5
 10
-131.29499999999999
 20
-20.902991
 30
0.0
 40
2.6265000000000001
 50
0.0
 51
180.0
  0
LINE
  5
3D3
  8
DETAIL
  6
CONTINUOUS
 62
     5
 10
-133.92150000000001
 20
-55.572791000000002
 30
0.0
 11
-133.92150000000001
 21
-81.837790999999996
 31
0.0
  0
LINE
  5
3D4
  8
DETAIL
  6
CONTINUOUS
 62
     5
 10
-128.66849999999999
 20
-55.572791000000002
 30
0.0
 11
-128.66849999999999
 21
-81.837790999999996
 31
0.0
  0
LINE
  5
3D5
  8
DETAIL
  6
CONTINUOUS
 62
     5
 10
-175.94550000000001
 20
-20.902991
 30
0.0
 11
-175.94550000000001
 21
-47.167991000000001
 31
0.0
  0
LINE
  5
3D6
  8
DETAIL
  6
CONTINUOUS
 62
     5
 10
-175.94550000000001
 20
-55.572791000000002
 30
0.0
 11
-175.94550000000001
 21
-81.837790999999996
 31
0.0
  0
ARC
  5
3D7
  8
DETAIL
  6
CONTINUOUS
 62
     5
 10
-173.31899999999999
 20
-55.572791000000002
 30
0.0
 40
2.6265000000000001
 50
0.0
 51
180.0
  0
ARC
  5
3D8
  8
DETAIL
  6
CONTINUOUS
 62
     5
 10
-173.31899999999999
 20
-47.167991000000001
 30
0.0
 40
2.6265000000000001
 50
180.0
 51
0.0
  0
ARC
  5
3D9
  8
DETAIL
  6
CONTINUOUS
 62
     5
 10
-173.31899999999999
 20
-12.498191
 30
0.0
 40
2.6265000000000001
 50
180.0
 51
0.0
  0
ARC
  5
3DA
  8
DETAIL
  6
CONTINUOUS
 62
     5
 10
-173.31899999999999
 20
-20.902991
 30
0.0
 40
2.6265000000000001
 50
0.0
 51
180.0
  0
LINE
  5
3DB
  8
DETAIL
  6
CONTINUOUS
 62
     5
 10
-123.41549999999999
 20
-55.572791000000002
 30
0.0
 11
-123.41549999999999
 21
-81.837790999999996
 31
0.0
  0
LINE
  5
3DC
  8
DETAIL
  6
CONTINUOUS
 62
     5
 10
-123.41549999999999
 20
-20.902991
 30
0.0
 11
-123.41549999999999
 21
-47.167991000000001
 31
0.0
  0
LINE
  5
3DD
  8
DETAIL
  6
CONTINUOUS
 62
     5
 10
-65.632499999999993
 20
-55.572791000000002
 30
0.0
 11
-65.632499999999993
 21
-81.837790999999996
 31
0.0
  0
LINE
  5
3DE
  8
DETAIL
  6
CONTINUOUS
 62
     5
 10
-65.632499999999993
 20
-20.902991
 30
0.0
 11
-65.632499999999993
 21
-47.167991000000001
 31
0.0
  0
LINE
  5
3DF
  8
DETAIL
  6
CONTINUOUS
 62
     5
 10
-70.885499999999993
 20
-55.572791000000002
 30
0.0
 11
-70.885499999999993
 21
-81.837790999999996
 31
0.0
  0
LINE
  5
3E0
  8
DETAIL
  6
CONTINUOUS
 62
     5
 10
-76.138499999999993
 20
-55.572791000000002
 30
0.0
 11
-76.138499999999993
 21
-81.837790999999996
 31
0.0
  0
LINE
  5
3E1
  8
DETAIL
  6
CONTINUOUS
 62
     5
 10
-81.391499999999979
 20
-55.572791000000002
 30
0.0
 11
-81.391499999999979
 21
-81.837790999999996
 31
0.0
  0
ARC
  5
3E2
  8
DETAIL
  6
CONTINUOUS
 62
     5
 10
-78.765000000000001
 20
-20.902991
 30
0.0
 40
2.6265000000000001
 50
0.0
 51
180.0
  0
ARC
  5
3E3
  8
DETAIL
  6
CONTINUOUS
 62
     5
 10
-78.765000000000001
 20
-12.498191
 30
0.0
 40
2.6265000000000001
 50
180.0
 51
0.0
  0
ARC
  5
3E4
  8
DETAIL
  6
CONTINUOUS
 62
     5
 10
-78.765000000000001
 20
-47.167991000000001
 30
0.0
 40
2.6265000000000001
 50
180.0
 51
0.0
  0
ARC
  5
3E5
  8
DETAIL
  6
CONTINUOUS
 62
     5
 10
-78.765000000000001
 20
-55.572791000000002
 30
0.0
 40
2.6265000000000001
 50
0.0
 51
180.0
  0
LINE
  5
3E6
  8
DETAIL
  6
CONTINUOUS
 62
     5
 10
-70.885499999999993
 20
-20.902991
 30
0.0
 11
-70.885499999999993
 21
-47.167991000000001
 31
0.0
  0
LINE
  5
3E7
  8
DETAIL
  6
CONTINUOUS
 62
     5
 10
-81.391499999999979
 20
-20.902991
 30
0.0
 11
-81.391499999999979
 21
-47.167991000000001
 31
0.0
  0
LINE
  5
3E8
  8
DETAIL
  6
CONTINUOUS
 62
     5
 10
-76.138499999999993
 20
-20.902991
 30
0.0
 11
-76.138499999999993
 21
-47.167991000000001
 31
0.0
  0
LINE
  5
3E9
  8
DETAIL
  6
CONTINUOUS
 62
     5
 10
-86.644499999999994
 20
-20.902991
 30
0.0
 11
-86.644499999999994
 21
-47.167991000000001
 31
0.0
  0
LINE
  5
3EA
  8
DETAIL
  6
CONTINUOUS
 62
     5
 10
-91.897499999999994
 20
-20.902991
 30
0.0
 11
-91.897499999999994
 21
-47.167991000000001
 31
0.0
  0
ARC
  5
3EB
  8
DETAIL
  6
CONTINUOUS
 62
     5
 10
-89.271000000000015
 20
-55.572791000000002
 30
0.0
 40
2.6265000000000001
 50
0.0
 51
180.0
  0
ARC
  5
3EC
  8
DETAIL
  6
CONTINUOUS
 62
     5
 10
-89.271000000000015
 20
-47.167991000000001
 30
0.0
 40
2.6265000000000001
 50
180.0
 51
0.0
  0
ARC
  5
3ED
  8
DETAIL
  6
CONTINUOUS
 62
     5
 10
-89.271000000000015
 20
-12.498191
 30
0.0
 40
2.6265000000000001
 50
180.0
 51
0.0
  0
ARC
  5
3EE
  8
DETAIL
  6
CONTINUOUS
 62
     5
 10
-89.271000000000015
 20
-20.902991
 30
0.0
 40
2.6265000000000001
 50
0.0
 51
180.0
  0
LINE
  5
3EF
  8
DETAIL
  6
CONTINUOUS
 62
     5
 10
-91.897499999999994
 20
-55.572791000000002
 30
0.0
 11
-91.897499999999994
 21
-81.837790999999996
 31
0.0
  0
LINE
  5
3F0
  8
DETAIL
  6
CONTINUOUS
 62
     5
 10
-86.644499999999994
 20
-55.572791000000002
 30
0.0
 11
-86.644499999999994
 21
-81.837790999999996
 31
0.0
  0
ARC
  5
3F1
  8
DETAIL
  6
CONTINUOUS
 62
     5
 10
-99.777000000000001
 20
-47.167991000000001
 30
0.0
 40
2.6265000000000001
 50
180.0
 51
0.0
  0
ARC
  5
3F2
  8
DETAIL
  6
CONTINUOUS
 62
     5
 10
-99.777000000000001
 20
-55.572791000000002
 30
0.0
 40
2.6265000000000001
 50
0.0
 51
180.0
  0
ARC
  5
3F3
  8
DETAIL
  6
CONTINUOUS
 62
     5
 10
-99.777000000000001
 20
-20.902991
 30
0.0
 40
2.6265000000000001
 50
0.0
 51
180.0
  0
ARC
  5
3F4
  8
DETAIL
  6
CONTINUOUS
 62
     5
 10
-99.777000000000001
 20
-12.498191
 30
0.0
 40
2.6265000000000001
 50
180.0
 51
0.0
  0
LINE
  5
3F5
  8
DETAIL
  6
CONTINUOUS
 62
     5
 10
-118.16249999999999
 20
-55.572791000000002
 30
0.0
 11
-118.16249999999999
 21
-81.837790999999996
 31
0.0
  0
LINE
  5
3F6
  8
DETAIL
  6
CONTINUOUS
 62
     5
 10
-118.16249999999999
 20
-20.902991
 30
0.0
 11
-118.16249999999999
 21
-47.167991000000001
 31
0.0
  0
LINE
  5
3F7
  8
DETAIL
  6
CONTINUOUS
 62
     5
 10
-107.65649999999999
 20
-20.902991
 30
0.0
 11
-107.65649999999999
 21
-47.167991000000001
 31
0.0
  0
LINE
  5
3F8
  8
DETAIL
  6
CONTINUOUS
 62
     5
 10
-112.90949999999999
 20
-20.902991
 30
0.0
 11
-112.90949999999999
 21
-47.167991000000001
 31
0.0
  0
LINE
  5
3F9
  8
DETAIL
  6
CONTINUOUS
 62
     5
 10
-102.40349999999999
 20
-20.902991
 30
0.0
 11
-102.40349999999999
 21
-47.167991000000001
 31
0.0
  0
ARC
  5
3FA
  8
DETAIL
  6
CONTINUOUS
 62
     5
 10
-110.283
 20
-55.572791000000002
 30
0.0
 40
2.6265000000000001
 50
0.0
 51
180.0
  0
ARC
  5
3FB
  8
DETAIL
  6
CONTINUOUS
 62
     5
 10
-110.283
 20
-47.167991000000001
 30
0.0
 40
2.6265000000000001
 50
180.0
 51
0.0
  0
ARC
  5
3FC
  8
DETAIL
  6
CONTINUOUS
 62
     5
 10
-110.283
 20
-12.498191
 30
0.0
 40
2.6265000000000001
 50
180.0
 51
0.0
  0
ARC
  5
3FD
  8
DETAIL
  6
CONTINUOUS
 62
     5
 10
-110.283
 20
-20.902991
 30
0.0
 40
2.6265000000000001
 50
0.0
 51
180.0
  0
LINE
  5
3FE
  8
DETAIL
  6
CONTINUOUS
 62
     5
 10
-112.90949999999999
 20
-55.572791000000002
 30
0.0
 11
-112.90949999999999
 21
-81.837790999999996
 31
0.0
  0
LINE
  5
3FF
  8
DETAIL
  6
CONTINUOUS
 62
     5
 10
-107.65649999999999
 20
-55.572791000000002
 30
0.0
 11
-107.65649999999999
 21
-81.837790999999996
 31
0.0
  0
LINE
  5
400
  8
DETAIL
  6
CONTINUOUS
 62
     5
 10
-102.40349999999999
 20
-55.572791000000002
 30
0.0
 11
-102.40349999999999
 21
-81.837790999999996
 31
0.0
  0
LINE
  5
401
  8
DETAIL
  6
CONTINUOUS
 62
     5
 10
-97.150499999999994
 20
-20.902991
 30
0.0
 11
-97.150499999999994
 21
-47.167991000000001
 31
0.0
  0
LINE
  5
402
  8
DETAIL
  6
CONTINUOUS
 62
     5
 10
-97.150499999999994
 20
-55.572791000000002
 30
0.0
 11
-97.150499999999994
 21
-81.837790999999996
 31
0.0
  0
ARC
  5
403
  8
DETAIL
  6
CONTINUOUS
 62
     5
 10
-68.259
 20
-12.498191
 30
0.0
 40
2.6265000000000001
 50
180.0
 51
0.0
  0
ARC
  5
404
  8
DETAIL
  6
CONTINUOUS
 62
     5
 10
-68.259
 20
-20.902991
 30
0.0
 40
2.6265000000000001
 50
0.0
 51
180.0
  0
ARC
  5
405
  8
DETAIL
  6
CONTINUOUS
 62
     5
 10
-68.259
 20
-55.572791000000002
 30
0.0
 40
2.6265000000000001
 50
0.0
 51
180.0
  0
ARC
  5
406
  8
DETAIL
  6
CONTINUOUS
 62
     5
 10
-68.259
 20
-47.167991000000001
 30
0.0
 40
2.6265000000000001
 50
180.0
 51
0.0
  0
ARC
  5
407
  8
DETAIL
  6
CONTINUOUS
 62
     5
 10
-36.741
 20
-81.837790999999996
 30
0.0
 40
2.6265000000000001
 50
180.0
 51
0.0
  0
ARC
  5
408
  8
DETAIL
  6
CONTINUOUS
 62
     5
 10
-47.247
 20
-81.837790999999996
 30
0.0
 40
2.6265000000000001
 50
180.0
 51
0.0
  0
ARC
  5
409
  8
DETAIL
  6
CONTINUOUS
 62
     5
 10
-57.753
 20
-81.837790999999996
 30
0.0
 40
2.6265000000000001
 50
180.0
 51
0.0
  0
ARC
  5
40A
  8
DETAIL
  6
CONTINUOUS
 62
     5
 10
-26.234999999999999
 20
-81.837790999999996
 30
0.0
 40
2.6265000000000001
 50
180.0
 51
0.0
  0
ARC
  5
40B
  8
DETAIL
  6
CONTINUOUS
 62
     5
 10
-15.728999999999999
 20
-81.837790999999996
 30
0.0
 40
2.6265000000000001
 50
180.0
 51
0.0
  0
ARC
  5
40C
  8
DETAIL
  6
CONTINUOUS
 62
     5
 10
-5.222999999999999
 20
-81.837790999999996
 30
0.0
 40
2.6265000000000001
 50
180.0
 51
0.0
  0
ARC
  5
40D
  8
DETAIL
  6
CONTINUOUS
 62
     5
 10
-5.222999999999999
 20
-124.912391
 30
0.0
 40
2.6265000000000001
 50
0.0
 51
180.0
  0
ARC
  5
40E
  8
DETAIL
  6
CONTINUOUS
 62
     5
 10
-5.222999999999999
 20
-151.177391
 30
0.0
 40
2.6265000000000001
 50
180.0
 51
0.0
  0
ARC
  5
40F
  8
DETAIL
  6
CONTINUOUS
 62
     5
 10
-5.222999999999999
 20
-116.50759100000001
 30
0.0
 40
2.6265000000000001
 50
180.0
 51
0.0
  0
ARC
  5
410
  8
DETAIL
  6
CONTINUOUS
 62
     5
 10
-5.222999999999999
 20
-90.242591000000004
 30
0.0
 40
2.6265000000000001
 50
0.0
 51
180.0
  0
LINE
  5
411
  8
DETAIL
  6
CONTINUOUS
 62
     5
 10
-34.1145
 20
-124.912391
 30
0.0
 11
-34.1145
 21
-151.177391
 31
0.0
  0
LINE
  5
412
  8
DETAIL
  6
CONTINUOUS
 62
     5
 10
-34.1145
 20
-90.242591000000004
 30
0.0
 11
-34.1145
 21
-116.50759100000001
 31
0.0
  0
ARC
  5
413
  8
DETAIL
  6
CONTINUOUS
 62
     5
 10
-47.247
 20
-90.242591000000004
 30
0.0
 40
2.6265000000000001
 50
0.0
 51
180.0
  0
LINE
  5
414
  8
DETAIL
  6
CONTINUOUS
 62
     5
 10
-39.3675
 20
-124.912391
 30
0.0
 11
-39.3675
 21
-151.177391
 31
0.0
  0
ARC
  5
415
  8
DETAIL
  6
CONTINUOUS
 62
     5
 10
-47.247
 20
-124.912391
 30
0.0
 40
2.6265000000000001
 50
0.0
 51
180.0
  0
ARC
  5
416
  8
DETAIL
  6
CONTINUOUS
 62
     5
 10
-47.247
 20
-151.177391
 30
0.0
 40
2.6265000000000001
 50
180.0
 51
0.0
  0
LINE
  5
417
  8
DETAIL
  6
CONTINUOUS
 62
     5
 10
-49.8735
 20
-124.912391
 30
0.0
 11
-49.8735
 21
-151.177391
 31
0.0
  0
LINE
  5
418
  8
DETAIL
  6
CONTINUOUS
 62
     5
 10
-44.6205
 20
-124.912391
 30
0.0
 11
-44.6205
 21
-151.177391
 31
0.0
  0
ARC
  5
419
  8
DETAIL
  6
CONTINUOUS
 62
     5
 10
-47.247
 20
-116.50759100000001
 30
0.0
 40
2.6265000000000001
 50
180.0
 51
0.0
  0
LINE
  5
41A
  8
DETAIL
  6
CONTINUOUS
 62
     5
 10
-39.3675
 20
-90.242591000000004
 30
0.0
 11
-39.3675
 21
-116.50759100000001
 31
0.0
  0
LINE
  5
41B
  8
DETAIL
  6
CONTINUOUS
 62
     5
 10
-49.8735
 20
-90.242591000000004
 30
0.0
 11
-49.8735
 21
-116.50759100000001
 31
0.0
  0
LINE
  5
41C
  8
DETAIL
  6
CONTINUOUS
 62
     5
 10
-44.6205
 20
-90.242591000000004
 30
0.0
 11
-44.6205
 21
-116.50759100000001
 31
0.0
  0
LINE
  5
41D
  8
DETAIL
  6
CONTINUOUS
 62
     5
 10
-55.1265
 20
-90.242591000000004
 30
0.0
 11
-55.1265
 21
-116.50759100000001
 31
0.0
  0
LINE
  5
41E
  8
DETAIL
  6
CONTINUOUS
 62
     5
 10
-60.3795
 20
-90.242591000000004
 30
0.0
 11
-60.3795
 21
-116.50759100000001
 31
0.0
  0
ARC
  5
41F
  8
DETAIL
  6
CONTINUOUS
 62
     5
 10
-57.753
 20
-116.50759100000001
 30
0.0
 40
2.6265000000000001
 50
180.0
 51
0.0
  0
LINE
  5
420
  8
DETAIL
  6
CONTINUOUS
 62
     5
 10
-55.1265
 20
-124.912391
 30
0.0
 11
-55.1265
 21
-151.177391
 31
0.0
  0
LINE
  5
421
  8
DETAIL
  6
CONTINUOUS
 62
     5
 10
-60.3795
 20
-124.912391
 30
0.0
 11
-60.3795
 21
-151.177391
 31
0.0
  0
ARC
  5
422
  8
DETAIL
  6
CONTINUOUS
 62
     5
 10
-57.753
 20
-151.177391
 30
0.0
 40
2.6265000000000001
 50
180.0
 51
0.0
  0
ARC
  5
423
  8
DETAIL
  6
CONTINUOUS
 62
     5
 10
-57.753
 20
-124.912391
 30
0.0
 40
2.6265000000000001
 50
0.0
 51
180.0
  0
ARC
  5
424
  8
DETAIL
  6
CONTINUOUS
 62
     5
 10
-57.753
 20
-90.242591000000004
 30
0.0
 40
2.6265000000000001
 50
0.0
 51
180.0
  0
ARC
  5
425
  8
DETAIL
  6
CONTINUOUS
 62
     5
 10
-36.741
 20
-90.242591000000004
 30
0.0
 40
2.6265000000000001
 50
0.0
 51
180.0
  0
ARC
  5
426
  8
DETAIL
  6
CONTINUOUS
 62
     5
 10
-36.741
 20
-116.50759100000001
 30
0.0
 40
2.6265000000000001
 50
180.0
 51
0.0
  0
ARC
  5
427
  8
DETAIL
  6
CONTINUOUS
 62
     5
 10
-36.741
 20
-151.177391
 30
0.0
 40
2.6265000000000001
 50
180.0
 51
0.0
  0
ARC
  5
428
  8
DETAIL
  6
CONTINUOUS
 62
     5
 10
-36.741
 20
-124.912391
 30
0.0
 40
2.6265000000000001
 50
0.0
 51
180.0
  0
ARC
  5
429
  8
DETAIL
  6
CONTINUOUS
 62
     5
 10
-26.234999999999999
 20
-90.242591000000004
 30
0.0
 40
2.6265000000000001
 50
0.0
 51
180.0
  0
ARC
  5
42A
  8
DETAIL
  6
CONTINUOUS
 62
     5
 10
-26.234999999999999
 20
-124.912391
 30
0.0
 40
2.6265000000000001
 50
0.0
 51
180.0
  0
ARC
  5
42B
  8
DETAIL
  6
CONTINUOUS
 62
     5
 10
-26.234999999999999
 20
-151.177391
 30
0.0
 40
2.6265000000000001
 50
180.0
 51
0.0
  0
LINE
  5
42C
  8
DETAIL
  6
CONTINUOUS
 62
     5
 10
-28.861499999999999
 20
-124.912391
 30
0.0
 11
-28.861499999999999
 21
-151.177391
 31
0.0
  0
LINE
  5
42D
  8
DETAIL
  6
CONTINUOUS
 62
     5
 10
-23.608499999999999
 20
-124.912391
 30
0.0
 11
-23.608499999999999
 21
-151.177391
 31
0.0
  0
ARC
  5
42E
  8
DETAIL
  6
CONTINUOUS
 62
     5
 10
-26.234999999999999
 20
-116.50759100000001
 30
0.0
 40
2.6265000000000001
 50
180.0
 51
0.0
  0
LINE
  5
42F
  8
DETAIL
  6
CONTINUOUS
 62
     5
 10
-28.861499999999999
 20
-90.242591000000004
 30
0.0
 11
-28.861499999999999
 21
-116.50759100000001
 31
0.0
  0
LINE
  5
430
  8
DETAIL
  6
CONTINUOUS
 62
     5
 10
-23.608499999999999
 20
-90.242591000000004
 30
0.0
 11
-23.608499999999999
 21
-116.50759100000001
 31
0.0
  0
LINE
  5
431
  8
DETAIL
  6
CONTINUOUS
 62
     5
 10
-13.102499999999999
 20
-90.242591000000004
 30
0.0
 11
-13.102499999999999
 21
-116.50759100000001
 31
0.0
  0
LINE
  5
432
  8
DETAIL
  6
CONTINUOUS
 62
     5
 10
-18.355499999999999
 20
-90.242591000000004
 30
0.0
 11
-18.355499999999999
 21
-116.50759100000001
 31
0.0
  0
LINE
  5
433
  8
DETAIL
  6
CONTINUOUS
 62
     5
 10
-7.849499999999999
 20
-90.242591000000004
 30
0.0
 11
-7.849499999999999
 21
-116.50759100000001
 31
0.0
  0
ARC
  5
434
  8
DETAIL
  6
CONTINUOUS
 62
     5
 10
-15.728999999999999
 20
-116.50759100000001
 30
0.0
 40
2.6265000000000001
 50
180.0
 51
0.0
  0
LINE
  5
435
  8
DETAIL
  6
CONTINUOUS
 62
     5
 10
-13.102499999999999
 20
-124.912391
 30
0.0
 11
-13.102499999999999
 21
-151.177391
 31
0.0
  0
LINE
  5
436
  8
DETAIL
  6
CONTINUOUS
 62
     5
 10
-18.355499999999999
 20
-124.912391
 30
0.0
 11
-18.355499999999999
 21
-151.177391
 31
0.0
  0
ARC
  5
437
  8
DETAIL
  6
CONTINUOUS
 62
     5
 10
-15.728999999999999
 20
-151.177391
 30
0.0
 40
2.6265000000000001
 50
180.0
 51
0.0
  0
ARC
  5
438
  8
DETAIL
  6
CONTINUOUS
 62
     5
 10
-15.728999999999999
 20
-124.912391
 30
0.0
 40
2.6265000000000001
 50
0.0
 51
180.0
  0
LINE
  5
439
  8
DETAIL
  6
CONTINUOUS
 62
     5
 10
-7.849499999999999
 20
-124.912391
 30
0.0
 11
-7.849499999999999
 21
-151.177391
 31
0.0
  0
ARC
  5
43A
  8
DETAIL
  6
CONTINUOUS
 62
     5
 10
-15.728999999999999
 20
-90.242591000000004
 30
0.0
 40
2.6265000000000001
 50
0.0
 51
180.0
  0
LINE
  5
43B
  8
DETAIL
  6
CONTINUOUS
 62
     5
 10
-2.5964999999999989
 20
-90.242591000000004
 30
0.0
 11
-2.5964999999999989
 21
-116.50759100000001
 31
0.0
  0
LINE
  5
43C
  8
DETAIL
  6
CONTINUOUS
 62
     5
 10
-2.5964999999999989
 20
-124.912391
 30
0.0
 11
-2.5964999999999989
 21
-151.177391
 31
0.0
  0
ARC
  5
43D
  8
DETAIL
  6
CONTINUOUS
 62
     5
 10
-5.222999999999999
 20
-47.167991000000001
 30
0.0
 40
2.6265000000000001
 50
180.0
 51
0.0
  0
ARC
  5
43E
  8
DETAIL
  6
CONTINUOUS
 62
     5
 10
-5.222999999999999
 20
-55.572791000000002
 30
0.0
 40
2.6265000000000001
 50
0.0
 51
180.0
  0
ARC
  5
43F
  8
DETAIL
  6
CONTINUOUS
 62
     5
 10
-5.222999999999999
 20
-20.902991
 30
0.0
 40
2.6265000000000001
 50
0.0
 51
180.0
  0
ARC
  5
440
  8
DETAIL
  6
CONTINUOUS
 62
     5
 10
-5.222999999999999
 20
-12.498191
 30
0.0
 40
2.6265000000000001
 50
180.0
 51
0.0
  0
LINE
  5
441
  8
DETAIL
  6
CONTINUOUS
 62
     5
 10
-34.1145
 20
-55.572791000000002
 30
0.0
 11
-34.1145
 21
-81.837790999999996
 31
0.0
  0
LINE
  5
442
  8
DETAIL
  6
CONTINUOUS
 62
     5
 10
-34.1145
 20
-20.902991
 30
0.0
 11
-34.1145
 21
-47.167991000000001
 31
0.0
  0
LINE
  5
443
  8
DETAIL
  6
CONTINUOUS
 62
     5
 10
-39.3675
 20
-55.572791000000002
 30
0.0
 11
-39.3675
 21
-81.837790999999996
 31
0.0
  0
LINE
  5
444
  8
DETAIL
  6
CONTINUOUS
 62
     5
 10
-44.6205
 20
-55.572791000000002
 30
0.0
 11
-44.6205
 21
-81.837790999999996
 31
0.0
  0
LINE
  5
445
  8
DETAIL
  6
CONTINUOUS
 62
     5
 10
-49.8735
 20
-55.572791000000002
 30
0.0
 11
-49.8735
 21
-81.837790999999996
 31
0.0
  0
ARC
  5
446
  8
DETAIL
  6
CONTINUOUS
 62
     5
 10
-47.247
 20
-20.902991
 30
0.0
 40
2.6265000000000001
 50
0.0
 51
180.0
  0
ARC
  5
447
  8
DETAIL
  6
CONTINUOUS
 62
     5
 10
-47.247
 20
-12.498191
 30
0.0
 40
2.6265000000000001
 50
180.0
 51
0.0
  0
ARC
  5
448
  8
DETAIL
  6
CONTINUOUS
 62
     5
 10
-47.247
 20
-47.167991000000001
 30
0.0
 40
2.6265000000000001
 50
180.0
 51
0.0
  0
ARC
  5
449
  8
DETAIL
  6
CONTINUOUS
 62
     5
 10
-47.247
 20
-55.572791000000002
 30
0.0
 40
2.6265000000000001
 50
0.0
 51
180.0
  0
LINE
  5
44A
  8
DETAIL
  6
CONTINUOUS
 62
     5
 10
-39.3675
 20
-20.902991
 30
0.0
 11
-39.3675
 21
-47.167991000000001
 31
0.0
  0
LINE
  5
44B
  8
DETAIL
  6
CONTINUOUS
 62
     5
 10
-49.8735
 20
-20.902991
 30
0.0
 11
-49.8735
 21
-47.167991000000001
 31
0.0
  0
LINE
  5
44C
  8
DETAIL
  6
CONTINUOUS
 62
     5
 10
-44.6205
 20
-20.902991
 30
0.0
 11
-44.6205
 21
-47.167991000000001
 31
0.0
  0
LINE
  5
44D
  8
DETAIL
  6
CONTINUOUS
 62
     5
 10
-55.1265
 20
-20.902991
 30
0.0
 11
-55.1265
 21
-47.167991000000001
 31
0.0
  0
LINE
  5
44E
  8
DETAIL
  6
CONTINUOUS
 62
     5
 10
-60.3795
 20
-20.902991
 30
0.0
 11
-60.3795
 21
-47.167991000000001
 31
0.0
  0
ARC
  5
44F
  8
DETAIL
  6
CONTINUOUS
 62
     5
 10
-57.753
 20
-55.572791000000002
 30
0.0
 40
2.6265000000000001
 50
0.0
 51
180.0
  0
ARC
  5
450
  8
DETAIL
  6
CONTINUOUS
 62
     5
 10
-57.753
 20
-47.167991000000001
 30
0.0
 40
2.6265000000000001
 50
180.0
 51
0.0
  0
ARC
  5
451
  8
DETAIL
  6
CONTINUOUS
 62
     5
 10
-57.753
 20
-12.498191
 30
0.0
 40
2.6265000000000001
 50
180.0
 51
0.0
  0
ARC
  5
452
  8
DETAIL
  6
CONTINUOUS
 62
     5
 10
-57.753
 20
-20.902991
 30
0.0
 40
2.6265000000000001
 50
0.0
 51
180.0
  0
LINE
  5
453
  8
DETAIL
  6
CONTINUOUS
 62
     5
 10
-60.3795
 20
-55.572791000000002
 30
0.0
 11
-60.3795
 21
-81.837790999999996
 31
0.0
  0
LINE
  5
454
  8
DETAIL
  6
CONTINUOUS
 62
     5
 10
-55.1265
 20
-55.572791000000002
 30
0.0
 11
-55.1265
 21
-81.837790999999996
 31
0.0
  0
ARC
  5
455
  8
DETAIL
  6
CONTINUOUS
 62
     5
 10
-36.741
 20
-12.498191
 30
0.0
 40
2.6265000000000001
 50
180.0
 51
0.0
  0
ARC
  5
456
  8
DETAIL
  6
CONTINUOUS
 62
     5
 10
-36.741
 20
-20.902991
 30
0.0
 40
2.6265000000000001
 50
0.0
 51
180.0
  0
ARC
  5
457
  8
DETAIL
  6
CONTINUOUS
 62
     5
 10
-36.741
 20
-55.572791000000002
 30
0.0
 40
2.6265000000000001
 50
0.0
 51
180.0
  0
ARC
  5
458
  8
DETAIL
  6
CONTINUOUS
 62
     5
 10
-36.741
 20
-47.167991000000001
 30
0.0
 40
2.6265000000000001
 50
180.0
 51
0.0
  0
LINE
  5
459
  8
DETAIL
  6
CONTINUOUS
 62
     5
 10
-23.608499999999999
 20
-55.572791000000002
 30
0.0
 11
-23.608499999999999
 21
-81.837790999999996
 31
0.0
  0
LINE
  5
45A
  8
DETAIL
  6
CONTINUOUS
 62
     5
 10
-28.861499999999999
 20
-55.572791000000002
 30
0.0
 11
-28.861499999999999
 21
-81.837790999999996
 31
0.0
  0
ARC
  5
45B
  8
DETAIL
  6
CONTINUOUS
 62
     5
 10
-26.234999999999999
 20
-20.902991
 30
0.0
 40
2.6265000000000001
 50
0.0
 51
180.0
  0
ARC
  5
45C
  8
DETAIL
  6
CONTINUOUS
 62
     5
 10
-26.234999999999999
 20
-12.498191
 30
0.0
 40
2.6265000000000001
 50
180.0
 51
0.0
  0
ARC
  5
45D
  8
DETAIL
  6
CONTINUOUS
 62
     5
 10
-26.234999999999999
 20
-47.167991000000001
 30
0.0
 40
2.6265000000000001
 50
180.0
 51
0.0
  0
ARC
  5
45E
  8
DETAIL
  6
CONTINUOUS
 62
     5
 10
-26.234999999999999
 20
-55.572791000000002
 30
0.0
 40
2.6265000000000001
 50
0.0
 51
180.0
  0
LINE
  5
45F
  8
DETAIL
  6
CONTINUOUS
 62
     5
 10
-28.861499999999999
 20
-20.902991
 30
0.0
 11
-28.861499999999999
 21
-47.167991000000001
 31
0.0
  0
LINE
  5
460
  8
DETAIL
  6
CONTINUOUS
 62
     5
 10
-23.608499999999999
 20
-20.902991
 30
0.0
 11
-23.608499999999999
 21
-47.167991000000001
 31
0.0
  0
LINE
  5
461
  8
DETAIL
  6
CONTINUOUS
 62
     5
 10
-13.102499999999999
 20
-20.902991
 30
0.0
 11
-13.102499999999999
 21
-47.167991000000001
 31
0.0
  0
LINE
  5
462
  8
DETAIL
  6
CONTINUOUS
 62
     5
 10
-18.355499999999999
 20
-20.902991
 30
0.0
 11
-18.355499999999999
 21
-47.167991000000001
 31
0.0
  0
LINE
  5
463
  8
DETAIL
  6
CONTINUOUS
 62
     5
 10
-7.849499999999999
 20
-20.902991
 30
0.0
 11
-7.849499999999999
 21
-47.167991000000001
 31
0.0
  0
ARC
  5
464
  8
DETAIL
  6
CONTINUOUS
 62
     5
 10
-15.728999999999999
 20
-55.572791000000002
 30
0.0
 40
2.6265000000000001
 50
0.0
 51
180.0
  0
ARC
  5
465
  8
DETAIL
  6
CONTINUOUS
 62
     5
 10
-15.728999999999999
 20
-47.167991000000001
 30
0.0
 40
2.6265000000000001
 50
180.0
 51
0.0
  0
ARC
  5
466
  8
DETAIL
  6
CONTINUOUS
 62
     5
 10
-15.728999999999999
 20
-12.498191
 30
0.0
 40
2.6265000000000001
 50
180.0
 51
0.0
  0
ARC
  5
467
  8
DETAIL
  6
CONTINUOUS
 62
     5
 10
-15.728999999999999
 20
-20.902991
 30
0.0
 40
2.6265000000000001
 50
0.0
 51
180.0
  0
LINE
  5
468
  8
DETAIL
  6
CONTINUOUS
 62
     5
 10
-18.355499999999999
 20
-55.572791000000002
 30
0.0
 11
-18.355499999999999
 21
-81.837790999999996
 31
0.0
  0
LINE
  5
469
  8
DETAIL
  6
CONTINUOUS
 62
     5
 10
-13.102499999999999
 20
-55.572791000000002
 30
0.0
 11
-13.102499999999999
 21
-81.837790999999996
 31
0.0
  0
LINE
  5
46A
  8
DETAIL
  6
CONTINUOUS
 62
     5
 10
-7.849499999999999
 20
-55.572791000000002
 30
0.0
 11
-7.849499999999999
 21
-81.837790999999996
 31
0.0
  0
LINE
  5
46B
  8
DETAIL
  6
CONTINUOUS
 62
     5
 10
-2.5964999999999989
 20
-20.902991
 30
0.0
 11
-2.5964999999999989
 21
-47.167991000000001
 31
0.0
  0
LINE
  5
46C
  8
DETAIL
  6
CONTINUOUS
 62
     5
 10
-2.5964999999999989
 20
-55.572791000000002
 30
0.0
 11
-2.5964999999999989
 21
-81.837790999999996
 31
0.0
  0
ARC
  5
46D
  8
DETAIL
  6
CONTINUOUS
 62
     5
 10
-162.81299999999999
 20
81.940084999999996
 30
0.0
 40
2.6265000000000001
 50
0.0
 51
180.0
  0
ARC
  5
46E
  8
DETAIL
  6
CONTINUOUS
 62
     5
 10
-152.30699999999999
 20
81.940084999999996
 30
0.0
 40
2.6265000000000001
 50
0.0
 51
180.0
  0
ARC
  5
46F
  8
DETAIL
  6
CONTINUOUS
 62
     5
 10
-173.31899999999999
 20
81.940084999999996
 30
0.0
 40
2.6265000000000001
 50
0.0
 51
180.0
  0
ARC
  5
470
  8
DETAIL
  6
CONTINUOUS
 62
     5
 10
-141.80099999999999
 20
81.940084999999996
 30
0.0
 40
2.6265000000000001
 50
0.0
 51
180.0
  0
ARC
  5
471
  8
DETAIL
  6
CONTINUOUS
 62
     5
 10
-131.29499999999999
 20
81.940084999999996
 30
0.0
 40
2.6265000000000001
 50
0.0
 51
180.0
  0
ARC
  5
472
  8
DETAIL
  6
CONTINUOUS
 62
     5
 10
-78.765000000000001
 20
81.940084999999996
 30
0.0
 40
2.6265000000000001
 50
0.0
 51
180.0
  0
ARC
  5
473
  8
DETAIL
  6
CONTINUOUS
 62
     5
 10
-68.259
 20
81.940084999999996
 30
0.0
 40
2.6265000000000001
 50
0.0
 51
180.0
  0
ARC
  5
474
  8
DETAIL
  6
CONTINUOUS
 62
     5
 10
-89.271000000000015
 20
81.940084999999996
 30
0.0
 40
2.6265000000000001
 50
0.0
 51
180.0
  0
ARC
  5
475
  8
DETAIL
  6
CONTINUOUS
 62
     5
 10
-120.789
 20
81.940084999999996
 30
0.0
 40
2.6265000000000001
 50
0.0
 51
180.0
  0
ARC
  5
476
  8
DETAIL
  6
CONTINUOUS
 62
     5
 10
-99.777000000000001
 20
81.940084999999996
 30
0.0
 40
2.6265000000000001
 50
0.0
 51
180.0
  0
ARC
  5
477
  8
DETAIL
  6
CONTINUOUS
 62
     5
 10
-110.283
 20
81.940084999999996
 30
0.0
 40
2.6265000000000001
 50
0.0
 51
180.0
  0
ARC
  5
478
  8
DETAIL
  6
CONTINUOUS
 62
     5
 10
-120.789
 20
13.766809
 30
0.0
 40
2.6265000000000001
 50
0.0
 51
180.0
  0
ARC
  5
479
  8
DETAIL
  6
CONTINUOUS
 62
     5
 10
-120.789
 20
22.171609
 30
0.0
 40
2.6265000000000001
 50
180.0
 51
0.0
  0
ARC
  5
47A
  8
DETAIL
  6
CONTINUOUS
 62
     5
 10
-120.789
 20
48.436608999999997
 30
0.0
 40
2.6265000000000001
 50
0.0
 51
180.0
  0
ARC
  5
47B
  8
DETAIL
  6
CONTINUOUS
 62
     5
 10
-120.789
 20
55.675084999999989
 30
0.0
 40
2.6265000000000001
 50
180.0
 51
0.0
  0
LINE
  5
47C
  8
DETAIL
  6
CONTINUOUS
 62
     5
 10
-149.68049999999999
 20
48.436608999999997
 30
0.0
 11
-149.68049999999999
 21
22.171609
 31
0.0
  0
LINE
  5
47D
  8
DETAIL
  6
CONTINUOUS
 62
     5
 10
-149.68049999999999
 20
55.675084999999989
 30
0.0
 11
-149.68049999999999
 21
81.940084999999996
 31
0.0
  0
LINE
  5
47E
  8
DETAIL
  6
CONTINUOUS
 62
     5
 10
-154.93350000000001
 20
48.436608999999997
 30
0.0
 11
-154.93350000000001
 21
22.171609
 31
0.0
  0
ARC
  5
47F
  8
DETAIL
  6
CONTINUOUS
 62
     5
 10
-162.81299999999999
 20
13.766809
 30
0.0
 40
2.6265000000000001
 50
0.0
 51
180.0
  0
LINE
  5
480
  8
DETAIL
  6
CONTINUOUS
 62
     5
 10
-160.1865
 20
48.436608999999997
 30
0.0
 11
-160.1865
 21
22.171609
 31
0.0
  0
LINE
  5
481
  8
DETAIL
  6
CONTINUOUS
 62
     5
 10
-165.43950000000001
 20
48.436608999999997
 30
0.0
 11
-165.43950000000001
 21
22.171609
 31
0.0
  0
ARC
  5
482
  8
DETAIL
  6
CONTINUOUS
 62
     5
 10
-162.81299999999999
 20
22.171609
 30
0.0
 40
2.6265000000000001
 50
180.0
 51
0.0
  0
ARC
  5
483
  8
DETAIL
  6
CONTINUOUS
 62
     5
 10
-162.81299999999999
 20
48.436608999999997
 30
0.0
 40
2.6265000000000001
 50
0.0
 51
180.0
  0
ARC
  5
484
  8
DETAIL
  6
CONTINUOUS
 62
     5
 10
-162.81299999999999
 20
55.675084999999989
 30
0.0
 40
2.6265000000000001
 50
180.0
 51
0.0
  0
LINE
  5
485
  8
DETAIL
  6
CONTINUOUS
 62
     5
 10
-154.93350000000001
 20
55.675084999999989
 30
0.0
 11
-154.93350000000001
 21
81.940084999999996
 31
0.0
  0
LINE
  5
486
  8
DETAIL
  6
CONTINUOUS
 62
     5
 10
-160.1865
 20
55.675084999999989
 30
0.0
 11
-160.1865
 21
81.940084999999996
 31
0.0
  0
LINE
  5
487
  8
DETAIL
  6
CONTINUOUS
 62
     5
 10
-165.43950000000001
 20
55.675084999999989
 30
0.0
 11
-165.43950000000001
 21
81.940084999999996
 31
0.0
  0
LINE
  5
488
  8
DETAIL
  6
CONTINUOUS
 62
     5
 10
-170.6925
 20
55.675084999999989
 30
0.0
 11
-170.6925
 21
81.940084999999996
 31
0.0
  0
LINE
  5
489
  8
DETAIL
  6
CONTINUOUS
 62
     5
 10
-170.6925
 20
48.436608999999997
 30
0.0
 11
-170.6925
 21
22.171609
 31
0.0
  0
ARC
  5
48A
  8
DETAIL
  6
CONTINUOUS
 62
     5
 10
-152.30699999999999
 20
48.436608999999997
 30
0.0
 40
2.6265000000000001
 50
0.0
 51
180.0
  0
ARC
  5
48B
  8
DETAIL
  6
CONTINUOUS
 62
     5
 10
-152.30699999999999
 20
22.171609
 30
0.0
 40
2.6265000000000001
 50
180.0
 51
0.0
  0
ARC
  5
48C
  8
DETAIL
  6
CONTINUOUS
 62
     5
 10
-152.30699999999999
 20
13.766809
 30
0.0
 40
2.6265000000000001
 50
0.0
 51
180.0
  0
ARC
  5
48D
  8
DETAIL
  6
CONTINUOUS
 62
     5
 10
-152.30699999999999
 20
55.675084999999989
 30
0.0
 40
2.6265000000000001
 50
180.0
 51
0.0
  0
ARC
  5
48E
  8
DETAIL
  6
CONTINUOUS
 62
     5
 10
-141.80099999999999
 20
13.766809
 30
0.0
 40
2.6265000000000001
 50
0.0
 51
180.0
  0
LINE
  5
48F
  8
DETAIL
  6
CONTINUOUS
 62
     5
 10
-139.17449999999999
 20
48.436608999999997
 30
0.0
 11
-139.17449999999999
 21
22.171609
 31
0.0
  0
LINE
  5
490
  8
DETAIL
  6
CONTINUOUS
 62
     5
 10
-144.42750000000001
 20
48.436608999999997
 30
0.0
 11
-144.42750000000001
 21
22.171609
 31
0.0
  0
ARC
  5
491
  8
DETAIL
  6
CONTINUOUS
 62
     5
 10
-141.80099999999999
 20
22.171609
 30
0.0
 40
2.6265000000000001
 50
180.0
 51
0.0
  0
ARC
  5
492
  8
DETAIL
  6
CONTINUOUS
 62
     5
 10
-141.80099999999999
 20
48.436608999999997
 30
0.0
 40
2.6265000000000001
 50
0.0
 51
180.0
  0
ARC
  5
493
  8
DETAIL
  6
CONTINUOUS
 62
     5
 10
-141.80099999999999
 20
55.675084999999989
 30
0.0
 40
2.6265000000000001
 50
180.0
 51
0.0
  0
LINE
  5
494
  8
DETAIL
  6
CONTINUOUS
 62
     5
 10
-139.17449999999999
 20
55.675084999999989
 30
0.0
 11
-139.17449999999999
 21
81.940084999999996
 31
0.0
  0
LINE
  5
495
  8
DETAIL
  6
CONTINUOUS
 62
     5
 10
-144.42750000000001
 20
55.675084999999989
 30
0.0
 11
-144.42750000000001
 21
81.940084999999996
 31
0.0
  0
LINE
  5
496
  8
DETAIL
  6
CONTINUOUS
 62
     5
 10
-133.92150000000001
 20
55.675084999999989
 30
0.0
 11
-133.92150000000001
 21
81.940084999999996
 31
0.0
  0
LINE
  5
497
  8
DETAIL
  6
CONTINUOUS
 62
     5
 10
-128.66849999999999
 20
55.675084999999989
 30
0.0
 11
-128.66849999999999
 21
81.940084999999996
 31
0.0
  0
ARC
  5
498
  8
DETAIL
  6
CONTINUOUS
 62
     5
 10
-131.29499999999999
 20
55.675084999999989
 30
0.0
 40
2.6265000000000001
 50
180.0
 51
0.0
  0
ARC
  5
499
  8
DETAIL
  6
CONTINUOUS
 62
     5
 10
-131.29499999999999
 20
48.436608999999997
 30
0.0
 40
2.6265000000000001
 50
0.0
 51
180.0
  0
ARC
  5
49A
  8
DETAIL
  6
CONTINUOUS
 62
     5
 10
-131.29499999999999
 20
22.171609
 30
0.0
 40
2.6265000000000001
 50
180.0
 51
0.0
  0
LINE
  5
49B
  8
DETAIL
  6
CONTINUOUS
 62
     5
 10
-133.92150000000001
 20
48.436608999999997
 30
0.0
 11
-133.92150000000001
 21
22.171609
 31
0.0
  0
LINE
  5
49C
  8
DETAIL
  6
CONTINUOUS
 62
     5
 10
-128.66849999999999
 20
48.436608999999997
 30
0.0
 11
-128.66849999999999
 21
22.171609
 31
0.0
  0
ARC
  5
49D
  8
DETAIL
  6
CONTINUOUS
 62
     5
 10
-131.29499999999999
 20
13.766809
 30
0.0
 40
2.6265000000000001
 50
0.0
 51
180.0
  0
LINE
  5
49E
  8
DETAIL
  6
CONTINUOUS
 62
     5
 10
-175.94550000000001
 20
55.675084999999989
 30
0.0
 11
-175.94550000000001
 21
81.940084999999996
 31
0.0
  0
LINE
  5
49F
  8
DETAIL
  6
CONTINUOUS
 62
     5
 10
-175.94550000000001
 20
48.436608999999997
 30
0.0
 11
-175.94550000000001
 21
22.171609
 31
0.0
  0
ARC
  5
4A0
  8
DETAIL
  6
CONTINUOUS
 62
     5
 10
-173.31899999999999
 20
55.675084999999989
 30
0.0
 40
2.6265000000000001
 50
180.0
 51
0.0
  0
ARC
  5
4A1
  8
DETAIL
  6
CONTINUOUS
 62
     5
 10
-173.31899999999999
 20
48.436608999999997
 30
0.0
 40
2.6265000000000001
 50
0.0
 51
180.0
  0
ARC
  5
4A2
  8
DETAIL
  6
CONTINUOUS
 62
     5
 10
-173.31899999999999
 20
22.171609
 30
0.0
 40
2.6265000000000001
 50
180.0
 51
0.0
  0
ARC
  5
4A3
  8
DETAIL
  6
CONTINUOUS
 62
     5
 10
-173.31899999999999
 20
13.766809
 30
0.0
 40
2.6265000000000001
 50
0.0
 51
180.0
  0
LINE
  5
4A4
  8
DETAIL
  6
CONTINUOUS
 62
     5
 10
-123.41549999999999
 20
48.436608999999997
 30
0.0
 11
-123.41549999999999
 21
22.171609
 31
0.0
  0
LINE
  5
4A5
  8
DETAIL
  6
CONTINUOUS
 62
     5
 10
-123.41549999999999
 20
55.675084999999989
 30
0.0
 11
-123.41549999999999
 21
81.940084999999996
 31
0.0
  0
LINE
  5
4A6
  8
DETAIL
  6
CONTINUOUS
 62
     5
 10
-65.632499999999993
 20
48.436608999999997
 30
0.0
 11
-65.632499999999993
 21
22.171609
 31
0.0
  0
LINE
  5
4A7
  8
DETAIL
  6
CONTINUOUS
 62
     5
 10
-65.632499999999993
 20
55.675084999999989
 30
0.0
 11
-65.632499999999993
 21
81.940084999999996
 31
0.0
  0
LINE
  5
4A8
  8
DETAIL
  6
CONTINUOUS
 62
     5
 10
-70.885499999999993
 20
48.436608999999997
 30
0.0
 11
-70.885499999999993
 21
22.171609
 31
0.0
  0
ARC
  5
4A9
  8
DETAIL
  6
CONTINUOUS
 62
     5
 10
-78.765000000000001
 20
13.766809
 30
0.0
 40
2.6265000000000001
 50
0.0
 51
180.0
  0
LINE
  5
4AA
  8
DETAIL
  6
CONTINUOUS
 62
     5
 10
-76.138499999999993
 20
48.436608999999997
 30
0.0
 11
-76.138499999999993
 21
22.171609
 31
0.0
  0
LINE
  5
4AB
  8
DETAIL
  6
CONTINUOUS
 62
     5
 10
-81.391499999999979
 20
48.436608999999997
 30
0.0
 11
-81.391499999999979
 21
22.171609
 31
0.0
  0
ARC
  5
4AC
  8
DETAIL
  6
CONTINUOUS
 62
     5
 10
-78.765000000000001
 20
22.171609
 30
0.0
 40
2.6265000000000001
 50
180.0
 51
0.0
  0
ARC
  5
4AD
  8
DETAIL
  6
CONTINUOUS
 62
     5
 10
-78.765000000000001
 20
48.436608999999997
 30
0.0
 40
2.6265000000000001
 50
0.0
 51
180.0
  0
ARC
  5
4AE
  8
DETAIL
  6
CONTINUOUS
 62
     5
 10
-78.765000000000001
 20
55.675084999999989
 30
0.0
 40
2.6265000000000001
 50
180.0
 51
0.0
  0
LINE
  5
4AF
  8
DETAIL
  6
CONTINUOUS
 62
     5
 10
-70.885499999999993
 20
55.675084999999989
 30
0.0
 11
-70.885499999999993
 21
81.940084999999996
 31
0.0
  0
LINE
  5
4B0
  8
DETAIL
  6
CONTINUOUS
 62
     5
 10
-76.138499999999993
 20
55.675084999999989
 30
0.0
 11
-76.138499999999993
 21
81.940084999999996
 31
0.0
  0
LINE
  5
4B1
  8
DETAIL
  6
CONTINUOUS
 62
     5
 10
-81.391499999999979
 20
55.675084999999989
 30
0.0
 11
-81.391499999999979
 21
81.940084999999996
 31
0.0
  0
LINE
  5
4B2
  8
DETAIL
  6
CONTINUOUS
 62
     5
 10
-91.897499999999994
 20
55.675084999999989
 30
0.0
 11
-91.897499999999994
 21
81.940084999999996
 31
0.0
  0
LINE
  5
4B3
  8
DETAIL
  6
CONTINUOUS
 62
     5
 10
-86.644499999999994
 20
55.675084999999989
 30
0.0
 11
-86.644499999999994
 21
81.940084999999996
 31
0.0
  0
ARC
  5
4B4
  8
DETAIL
  6
CONTINUOUS
 62
     5
 10
-89.271000000000015
 20
55.675084999999989
 30
0.0
 40
2.6265000000000001
 50
180.0
 51
0.0
  0
ARC
  5
4B5
  8
DETAIL
  6
CONTINUOUS
 62
     5
 10
-89.271000000000015
 20
48.436608999999997
 30
0.0
 40
2.6265000000000001
 50
0.0
 51
180.0
  0
ARC
  5
4B6
  8
DETAIL
  6
CONTINUOUS
 62
     5
 10
-89.271000000000015
 20
22.171609
 30
0.0
 40
2.6265000000000001
 50
180.0
 51
0.0
  0
LINE
  5
4B7
  8
DETAIL
  6
CONTINUOUS
 62
     5
 10
-91.897499999999994
 20
48.436608999999997
 30
0.0
 11
-91.897499999999994
 21
22.171609
 31
0.0
  0
LINE
  5
4B8
  8
DETAIL
  6
CONTINUOUS
 62
     5
 10
-86.644499999999994
 20
48.436608999999997
 30
0.0
 11
-86.644499999999994
 21
22.171609
 31
0.0
  0
ARC
  5
4B9
  8
DETAIL
  6
CONTINUOUS
 62
     5
 10
-89.271000000000015
 20
13.766809
 30
0.0
 40
2.6265000000000001
 50
0.0
 51
180.0
  0
ARC
  5
4BA
  8
DETAIL
  6
CONTINUOUS
 62
     5
 10
-99.777000000000001
 20
55.675084999999989
 30
0.0
 40
2.6265000000000001
 50
180.0
 51
0.0
  0
ARC
  5
4BB
  8
DETAIL
  6
CONTINUOUS
 62
     5
 10
-99.777000000000001
 20
13.766809
 30
0.0
 40
2.6265000000000001
 50
0.0
 51
180.0
  0
ARC
  5
4BC
  8
DETAIL
  6
CONTINUOUS
 62
     5
 10
-99.777000000000001
 20
22.171609
 30
0.0
 40
2.6265000000000001
 50
180.0
 51
0.0
  0
ARC
  5
4BD
  8
DETAIL
  6
CONTINUOUS
 62
     5
 10
-99.777000000000001
 20
48.436608999999997
 30
0.0
 40
2.6265000000000001
 50
0.0
 51
180.0
  0
LINE
  5
4BE
  8
DETAIL
  6
CONTINUOUS
 62
     5
 10
-118.16249999999999
 20
48.436608999999997
 30
0.0
 11
-118.16249999999999
 21
22.171609
 31
0.0
  0
LINE
  5
4BF
  8
DETAIL
  6
CONTINUOUS
 62
     5
 10
-118.16249999999999
 20
55.675084999999989
 30
0.0
 11
-118.16249999999999
 21
81.940084999999996
 31
0.0
  0
LINE
  5
4C0
  8
DETAIL
  6
CONTINUOUS
 62
     5
 10
-112.90949999999999
 20
55.675084999999989
 30
0.0
 11
-112.90949999999999
 21
81.940084999999996
 31
0.0
  0
LINE
  5
4C1
  8
DETAIL
  6
CONTINUOUS
 62
     5
 10
-107.65649999999999
 20
55.675084999999989
 30
0.0
 11
-107.65649999999999
 21
81.940084999999996
 31
0.0
  0
LINE
  5
4C2
  8
DETAIL
  6
CONTINUOUS
 62
     5
 10
-102.40349999999999
 20
55.675084999999989
 30
0.0
 11
-102.40349999999999
 21
81.940084999999996
 31
0.0
  0
ARC
  5
4C3
  8
DETAIL
  6
CONTINUOUS
 62
     5
 10
-110.283
 20
55.675084999999989
 30
0.0
 40
2.6265000000000001
 50
180.0
 51
0.0
  0
ARC
  5
4C4
  8
DETAIL
  6
CONTINUOUS
 62
     5
 10
-110.283
 20
48.436608999999997
 30
0.0
 40
2.6265000000000001
 50
0.0
 51
180.0
  0
ARC
  5
4C5
  8
DETAIL
  6
CONTINUOUS
 62
     5
 10
-110.283
 20
22.171609
 30
0.0
 40
2.6265000000000001
 50
180.0
 51
0.0
  0
LINE
  5
4C6
  8
DETAIL
  6
CONTINUOUS
 62
     5
 10
-112.90949999999999
 20
48.436608999999997
 30
0.0
 11
-112.90949999999999
 21
22.171609
 31
0.0
  0
LINE
  5
4C7
  8
DETAIL
  6
CONTINUOUS
 62
     5
 10
-107.65649999999999
 20
48.436608999999997
 30
0.0
 11
-107.65649999999999
 21
22.171609
 31
0.0
  0
ARC
  5
4C8
  8
DETAIL
  6
CONTINUOUS
 62
     5
 10
-110.283
 20
13.766809
 30
0.0
 40
2.6265000000000001
 50
0.0
 51
180.0
  0
LINE
  5
4C9
  8
DETAIL
  6
CONTINUOUS
 62
     5
 10
-102.40349999999999
 20
48.436608999999997
 30
0.0
 11
-102.40349999999999
 21
22.171609
 31
0.0
  0
LINE
  5
4CA
  8
DETAIL
  6
CONTINUOUS
 62
     5
 10
-97.150499999999994
 20
55.675084999999989
 30
0.0
 11
-97.150499999999994
 21
81.940084999999996
 31
0.0
  0
LINE
  5
4CB
  8
DETAIL
  6
CONTINUOUS
 62
     5
 10
-97.150499999999994
 20
48.436608999999997
 30
0.0
 11
-97.150499999999994
 21
22.171609
 31
0.0
  0
ARC
  5
4CC
  8
DETAIL
  6
CONTINUOUS
 62
     5
 10
-68.259
 20
48.436608999999997
 30
0.0
 40
2.6265000000000001
 50
0.0
 51
180.0
  0
ARC
  5
4CD
  8
DETAIL
  6
CONTINUOUS
 62
     5
 10
-68.259
 20
22.171609
 30
0.0
 40
2.6265000000000001
 50
180.0
 51
0.0
  0
ARC
  5
4CE
  8
DETAIL
  6
CONTINUOUS
 62
     5
 10
-68.259
 20
13.766809
 30
0.0
 40
2.6265000000000001
 50
0.0
 51
180.0
  0
ARC
  5
4CF
  8
DETAIL
  6
CONTINUOUS
 62
     5
 10
-68.259
 20
55.675084999999989
 30
0.0
 40
2.6265000000000001
 50
180.0
 51
0.0
  0
ARC
  5
4D0
  8
DETAIL
  6
CONTINUOUS
 62
     5
 10
-120.789
 20
125.014685
 30
0.0
 40
2.6265000000000001
 50
180.0
 51
0.0
  0
ARC
  5
4D1
  8
DETAIL
  6
CONTINUOUS
 62
     5
 10
-120.789
 20
151.279685
 30
0.0
 40
2.6265000000000001
 50
0.0
 51
180.0
  0
ARC
  5
4D2
  8
DETAIL
  6
CONTINUOUS
 62
     5
 10
-120.789
 20
90.344885000000005
 30
0.0
 40
2.6265000000000001
 50
180.0
 51
0.0
  0
ARC
  5
4D3
  8
DETAIL
  6
CONTINUOUS
 62
     5
 10
-120.789
 20
116.60988500000001
 30
0.0
 40
2.6265000000000001
 50
0.0
 51
180.0
  0
LINE
  5
4D4
  8
DETAIL
  6
CONTINUOUS
 62
     5
 10
-149.68049999999999
 20
125.014685
 30
0.0
 11
-149.68049999999999
 21
151.279685
 31
0.0
  0
LINE
  5
4D5
  8
DETAIL
  6
CONTINUOUS
 62
     5
 10
-149.68049999999999
 20
90.344885000000005
 30
0.0
 11
-149.68049999999999
 21
116.60988500000001
 31
0.0
  0
LINE
  5
4D6
  8
DETAIL
  6
CONTINUOUS
 62
     5
 10
-154.93350000000001
 20
125.014685
 30
0.0
 11
-154.93350000000001
 21
151.279685
 31
0.0
  0
ARC
  5
4D7
  8
DETAIL
  6
CONTINUOUS
 62
     5
 10
-162.81299999999999
 20
125.014685
 30
0.0
 40
2.6265000000000001
 50
180.0
 51
0.0
  0
ARC
  5
4D8
  8
DETAIL
  6
CONTINUOUS
 62
     5
 10
-162.81299999999999
 20
151.279685
 30
0.0
 40
2.6265000000000001
 50
0.0
 51
180.0
  0
LINE
  5
4D9
  8
DETAIL
  6
CONTINUOUS
 62
     5
 10
-165.43950000000001
 20
125.014685
 30
0.0
 11
-165.43950000000001
 21
151.279685
 31
0.0
  0
LINE
  5
4DA
  8
DETAIL
  6
CONTINUOUS
 62
     5
 10
-160.1865
 20
125.014685
 30
0.0
 11
-160.1865
 21
151.279685
 31
0.0
  0
ARC
  5
4DB
  8
DETAIL
  6
CONTINUOUS
 62
     5
 10
-162.81299999999999
 20
90.344885000000005
 30
0.0
 40
2.6265000000000001
 50
180.0
 51
0.0
  0
ARC
  5
4DC
  8
DETAIL
  6
CONTINUOUS
 62
     5
 10
-162.81299999999999
 20
116.60988500000001
 30
0.0
 40
2.6265000000000001
 50
0.0
 51
180.0
  0
LINE
  5
4DD
  8
DETAIL
  6
CONTINUOUS
 62
     5
 10
-154.93350000000001
 20
90.344885000000005
 30
0.0
 11
-154.93350000000001
 21
116.60988500000001
 31
0.0
  0
LINE
  5
4DE
  8
DETAIL
  6
CONTINUOUS
 62
     5
 10
-165.43950000000001
 20
90.344885000000005
 30
0.0
 11
-165.43950000000001
 21
116.60988500000001
 31
0.0
  0
LINE
  5
4DF
  8
DETAIL
  6
CONTINUOUS
 62
     5
 10
-160.1865
 20
90.344885000000005
 30
0.0
 11
-160.1865
 21
116.60988500000001
 31
0.0
  0
LINE
  5
4E0
  8
DETAIL
  6
CONTINUOUS
 62
     5
 10
-170.6925
 20
90.344885000000005
 30
0.0
 11
-170.6925
 21
116.60988500000001
 31
0.0
  0
LINE
  5
4E1
  8
DETAIL
  6
CONTINUOUS
 62
     5
 10
-170.6925
 20
125.014685
 30
0.0
 11
-170.6925
 21
151.279685
 31
0.0
  0
ARC
  5
4E2
  8
DETAIL
  6
CONTINUOUS
 62
     5
 10
-152.30699999999999
 20
151.279685
 30
0.0
 40
2.6265000000000001
 50
0.0
 51
180.0
  0
ARC
  5
4E3
  8
DETAIL
  6
CONTINUOUS
 62
     5
 10
-152.30699999999999
 20
125.014685
 30
0.0
 40
2.6265000000000001
 50
180.0
 51
0.0
  0
ARC
  5
4E4
  8
DETAIL
  6
CONTINUOUS
 62
     5
 10
-152.30699999999999
 20
90.344885000000005
 30
0.0
 40
2.6265000000000001
 50
180.0
 51
0.0
  0
ARC
  5
4E5
  8
DETAIL
  6
CONTINUOUS
 62
     5
 10
-152.30699999999999
 20
116.60988500000001
 30
0.0
 40
2.6265000000000001
 50
0.0
 51
180.0
  0
ARC
  5
4E6
  8
DETAIL
  6
CONTINUOUS
 62
     5
 10
-141.80099999999999
 20
125.014685
 30
0.0
 40
2.6265000000000001
 50
180.0
 51
0.0
  0
ARC
  5
4E7
  8
DETAIL
  6
CONTINUOUS
 62
     5
 10
-141.80099999999999
 20
151.279685
 30
0.0
 40
2.6265000000000001
 50
0.0
 51
180.0
  0
LINE
  5
4E8
  8
DETAIL
  6
CONTINUOUS
 62
     5
 10
-144.42750000000001
 20
125.014685
 30
0.0
 11
-144.42750000000001
 21
151.279685
 31
0.0
  0
LINE
  5
4E9
  8
DETAIL
  6
CONTINUOUS
 62
     5
 10
-139.17449999999999
 20
125.014685
 30
0.0
 11
-139.17449999999999
 21
151.279685
 31
0.0
  0
ARC
  5
4EA
  8
DETAIL
  6
CONTINUOUS
 62
     5
 10
-141.80099999999999
 20
90.344885000000005
 30
0.0
 40
2.6265000000000001
 50
180.0
 51
0.0
  0
ARC
  5
4EB
  8
DETAIL
  6
CONTINUOUS
 62
     5
 10
-141.80099999999999
 20
116.60988500000001
 30
0.0
 40
2.6265000000000001
 50
0.0
 51
180.0
  0
LINE
  5
4EC
  8
DETAIL
  6
CONTINUOUS
 62
     5
 10
-144.42750000000001
 20
90.344885000000005
 30
0.0
 11
-144.42750000000001
 21
116.60988500000001
 31
0.0
  0
LINE
  5
4ED
  8
DETAIL
  6
CONTINUOUS
 62
     5
 10
-139.17449999999999
 20
90.344885000000005
 30
0.0
 11
-139.17449999999999
 21
116.60988500000001
 31
0.0
  0
LINE
  5
4EE
  8
DETAIL
  6
CONTINUOUS
 62
     5
 10
-128.66849999999999
 20
90.344885000000005
 30
0.0
 11
-128.66849999999999
 21
116.60988500000001
 31
0.0
  0
LINE
  5
4EF
  8
DETAIL
  6
CONTINUOUS
 62
     5
 10
-133.92150000000001
 20
90.344885000000005
 30
0.0
 11
-133.92150000000001
 21
116.60988500000001
 31
0.0
  0
ARC
  5
4F0
  8
DETAIL
  6
CONTINUOUS
 62
     5
 10
-131.29499999999999
 20
116.60988500000001
 30
0.0
 40
2.6265000000000001
 50
0.0
 51
180.0
  0
ARC
  5
4F1
  8
DETAIL
  6
CONTINUOUS
 62
     5
 10
-131.29499999999999
 20
90.344885000000005
 30
0.0
 40
2.6265000000000001
 50
180.0
 51
0.0
  0
LINE
  5
4F2
  8
DETAIL
  6
CONTINUOUS
 62
     5
 10
-128.66849999999999
 20
125.014685
 30
0.0
 11
-128.66849999999999
 21
151.279685
 31
0.0
  0
LINE
  5
4F3
  8
DETAIL
  6
CONTINUOUS
 62
     5
 10
-133.92150000000001
 20
125.014685
 30
0.0
 11
-133.92150000000001
 21
151.279685
 31
0.0
  0
ARC
  5
4F4
  8
DETAIL
  6
CONTINUOUS
 62
     5
 10
-131.29499999999999
 20
151.279685
 30
0.0
 40
2.6265000000000001
 50
0.0
 51
180.0
  0
ARC
  5
4F5
  8
DETAIL
  6
CONTINUOUS
 62
     5
 10
-131.29499999999999
 20
125.014685
 30
0.0
 40
2.6265000000000001
 50
180.0
 51
0.0
  0
LINE
  5
4F6
  8
DETAIL
  6
CONTINUOUS
 62
     5
 10
-175.94550000000001
 20
90.344885000000005
 30
0.0
 11
-175.94550000000001
 21
116.60988500000001
 31
0.0
  0
LINE
  5
4F7
  8
DETAIL
  6
CONTINUOUS
 62
     5
 10
-175.94550000000001
 20
125.014685
 30
0.0
 11
-175.94550000000001
 21
151.279685
 31
0.0
  0
ARC
  5
4F8
  8
DETAIL
  6
CONTINUOUS
 62
     5
 10
-173.31899999999999
 20
116.60988500000001
 30
0.0
 40
2.6265000000000001
 50
0.0
 51
180.0
  0
ARC
  5
4F9
  8
DETAIL
  6
CONTINUOUS
 62
     5
 10
-173.31899999999999
 20
90.344885000000005
 30
0.0
 40
2.6265000000000001
 50
180.0
 51
0.0
  0
ARC
  5
4FA
  8
DETAIL
  6
CONTINUOUS
 62
     5
 10
-173.31899999999999
 20
151.279685
 30
0.0
 40
2.6265000000000001
 50
0.0
 51
180.0
  0
ARC
  5
4FB
  8
DETAIL
  6
CONTINUOUS
 62
     5
 10
-173.31899999999999
 20
125.014685
 30
0.0
 40
2.6265000000000001
 50
180.0
 51
0.0
  0
LINE
  5
4FC
  8
DETAIL
  6
CONTINUOUS
 62
     5
 10
-123.41549999999999
 20
125.014685
 30
0.0
 11
-123.41549999999999
 21
151.279685
 31
0.0
  0
LINE
  5
4FD
  8
DETAIL
  6
CONTINUOUS
 62
     5
 10
-123.41549999999999
 20
90.344885000000005
 30
0.0
 11
-123.41549999999999
 21
116.60988500000001
 31
0.0
  0
LINE
  5
4FE
  8
DETAIL
  6
CONTINUOUS
 62
     5
 10
-65.632499999999993
 20
125.014685
 30
0.0
 11
-65.632499999999993
 21
151.279685
 31
0.0
  0
LINE
  5
4FF
  8
DETAIL
  6
CONTINUOUS
 62
     5
 10
-65.632499999999993
 20
90.344885000000005
 30
0.0
 11
-65.632499999999993
 21
116.60988500000001
 31
0.0
  0
LINE
  5
500
  8
DETAIL
  6
CONTINUOUS
 62
     5
 10
-70.885499999999993
 20
125.014685
 30
0.0
 11
-70.885499999999993
 21
151.279685
 31
0.0
  0
ARC
  5
501
  8
DETAIL
  6
CONTINUOUS
 62
     5
 10
-78.765000000000001
 20
125.014685
 30
0.0
 40
2.6265000000000001
 50
180.0
 51
0.0
  0
ARC
  5
502
  8
DETAIL
  6
CONTINUOUS
 62
     5
 10
-78.765000000000001
 20
151.279685
 30
0.0
 40
2.6265000000000001
 50
0.0
 51
180.0
  0
LINE
  5
503
  8
DETAIL
  6
CONTINUOUS
 62
     5
 10
-81.391499999999979
 20
125.014685
 30
0.0
 11
-81.391499999999979
 21
151.279685
 31
0.0
  0
LINE
  5
504
  8
DETAIL
  6
CONTINUOUS
 62
     5
 10
-76.138499999999993
 20
125.014685
 30
0.0
 11
-76.138499999999993
 21
151.279685
 31
0.0
  0
ARC
  5
505
  8
DETAIL
  6
CONTINUOUS
 62
     5
 10
-78.765000000000001
 20
90.344885000000005
 30
0.0
 40
2.6265000000000001
 50
180.0
 51
0.0
  0
ARC
  5
506
  8
DETAIL
  6
CONTINUOUS
 62
     5
 10
-78.765000000000001
 20
116.60988500000001
 30
0.0
 40
2.6265000000000001
 50
0.0
 51
180.0
  0
LINE
  5
507
  8
DETAIL
  6
CONTINUOUS
 62
     5
 10
-70.885499999999993
 20
90.344885000000005
 30
0.0
 11
-70.885499999999993
 21
116.60988500000001
 31
0.0
  0
LINE
  5
508
  8
DETAIL
  6
CONTINUOUS
 62
     5
 10
-81.391499999999979
 20
90.344885000000005
 30
0.0
 11
-81.391499999999979
 21
116.60988500000001
 31
0.0
  0
LINE
  5
509
  8
DETAIL
  6
CONTINUOUS
 62
     5
 10
-76.138499999999993
 20
90.344885000000005
 30
0.0
 11
-76.138499999999993
 21
116.60988500000001
 31
0.0
  0
LINE
  5
50A
  8
DETAIL
  6
CONTINUOUS
 62
     5
 10
-86.644499999999994
 20
90.344885000000005
 30
0.0
 11
-86.644499999999994
 21
116.60988500000001
 31
0.0
  0
LINE
  5
50B
  8
DETAIL
  6
CONTINUOUS
 62
     5
 10
-91.897499999999994
 20
90.344885000000005
 30
0.0
 11
-91.897499999999994
 21
116.60988500000001
 31
0.0
  0
ARC
  5
50C
  8
DETAIL
  6
CONTINUOUS
 62
     5
 10
-89.271000000000015
 20
116.60988500000001
 30
0.0
 40
2.6265000000000001
 50
0.0
 51
180.0
  0
ARC
  5
50D
  8
DETAIL
  6
CONTINUOUS
 62
     5
 10
-89.271000000000015
 20
90.344885000000005
 30
0.0
 40
2.6265000000000001
 50
180.0
 51
0.0
  0
LINE
  5
50E
  8
DETAIL
  6
CONTINUOUS
 62
     5
 10
-86.644499999999994
 20
125.014685
 30
0.0
 11
-86.644499999999994
 21
151.279685
 31
0.0
  0
LINE
  5
50F
  8
DETAIL
  6
CONTINUOUS
 62
     5
 10
-91.897499999999994
 20
125.014685
 30
0.0
 11
-91.897499999999994
 21
151.279685
 31
0.0
  0
ARC
  5
510
  8
DETAIL
  6
CONTINUOUS
 62
     5
 10
-89.271000000000015
 20
151.279685
 30
0.0
 40
2.6265000000000001
 50
0.0
 51
180.0
  0
ARC
  5
511
  8
DETAIL
  6
CONTINUOUS
 62
     5
 10
-89.271000000000015
 20
125.014685
 30
0.0
 40
2.6265000000000001
 50
180.0
 51
0.0
  0
ARC
  5
512
  8
DETAIL
  6
CONTINUOUS
 62
     5
 10
-99.777000000000001
 20
116.60988500000001
 30
0.0
 40
2.6265000000000001
 50
0.0
 51
180.0
  0
ARC
  5
513
  8
DETAIL
  6
CONTINUOUS
 62
     5
 10
-99.777000000000001
 20
90.344885000000005
 30
0.0
 40
2.6265000000000001
 50
180.0
 51
0.0
  0
ARC
  5
514
  8
DETAIL
  6
CONTINUOUS
 62
     5
 10
-99.777000000000001
 20
125.014685
 30
0.0
 40
2.6265000000000001
 50
180.0
 51
0.0
  0
ARC
  5
515
  8
DETAIL
  6
CONTINUOUS
 62
     5
 10
-99.777000000000001
 20
151.279685
 30
0.0
 40
2.6265000000000001
 50
0.0
 51
180.0
  0
LINE
  5
516
  8
DETAIL
  6
CONTINUOUS
 62
     5
 10
-118.16249999999999
 20
125.014685
 30
0.0
 11
-118.16249999999999
 21
151.279685
 31
0.0
  0
LINE
  5
517
  8
DETAIL
  6
CONTINUOUS
 62
     5
 10
-118.16249999999999
 20
90.344885000000005
 30
0.0
 11
-118.16249999999999
 21
116.60988500000001
 31
0.0
  0
LINE
  5
518
  8
DETAIL
  6
CONTINUOUS
 62
     5
 10
-107.65649999999999
 20
90.344885000000005
 30
0.0
 11
-107.65649999999999
 21
116.60988500000001
 31
0.0
  0
LINE
  5
519
  8
DETAIL
  6
CONTINUOUS
 62
     5
 10
-112.90949999999999
 20
90.344885000000005
 30
0.0
 11
-112.90949999999999
 21
116.60988500000001
 31
0.0
  0
LINE
  5
51A
  8
DETAIL
  6
CONTINUOUS
 62
     5
 10
-102.40349999999999
 20
90.344885000000005
 30
0.0
 11
-102.40349999999999
 21
116.60988500000001
 31
0.0
  0
ARC
  5
51B
  8
DETAIL
  6
CONTINUOUS
 62
     5
 10
-110.283
 20
116.60988500000001
 30
0.0
 40
2.6265000000000001
 50
0.0
 51
180.0
  0
ARC
  5
51C
  8
DETAIL
  6
CONTINUOUS
 62
     5
 10
-110.283
 20
90.344885000000005
 30
0.0
 40
2.6265000000000001
 50
180.0
 51
0.0
  0
LINE
  5
51D
  8
DETAIL
  6
CONTINUOUS
 62
     5
 10
-107.65649999999999
 20
125.014685
 30
0.0
 11
-107.65649999999999
 21
151.279685
 31
0.0
  0
LINE
  5
51E
  8
DETAIL
  6
CONTINUOUS
 62
     5
 10
-112.90949999999999
 20
125.014685
 30
0.0
 11
-112.90949999999999
 21
151.279685
 31
0.0
  0
ARC
  5
51F
  8
DETAIL
  6
CONTINUOUS
 62
     5
 10
-110.283
 20
151.279685
 30
0.0
 40
2.6265000000000001
 50
0.0
 51
180.0
  0
ARC
  5
520
  8
DETAIL
  6
CONTINUOUS
 62
     5
 10
-110.283
 20
125.014685
 30
0.0
 40
2.6265000000000001
 50
180.0
 51
0.0
  0
LINE
  5
521
  8
DETAIL
  6
CONTINUOUS
 62
     5
 10
-102.40349999999999
 20
125.014685
 30
0.0
 11
-102.40349999999999
 21
151.279685
 31
0.0
  0
LINE
  5
522
  8
DETAIL
  6
CONTINUOUS
 62
     5
 10
-97.150499999999994
 20
90.344885000000005
 30
0.0
 11
-97.150499999999994
 21
116.60988500000001
 31
0.0
  0
LINE
  5
523
  8
DETAIL
  6
CONTINUOUS
 62
     5
 10
-97.150499999999994
 20
125.014685
 30
0.0
 11
-97.150499999999994
 21
151.279685
 31
0.0
  0
ARC
  5
524
  8
DETAIL
  6
CONTINUOUS
 62
     5
 10
-68.259
 20
151.279685
 30
0.0
 40
2.6265000000000001
 50
0.0
 51
180.0
  0
ARC
  5
525
  8
DETAIL
  6
CONTINUOUS
 62
     5
 10
-68.259
 20
125.014685
 30
0.0
 40
2.6265000000000001
 50
180.0
 51
0.0
  0
ARC
  5
526
  8
DETAIL
  6
CONTINUOUS
 62
     5
 10
-68.259
 20
90.344885000000005
 30
0.0
 40
2.6265000000000001
 50
180.0
 51
0.0
  0
ARC
  5
527
  8
DETAIL
  6
CONTINUOUS
 62
     5
 10
-68.259
 20
116.60988500000001
 30
0.0
 40
2.6265000000000001
 50
0.0
 51
180.0
  0
ARC
  5
528
  8
DETAIL
  6
CONTINUOUS
 62
     5
 10
-47.247
 20
81.940084999999996
 30
0.0
 40
2.6265000000000001
 50
0.0
 51
180.0
  0
ARC
  5
529
  8
DETAIL
  6
CONTINUOUS
 62
     5
 10
-36.741
 20
81.940084999999996
 30
0.0
 40
2.6265000000000001
 50
0.0
 51
180.0
  0
ARC
  5
52A
  8
DETAIL
  6
CONTINUOUS
 62
     5
 10
-57.753
 20
81.940084999999996
 30
0.0
 40
2.6265000000000001
 50
0.0
 51
180.0
  0
ARC
  5
52B
  8
DETAIL
  6
CONTINUOUS
 62
     5
 10
-26.234999999999999
 20
81.940084999999996
 30
0.0
 40
2.6265000000000001
 50
0.0
 51
180.0
  0
ARC
  5
52C
  8
DETAIL
  6
CONTINUOUS
 62
     5
 10
-5.222999999999999
 20
81.940084999999996
 30
0.0
 40
2.6265000000000001
 50
0.0
 51
180.0
  0
ARC
  5
52D
  8
DETAIL
  6
CONTINUOUS
 62
     5
 10
-15.728999999999999
 20
81.940084999999996
 30
0.0
 40
2.6265000000000001
 50
0.0
 51
180.0
  0
ARC
  5
52E
  8
DETAIL
  6
CONTINUOUS
 62
     5
 10
-5.222999999999999
 20
55.675084999999989
 30
0.0
 40
2.6265000000000001
 50
180.0
 51
0.0
  0
ARC
  5
52F
  8
DETAIL
  6
CONTINUOUS
 62
     5
 10
-5.222999999999999
 20
13.766809
 30
0.0
 40
2.6265000000000001
 50
0.0
 51
180.0
  0
ARC
  5
530
  8
DETAIL
  6
CONTINUOUS
 62
     5
 10
-5.222999999999999
 20
22.171609
 30
0.0
 40
2.6265000000000001
 50
180.0
 51
0.0
  0
ARC
  5
531
  8
DETAIL
  6
CONTINUOUS
 62
     5
 10
-5.222999999999999
 20
48.436608999999997
 30
0.0
 40
2.6265000000000001
 50
0.0
 51
180.0
  0
LINE
  5
532
  8
DETAIL
  6
CONTINUOUS
 62
     5
 10
-34.1145
 20
48.436608999999997
 30
0.0
 11
-34.1145
 21
22.171609
 31
0.0
  0
LINE
  5
533
  8
DETAIL
  6
CONTINUOUS
 62
     5
 10
-34.1145
 20
55.675084999999989
 30
0.0
 11
-34.1145
 21
81.940084999999996
 31
0.0
  0
LINE
  5
534
  8
DETAIL
  6
CONTINUOUS
 62
     5
 10
-39.3675
 20
48.436608999999997
 30
0.0
 11
-39.3675
 21
22.171609
 31
0.0
  0
ARC
  5
535
  8
DETAIL
  6
CONTINUOUS
 62
     5
 10
-47.247
 20
13.766809
 30
0.0
 40
2.6265000000000001
 50
0.0
 51
180.0
  0
LINE
  5
536
  8
DETAIL
  6
CONTINUOUS
 62
     5
 10
-44.6205
 20
48.436608999999997
 30
0.0
 11
-44.6205
 21
22.171609
 31
0.0
  0
LINE
  5
537
  8
DETAIL
  6
CONTINUOUS
 62
     5
 10
-49.8735
 20
48.436608999999997
 30
0.0
 11
-49.8735
 21
22.171609
 31
0.0
  0
ARC
  5
538
  8
DETAIL
  6
CONTINUOUS
 62
     5
 10
-47.247
 20
22.171609
 30
0.0
 40
2.6265000000000001
 50
180.0
 51
0.0
  0
ARC
  5
539
  8
DETAIL
  6
CONTINUOUS
 62
     5
 10
-47.247
 20
48.436608999999997
 30
0.0
 40
2.6265000000000001
 50
0.0
 51
180.0
  0
ARC
  5
53A
  8
DETAIL
  6
CONTINUOUS
 62
     5
 10
-47.247
 20
55.675084999999989
 30
0.0
 40
2.6265000000000001
 50
180.0
 51
0.0
  0
LINE
  5
53B
  8
DETAIL
  6
CONTINUOUS
 62
     5
 10
-39.3675
 20
55.675084999999989
 30
0.0
 11
-39.3675
 21
81.940084999999996
 31
0.0
  0
LINE
  5
53C
  8
DETAIL
  6
CONTINUOUS
 62
     5
 10
-44.6205
 20
55.675084999999989
 30
0.0
 11
-44.6205
 21
81.940084999999996
 31
0.0
  0
LINE
  5
53D
  8
DETAIL
  6
CONTINUOUS
 62
     5
 10
-49.8735
 20
55.675084999999989
 30
0.0
 11
-49.8735
 21
81.940084999999996
 31
0.0
  0
LINE
  5
53E
  8
DETAIL
  6
CONTINUOUS
 62
     5
 10
-60.3795
 20
55.675084999999989
 30
0.0
 11
-60.3795
 21
81.940084999999996
 31
0.0
  0
LINE
  5
53F
  8
DETAIL
  6
CONTINUOUS
 62
     5
 10
-55.1265
 20
55.675084999999989
 30
0.0
 11
-55.1265
 21
81.940084999999996
 31
0.0
  0
ARC
  5
540
  8
DETAIL
  6
CONTINUOUS
 62
     5
 10
-57.753
 20
55.675084999999989
 30
0.0
 40
2.6265000000000001
 50
180.0
 51
0.0
  0
ARC
  5
541
  8
DETAIL
  6
CONTINUOUS
 62
     5
 10
-57.753
 20
48.436608999999997
 30
0.0
 40
2.6265000000000001
 50
0.0
 51
180.0
  0
ARC
  5
542
  8
DETAIL
  6
CONTINUOUS
 62
     5
 10
-57.753
 20
22.171609
 30
0.0
 40
2.6265000000000001
 50
180.0
 51
0.0
  0
LINE
  5
543
  8
DETAIL
  6
CONTINUOUS
 62
     5
 10
-60.3795
 20
48.436608999999997
 30
0.0
 11
-60.3795
 21
22.171609
 31
0.0
  0
LINE
  5
544
  8
DETAIL
  6
CONTINUOUS
 62
     5
 10
-55.1265
 20
48.436608999999997
 30
0.0
 11
-55.1265
 21
22.171609
 31
0.0
  0
ARC
  5
545
  8
DETAIL
  6
CONTINUOUS
 62
     5
 10
-57.753
 20
13.766809
 30
0.0
 40
2.6265000000000001
 50
0.0
 51
180.0
  0
ARC
  5
546
  8
DETAIL
  6
CONTINUOUS
 62
     5
 10
-36.741
 20
48.436608999999997
 30
0.0
 40
2.6265000000000001
 50
0.0
 51
180.0
  0
ARC
  5
547
  8
DETAIL
  6
CONTINUOUS
 62
     5
 10
-36.741
 20
22.171609
 30
0.0
 40
2.6265000000000001
 50
180.0
 51
0.0
  0
ARC
  5
548
  8
DETAIL
  6
CONTINUOUS
 62
     5
 10
-36.741
 20
13.766809
 30
0.0
 40
2.6265000000000001
 50
0.0
 51
180.0
  0
ARC
  5
549
  8
DETAIL
  6
CONTINUOUS
 62
     5
 10
-36.741
 20
55.675084999999989
 30
0.0
 40
2.6265000000000001
 50
180.0
 51
0.0
  0
ARC
  5
54A
  8
DETAIL
  6
CONTINUOUS
 62
     5
 10
-26.234999999999999
 20
13.766809
 30
0.0
 40
2.6265000000000001
 50
0.0
 51
180.0
  0
LINE
  5
54B
  8
DETAIL
  6
CONTINUOUS
 62
     5
 10
-23.608499999999999
 20
48.436608999999997
 30
0.0
 11
-23.608499999999999
 21
22.171609
 31
0.0
  0
LINE
  5
54C
  8
DETAIL
  6
CONTINUOUS
 62
     5
 10
-28.861499999999999
 20
48.436608999999997
 30
0.0
 11
-28.861499999999999
 21
22.171609
 31
0.0
  0
ARC
  5
54D
  8
DETAIL
  6
CONTINUOUS
 62
     5
 10
-26.234999999999999
 20
22.171609
 30
0.0
 40
2.6265000000000001
 50
180.0
 51
0.0
  0
ARC
  5
54E
  8
DETAIL
  6
CONTINUOUS
 62
     5
 10
-26.234999999999999
 20
48.436608999999997
 30
0.0
 40
2.6265000000000001
 50
0.0
 51
180.0
  0
ARC
  5
54F
  8
DETAIL
  6
CONTINUOUS
 62
     5
 10
-26.234999999999999
 20
55.675084999999989
 30
0.0
 40
2.6265000000000001
 50
180.0
 51
0.0
  0
LINE
  5
550
  8
DETAIL
  6
CONTINUOUS
 62
     5
 10
-23.608499999999999
 20
55.675084999999989
 30
0.0
 11
-23.608499999999999
 21
81.940084999999996
 31
0.0
  0
LINE
  5
551
  8
DETAIL
  6
CONTINUOUS
 62
     5
 10
-28.861499999999999
 20
55.675084999999989
 30
0.0
 11
-28.861499999999999
 21
81.940084999999996
 31
0.0
  0
LINE
  5
552
  8
DETAIL
  6
CONTINUOUS
 62
     5
 10
-18.355499999999999
 20
55.675084999999989
 30
0.0
 11
-18.355499999999999
 21
81.940084999999996
 31
0.0
  0
LINE
  5
553
  8
DETAIL
  6
CONTINUOUS
 62
     5
 10
-13.102499999999999
 20
55.675084999999989
 30
0.0
 11
-13.102499999999999
 21
81.940084999999996
 31
0.0
  0
LINE
  5
554
  8
DETAIL
  6
CONTINUOUS
 62
     5
 10
-7.849499999999999
 20
55.675084999999989
 30
0.0
 11
-7.849499999999999
 21
81.940084999999996
 31
0.0
  0
ARC
  5
555
  8
DETAIL
  6
CONTINUOUS
 62
     5
 10
-15.728999999999999
 20
55.675084999999989
 30
0.0
 40
2.6265000000000001
 50
180.0
 51
0.0
  0
ARC
  5
556
  8
DETAIL
  6
CONTINUOUS
 62
     5
 10
-15.728999999999999
 20
48.436608999999997
 30
0.0
 40
2.6265000000000001
 50
0.0
 51
180.0
  0
ARC
  5
557
  8
DETAIL
  6
CONTINUOUS
 62
     5
 10
-15.728999999999999
 20
22.171609
 30
0.0
 40
2.6265000000000001
 50
180.0
 51
0.0
  0
LINE
  5
558
  8
DETAIL
  6
CONTINUOUS
 62
     5
 10
-18.355499999999999
 20
48.436608999999997
 30
0.0
 11
-18.355499999999999
 21
22.171609
 31
0.0
  0
LINE
  5
559
  8
DETAIL
  6
CONTINUOUS
 62
     5
 10
-13.102499999999999
 20
48.436608999999997
 30
0.0
 11
-13.102499999999999
 21
22.171609
 31
0.0
  0
ARC
  5
55A
  8
DETAIL
  6
CONTINUOUS
 62
     5
 10
-15.728999999999999
 20
13.766809
 30
0.0
 40
2.6265000000000001
 50
0.0
 51
180.0
  0
LINE
  5
55B
  8
DETAIL
  6
CONTINUOUS
 62
     5
 10
-7.849499999999999
 20
48.436608999999997
 30
0.0
 11
-7.849499999999999
 21
22.171609
 31
0.0
  0
LINE
  5
55C
  8
DETAIL
  6
CONTINUOUS
 62
     5
 10
-2.5964999999999989
 20
55.675084999999989
 30
0.0
 11
-2.5964999999999989
 21
81.940084999999996
 31
0.0
  0
LINE
  5
55D
  8
DETAIL
  6
CONTINUOUS
 62
     5
 10
-2.5964999999999989
 20
48.436608999999997
 30
0.0
 11
-2.5964999999999989
 21
22.171609
 31
0.0
  0
ARC
  5
55E
  8
DETAIL
  6
CONTINUOUS
 62
     5
 10
-5.222999999999999
 20
116.60988500000001
 30
0.0
 40
2.6265000000000001
 50
0.0
 51
180.0
  0
ARC
  5
55F
  8
DETAIL
  6
CONTINUOUS
 62
     5
 10
-5.222999999999999
 20
90.344885000000005
 30
0.0
 40
2.6265000000000001
 50
180.0
 51
0.0
  0
ARC
  5
560
  8
DETAIL
  6
CONTINUOUS
 62
     5
 10
-5.222999999999999
 20
125.014685
 30
0.0
 40
2.6265000000000001
 50
180.0
 51
0.0
  0
ARC
  5
561
  8
DETAIL
  6
CONTINUOUS
 62
     5
 10
-5.222999999999999
 20
151.279685
 30
0.0
 40
2.6265000000000001
 50
0.0
 51
180.0
  0
LINE
  5
562
  8
DETAIL
  6
CONTINUOUS
 62
     5
 10
-34.1145
 20
125.014685
 30
0.0
 11
-34.1145
 21
151.279685
 31
0.0
  0
LINE
  5
563
  8
DETAIL
  6
CONTINUOUS
 62
     5
 10
-34.1145
 20
90.344885000000005
 30
0.0
 11
-34.1145
 21
116.60988500000001
 31
0.0
  0
LINE
  5
564
  8
DETAIL
  6
CONTINUOUS
 62
     5
 10
-39.3675
 20
125.014685
 30
0.0
 11
-39.3675
 21
151.279685
 31
0.0
  0
ARC
  5
565
  8
DETAIL
  6
CONTINUOUS
 62
     5
 10
-47.247
 20
125.014685
 30
0.0
 40
2.6265000000000001
 50
180.0
 51
0.0
  0
ARC
  5
566
  8
DETAIL
  6
CONTINUOUS
 62
     5
 10
-47.247
 20
151.279685
 30
0.0
 40
2.6265000000000001
 50
0.0
 51
180.0
  0
LINE
  5
567
  8
DETAIL
  6
CONTINUOUS
 62
     5
 10
-49.8735
 20
125.014685
 30
0.0
 11
-49.8735
 21
151.279685
 31
0.0
  0
LINE
  5
568
  8
DETAIL
  6
CONTINUOUS
 62
     5
 10
-44.6205
 20
125.014685
 30
0.0
 11
-44.6205
 21
151.279685
 31
0.0
  0
ARC
  5
569
  8
DETAIL
  6
CONTINUOUS
 62
     5
 10
-47.247
 20
90.344885000000005
 30
0.0
 40
2.6265000000000001
 50
180.0
 51
0.0
  0
ARC
  5
56A
  8
DETAIL
  6
CONTINUOUS
 62
     5
 10
-47.247
 20
116.60988500000001
 30
0.0
 40
2.6265000000000001
 50
0.0
 51
180.0
  0
LINE
  5
56B
  8
DETAIL
  6
CONTINUOUS
 62
     5
 10
-39.3675
 20
90.344885000000005
 30
0.0
 11
-39.3675
 21
116.60988500000001
 31
0.0
  0
LINE
  5
56C
  8
DETAIL
  6
CONTINUOUS
 62
     5
 10
-49.8735
 20
90.344885000000005
 30
0.0
 11
-49.8735
 21
116.60988500000001
 31
0.0
  0
LINE
  5
56D
  8
DETAIL
  6
CONTINUOUS
 62
     5
 10
-44.6205
 20
90.344885000000005
 30
0.0
 11
-44.6205
 21
116.60988500000001
 31
0.0
  0
LINE
  5
56E
  8
DETAIL
  6
CONTINUOUS
 62
     5
 10
-55.1265
 20
90.344885000000005
 30
0.0
 11
-55.1265
 21
116.60988500000001
 31
0.0
  0
LINE
  5
56F
  8
DETAIL
  6
CONTINUOUS
 62
     5
 10
-60.3795
 20
90.344885000000005
 30
0.0
 11
-60.3795
 21
116.60988500000001
 31
0.0
  0
ARC
  5
570
  8
DETAIL
  6
CONTINUOUS
 62
     5
 10
-57.753
 20
116.60988500000001
 30
0.0
 40
2.6265000000000001
 50
0.0
 51
180.0
  0
ARC
  5
571
  8
DETAIL
  6
CONTINUOUS
 62
     5
 10
-57.753
 20
90.344885000000005
 30
0.0
 40
2.6265000000000001
 50
180.0
 51
0.0
  0
LINE
  5
572
  8
DETAIL
  6
CONTINUOUS
 62
     5
 10
-55.1265
 20
125.014685
 30
0.0
 11
-55.1265
 21
151.279685
 31
0.0
  0
LINE
  5
573
  8
DETAIL
  6
CONTINUOUS
 62
     5
 10
-60.3795
 20
125.014685
 30
0.0
 11
-60.3795
 21
151.279685
 31
0.0
  0
ARC
  5
574
  8
DETAIL
  6
CONTINUOUS
 62
     5
 10
-57.753
 20
151.279685
 30
0.0
 40
2.6265000000000001
 50
0.0
 51
180.0
  0
ARC
  5
575
  8
DETAIL
  6
CONTINUOUS
 62
     5
 10
-57.753
 20
125.014685
 30
0.0
 40
2.6265000000000001
 50
180.0
 51
0.0
  0
ARC
  5
576
  8
DETAIL
  6
CONTINUOUS
 62
     5
 10
-36.741
 20
151.279685
 30
0.0
 40
2.6265000000000001
 50
0.0
 51
180.0
  0
ARC
  5
577
  8
DETAIL
  6
CONTINUOUS
 62
     5
 10
-36.741
 20
125.014685
 30
0.0
 40
2.6265000000000001
 50
180.0
 51
0.0
  0
ARC
  5
578
  8
DETAIL
  6
CONTINUOUS
 62
     5
 10
-36.741
 20
90.344885000000005
 30
0.0
 40
2.6265000000000001
 50
180.0
 51
0.0
  0
ARC
  5
579
  8
DETAIL
  6
CONTINUOUS
 62
     5
 10
-36.741
 20
116.60988500000001
 30
0.0
 40
2.6265000000000001
 50
0.0
 51
180.0
  0
ARC
  5
57A
  8
DETAIL
  6
CONTINUOUS
 62
     5
 10
-26.234999999999999
 20
125.014685
 30
0.0
 40
2.6265000000000001
 50
180.0
 51
0.0
  0
ARC
  5
57B
  8
DETAIL
  6
CONTINUOUS
 62
     5
 10
-26.234999999999999
 20
151.279685
 30
0.0
 40
2.6265000000000001
 50
0.0
 51
180.0
  0
LINE
  5
57C
  8
DETAIL
  6
CONTINUOUS
 62
     5
 10
-28.861499999999999
 20
125.014685
 30
0.0
 11
-28.861499999999999
 21
151.279685
 31
0.0
  0
LINE
  5
57D
  8
DETAIL
  6
CONTINUOUS
 62
     5
 10
-23.608499999999999
 20
125.014685
 30
0.0
 11
-23.608499999999999
 21
151.279685
 31
0.0
  0
ARC
  5
57E
  8
DETAIL
  6
CONTINUOUS
 62
     5
 10
-26.234999999999999
 20
90.344885000000005
 30
0.0
 40
2.6265000000000001
 50
180.0
 51
0.0
  0
ARC
  5
57F
  8
DETAIL
  6
CONTINUOUS
 62
     5
 10
-26.234999999999999
 20
116.60988500000001
 30
0.0
 40
2.6265000000000001
 50
0.0
 51
180.0
  0
LINE
  5
580
  8
DETAIL
  6
CONTINUOUS
 62
     5
 10
-28.861499999999999
 20
90.344885000000005
 30
0.0
 11
-28.861499999999999
 21
116.60988500000001
 31
0.0
  0
LINE
  5
581
  8
DETAIL
  6
CONTINUOUS
 62
     5
 10
-23.608499999999999
 20
90.344885000000005
 30
0.0
 11
-23.608499999999999
 21
116.60988500000001
 31
0.0
  0
LINE
  5
582
  8
DETAIL
  6
CONTINUOUS
 62
     5
 10
-13.102499999999999
 20
90.344885000000005
 30
0.0
 11
-13.102499999999999
 21
116.60988500000001
 31
0.0
  0
LINE
  5
583
  8
DETAIL
  6
CONTINUOUS
 62
     5
 10
-18.355499999999999
 20
90.344885000000005
 30
0.0
 11
-18.355499999999999
 21
116.60988500000001
 31
0.0
  0
LINE
  5
584
  8
DETAIL
  6
CONTINUOUS
 62
     5
 10
-7.849499999999999
 20
90.344885000000005
 30
0.0
 11
-7.849499999999999
 21
116.60988500000001
 31
0.0
  0
ARC
  5
585
  8
DETAIL
  6
CONTINUOUS
 62
     5
 10
-15.728999999999999
 20
116.60988500000001
 30
0.0
 40
2.6265000000000001
 50
0.0
 51
180.0
  0
ARC
  5
586
  8
DETAIL
  6
CONTINUOUS
 62
     5
 10
-15.728999999999999
 20
90.344885000000005
 30
0.0
 40
2.6265000000000001
 50
180.0
 51
0.0
  0
LINE
  5
587
  8
DETAIL
  6
CONTINUOUS
 62
     5
 10
-13.102499999999999
 20
125.014685
 30
0.0
 11
-13.102499999999999
 21
151.279685
 31
0.0
  0
LINE
  5
588
  8
DETAIL
  6
CONTINUOUS
 62
     5
 10
-18.355499999999999
 20
125.014685
 30
0.0
 11
-18.355499999999999
 21
151.279685
 31
0.0
  0
ARC
  5
589
  8
DETAIL
  6
CONTINUOUS
 62
     5
 10
-15.728999999999999
 20
151.279685
 30
0.0
 40
2.6265000000000001
 50
0.0
 51
180.0
  0
ARC
  5
58A
  8
DETAIL
  6
CONTINUOUS
 62
     5
 10
-15.728999999999999
 20
125.014685
 30
0.0
 40
2.6265000000000001
 50
180.0
 51
0.0
  0
LINE
  5
58B
  8
DETAIL
  6
CONTINUOUS
 62
     5
 10
-7.849499999999999
 20
125.014685
 30
0.0
 11
-7.849499999999999
 21
151.279685
 31
0.0
  0
LINE
  5
58C
  8
DETAIL
  6
CONTINUOUS
 62
     5
 10
-2.5964999999999989
 20
90.344885000000005
 30
0.0
 11
-2.5964999999999989
 21
116.60988500000001
 31
0.0
  0
LINE
  5
58D
  8
DETAIL
  6
CONTINUOUS
 62
     5
 10
-2.5964999999999989
 20
125.014685
 30
0.0
 11
-2.5964999999999989
 21
151.279685
 31
0.0
  0
LINE
  5
58E
  8
DETAIL
  6
CONTINUOUS
 62
     5
 10
-186.45150000000001
 20
13.766809
 30
0.0
 11
-186.45150000000001
 21
-12.498191
 31
0.0
  0
LINE
  5
58F
  8
DETAIL
  6
CONTINUOUS
 62
     5
 10
-181.1985
 20
13.766809
 30
0.0
 11
-181.1985
 21
-12.498191
 31
0.0
  0
ARC
  5
590
  8
DETAIL
  6
CONTINUOUS
 62
     5
 10
-183.82499999999999
 20
-81.837790999999996
 30
0.0
 40
2.6265000000000001
 50
180.0
 51
0.0
  0
ARC
  5
591
  8
DETAIL
  6
CONTINUOUS
 62
     5
 10
-183.82499999999999
 20
-90.242591000000004
 30
0.0
 40
2.6265000000000001
 50
0.0
 51
180.0
  0
ARC
  5
592
  8
DETAIL
  6
CONTINUOUS
 62
     5
 10
-183.82499999999999
 20
-124.912391
 30
0.0
 40
2.6265000000000001
 50
0.0
 51
180.0
  0
ARC
  5
593
  8
DETAIL
  6
CONTINUOUS
 62
     5
 10
-183.82499999999999
 20
-151.177391
 30
0.0
 40
2.6265000000000001
 50
180.0
 51
0.0
  0
ARC
  5
594
  8
DETAIL
  6
CONTINUOUS
 62
     5
 10
-183.82499999999999
 20
-116.50759100000001
 30
0.0
 40
2.6265000000000001
 50
180.0
 51
0.0
  0
LINE
  5
595
  8
DETAIL
  6
CONTINUOUS
 62
     5
 10
-186.45150000000001
 20
-124.912391
 30
0.0
 11
-186.45150000000001
 21
-151.177391
 31
0.0
  0
LINE
  5
596
  8
DETAIL
  6
CONTINUOUS
 62
     5
 10
-186.45150000000001
 20
-90.242591000000004
 30
0.0
 11
-186.45150000000001
 21
-116.50759100000001
 31
0.0
  0
LINE
  5
597
  8
DETAIL
  6
CONTINUOUS
 62
     5
 10
-181.1985
 20
-124.912391
 30
0.0
 11
-181.1985
 21
-151.177391
 31
0.0
  0
LINE
  5
598
  8
DETAIL
  6
CONTINUOUS
 62
     5
 10
-181.1985
 20
-90.242591000000004
 30
0.0
 11
-181.1985
 21
-116.50759100000001
 31
0.0
  0
ARC
  5
599
  8
DETAIL
  6
CONTINUOUS
 62
     5
 10
-183.82499999999999
 20
-20.902991
 30
0.0
 40
2.6265000000000001
 50
0.0
 51
180.0
  0
ARC
  5
59A
  8
DETAIL
  6
CONTINUOUS
 62
     5
 10
-183.82499999999999
 20
-12.498191
 30
0.0
 40
2.6265000000000001
 50
180.0
 51
0.0
  0
ARC
  5
59B
  8
DETAIL
  6
CONTINUOUS
 62
     5
 10
-183.82499999999999
 20
-47.167991000000001
 30
0.0
 40
2.6265000000000001
 50
180.0
 51
0.0
  0
ARC
  5
59C
  8
DETAIL
  6
CONTINUOUS
 62
     5
 10
-183.82499999999999
 20
-55.572791000000002
 30
0.0
 40
2.6265000000000001
 50
0.0
 51
180.0
  0
LINE
  5
59D
  8
DETAIL
  6
CONTINUOUS
 62
     5
 10
-186.45150000000001
 20
-55.572791000000002
 30
0.0
 11
-186.45150000000001
 21
-81.837790999999996
 31
0.0
  0
LINE
  5
59E
  8
DETAIL
  6
CONTINUOUS
 62
     5
 10
-186.45150000000001
 20
-20.902991
 30
0.0
 11
-186.45150000000001
 21
-47.167991000000001
 31
0.0
  0
LINE
  5
59F
  8
DETAIL
  6
CONTINUOUS
 62
     5
 10
-181.1985
 20
-55.572791000000002
 30
0.0
 11
-181.1985
 21
-81.837790999999996
 31
0.0
  0
LINE
  5
5A0
  8
DETAIL
  6
CONTINUOUS
 62
     5
 10
-181.1985
 20
-20.902991
 30
0.0
 11
-181.1985
 21
-47.167991000000001
 31
0.0
  0
ARC
  5
5A1
  8
DETAIL
  6
CONTINUOUS
 62
     5
 10
-183.82499999999999
 20
81.940084999999996
 30
0.0
 40
2.6265000000000001
 50
0.0
 51
180.0
  0
ARC
  5
5A2
  8
DETAIL
  6
CONTINUOUS
 62
     5
 10
-183.82499999999999
 20
13.766809
 30
0.0
 40
2.6265000000000001
 50
0.0
 51
180.0
  0
ARC
  5
5A3
  8
DETAIL
  6
CONTINUOUS
 62
     5
 10
-183.82499999999999
 20
22.171609
 30
0.0
 40
2.6265000000000001
 50
180.0
 51
0.0
  0
ARC
  5
5A4
  8
DETAIL
  6
CONTINUOUS
 62
     5
 10
-183.82499999999999
 20
48.436608999999997
 30
0.0
 40
2.6265000000000001
 50
0.0
 51
180.0
  0
ARC
  5
5A5
  8
DETAIL
  6
CONTINUOUS
 62
     5
 10
-183.82499999999999
 20
55.675084999999989
 30
0.0
 40
2.6265000000000001
 50
180.0
 51
0.0
  0
LINE
  5
5A6
  8
DETAIL
  6
CONTINUOUS
 62
     5
 10
-186.45150000000001
 20
48.436608999999997
 30
0.0
 11
-186.45150000000001
 21
22.171609
 31
0.0
  0
LINE
  5
5A7
  8
DETAIL
  6
CONTINUOUS
 62
     5
 10
-186.45150000000001
 20
55.675084999999989
 30
0.0
 11
-186.45150000000001
 21
81.940084999999996
 31
0.0
  0
LINE
  5
5A8
  8
DETAIL
  6
CONTINUOUS
 62
     5
 10
-181.1985
 20
48.436608999999997
 30
0.0
 11
-181.1985
 21
22.171609
 31
0.0
  0
LINE
  5
5A9
  8
DETAIL
  6
CONTINUOUS
 62
     5
 10
-181.1985
 20
55.675084999999989
 30
0.0
 11
-181.1985
 21
81.940084999999996
 31
0.0
  0
ARC
  5
5AA
  8
DETAIL
  6
CONTINUOUS
 62
     5
 10
-183.82499999999999
 20
125.014685
 30
0.0
 40
2.6265000000000001
 50
180.0
 51
0.0
  0
ARC
  5
5AB
  8
DETAIL
  6
CONTINUOUS
 62
     5
 10
-183.82499999999999
 20
151.279685
 30
0.0
 40
2.6265000000000001
 50
0.0
 51
180.0
  0
ARC
  5
5AC
  8
DETAIL
  6
CONTINUOUS
 62
     5
 10
-183.82499999999999
 20
90.344885000000005
 30
0.0
 40
2.6265000000000001
 50
180.0
 51
0.0
  0
ARC
  5
5AD
  8
DETAIL
  6
CONTINUOUS
 62
     5
 10
-183.82499999999999
 20
116.60988500000001
 30
0.0
 40
2.6265000000000001
 50
0.0
 51
180.0
  0
LINE
  5
5AE
  8
DETAIL
  6
CONTINUOUS
 62
     5
 10
-186.45150000000001
 20
125.014685
 30
0.0
 11
-186.45150000000001
 21
151.279685
 31
0.0
  0
LINE
  5
5AF
  8
DETAIL
  6
CONTINUOUS
 62
     5
 10
-186.45150000000001
 20
90.344885000000005
 30
0.0
 11
-186.45150000000001
 21
116.60988500000001
 31
0.0
  0
LINE
  5
5B0
  8
DETAIL
  6
CONTINUOUS
 62
     5
 10
-181.1985
 20
125.014685
 30
0.0
 11
-181.1985
 21
151.279685
 31
0.0
  0
LINE
  5
5B1
  8
DETAIL
  6
CONTINUOUS
 62
     5
 10
-181.1985
 20
90.344885000000005
 30
0.0
 11
-181.1985
 21
116.60988500000001
 31
0.0
  0
LINE
  5
5B2
  8
SIZE
  6
CONTINUOUS
 62
    30
 10
189.5
 20
175.0
 30
0.0
 11
189.5
 21
397.01614999999998
 31
0.0
  0
LINE
  5
5B3
  8
SIZE
  6
CONTINUOUS
 62
    30
 10
-189.5
 20
187.0
 30
0.0
 11
-189.5
 21
397.01614999999998
 31
0.0
  0
LINE
  5
5B4
  8
SIZE
  6
CONTINUOUS
 62
    30
 10
177.5
 20
377.01614999999998
 30
0.0
 11
-177.5
 21
377.01614999999998
 31
0.0
  0
CIRCLE
  5
5B5
  8
SIZE
  6
CONTINUOUS
 62
    30
 10
189.5
 20
377.01614999999998
 30
0.0
 40
6.0
  0
LINE
  5
5B6
  8
SIZE
  6
CONTINUOUS
 62
    30
 10
189.5
 20
377.01614999999998
 30
0.0
 11
177.5
 21
377.01614999999998
 31
0.0
  0
CIRCLE
  5
5B7
  8
SIZE
  6
CONTINUOUS
 62
    30
 10
-189.5
 20
377.01614999999998
 30
0.0
 40
6.0
  0
LINE
  5
5B8
  8
SIZE
  6
CONTINUOUS
 62
    30
 10
-189.5
 20
377.01614999999998
 30
0.0
 11
-177.5
 21
377.01614999999998
 31
0.0
  0
TEXT
  5
5B9
  8
SIZE
  6
CONTINUOUS
 62
    30
 10
-72.685714285714283
 20
402.01614999999993
 30
0.0
 40
64.0
  1
379
 41
0.9
 72
     1
 11
0.0
 21
402.01614999999993
 31
0.0
  0
POINT
  5
5BA
  8
DEFPOINTS
  6
CONTINUOUS
 62
    30
 10
189.5
 20
155.0
 30
0.0
  0
POINT
  5
5BB
  8
DEFPOINTS
  6
CONTINUOUS
 62
    30
 10
-189.5
 20
167.0
 30
0.0
  0
POINT
  5
5BC
  8
DEFPOINTS
  6
CONTINUOUS
 62
    30
 10
-189.5
 20
377.01614999999998
 30
0.0
  0
LINE
  5
5BD
  8
SIZE
  6
CONTINUOUS
 62
    30
 10
189.5
 20
187.0
 30
0.0
 11
471.65513399999992
 21
187.0
 31
0.0
  0
LINE
  5
5BE
  8
SIZE
  6
CONTINUOUS
 62
    30
 10
189.5
 20
-187.0
 30
0.0
 11
471.65513399999992
 21
-187.0
 31
0.0
  0
LINE
  5
5BF
  8
SIZE
  6
CONTINUOUS
 62
    30
 10
451.65513399999992
 20
175.0
 30
0.0
 11
451.65513399999992
 21
-175.0
 31
0.0
  0
CIRCLE
  5
5C0
  8
SIZE
  6
CONTINUOUS
 62
    30
 10
451.65513399999992
 20
187.0
 30
0.0
 40
6.0
  0
LINE
  5
5C1
  8
SIZE
  6
CONTINUOUS
 62
    30
 10
451.65513399999992
 20
187.0
 30
0.0
 11
451.65513399999992
 21
175.0
 31
0.0
  0
CIRCLE
  5
5C2
  8
SIZE
  6
CONTINUOUS
 62
    30
 10
451.65513399999992
 20
-187.0
 30
0.0
 40
6.0
  0
LINE
  5
5C3
  8
SIZE
  6
CONTINUOUS
 62
    30
 10
451.65513399999992
 20
-187.0
 30
0.0
 11
451.65513399999992
 21
-175.0
 31
0.0
  0
TEXT
  5
5C4
  8
SIZE
  6
CONTINUOUS
 62
    30
 10
426.65513399999992
 20
-75.428571428571416
 30
0.0
 40
64.0
  1
374
 50
90.0
 41
0.9
 72
     1
 11
426.65513399999992
 21
0.0
 31
0.0
  0
POINT
  5
5C5
  8
DEFPOINTS
  6
CONTINUOUS
 62
    30
 10
169.5
 20
187.0
 30
0.0
  0
POINT
  5
5C6
  8
DEFPOINTS
  6
CONTINUOUS
 62
    30
 10
169.5
 20
-187.0
 30
0.0
  0
POINT
  5
5C7
  8
DEFPOINTS
  6
CONTINUOUS
 62
    30
 10
451.65513399999992
 20
-187.0
 30
0.0
  0
LINE
  5
5C8
  8
OUTLINE
  6
CONTINUOUS
 62
     3
 10
-169.5
 20
187.0
 30
0.0
 11
169.5
 21
187.0
 31
0.0
  0
ARC
  5
5C9
  8
OUTLINE
  6
CONTINUOUS
 62
     3
 10
-169.5
 20
167.0
 30
0.0
 40
20.0
 50
90.0
 51
180.0
  0
ARC
  5
5CA
  8
OUTLINE
  6
CONTINUOUS
 62
     3
 10
169.5
 20
167.0
 30
0.0
 40
20.0
 50
0.0
 51
90.0
  0
LINE
  5
5CB
  8
OUTLINE
  6
CONTINUOUS
 62
     3
 10
-169.5
 20
-187.0
 30
0.0
 11
169.5
 21
-187.0
 31
0.0
  0
ARC
  5
5CC
  8
OUTLINE
  6
CONTINUOUS
 62
     3
 10
169.5
 20
-167.0
 30
0.0
 40
20.0
 50
270.0
 51
0.0
  0
ARC
  5
5CD
  8
OUTLINE
  6
CONTINUOUS
 62
     3
 10
-169.5
 20
-167.0
 30
0.0
 40
20.0
 50
180.0
 51
270.0
  0
LINE
  5
5CE
  8
OUTLINE
  6
CONTINUOUS
 62
     3
 10
-189.5
 20
167.0
 30
0.0
 11
-189.5
 21
-167.0
 31
0.0
  0
LINE
  5
5CF
  8
OUTLINE
  6
CONTINUOUS
 62
     3
 10
189.5
 20
167.0
 30
0.0
 11
189.5
 21
-167.0
 31
0.0
  0
TEXT
  5
5D7
  8
ETC
  6
CONTINUOUS
 62
    61
 10
296.44122249420781
 20
592.05562960882287
 30
0.0
 40
64.0
  1
EFG-25MSB2_2
 41
0.9
  0
TEXT
  5
5D8
  8
ETC
  6
CONTINUOUS
 62
    61
 10
299.85781749420778
 20
485.71150260882291
 30
0.0
 40
64.0
  1
産業扇
 41
0.9
  0
TEXT
  5
5D9
  8
ETC
  6
CONTINUOUS
 62
    61
 10
372.42475061308119
 20
377.47491753293531
 30
0.0
 40
64.0
  1
EFG-25MSB2
 41
0.9
  0
ENDSEC
  0
EOF
