  0
SECTION
  2
HEADER
  9
$ACADVER
  1
AC1009
  9
$DWGCODEPAGE
  3
dos932
  9
$INSBASE
 10
0.0
 20
0.0
 30
0.0
  9
$EXTMIN
 10
-628.56901420579561
 20
-332.93150671866169
 30
-0.0015257624927045
  9
$EXTMAX
 10
1085.380565835372
 20
872.22290874019018
 30
0.0022888765696933
  9
$LIMMIN
 10
-2970.0
 20
-2100.0
  9
$LIMMAX
 10
2970.0
 20
2100.0
  9
$ORTHOMODE
 70
     1
  9
$REGENMODE
 70
     1
  9
$FILLMODE
 70
     1
  9
$QTEXTMODE
 70
     0
  9
$MIRRTEXT
 70
     0
  9
$LTSCALE
 40
20.0
  9
$ATTMODE
 70
     1
  9
$TEXTSIZE
 40
64.0
  9
$TRACEWID
 40
0.05
  9
$TEXTSTYLE
  7
STANDARD
  9
$CLAYER
  8
SIZE
  9
$CELTYPE
  6
CONTINUOUS
  9
$CECOLOR
 62
     7
  9
$DIMSCALE
 40
1.0
  9
$DIMASZ
 40
12.0
  9
$DIMEXO
 40
20.0
  9
$DIMDLI
 40
200.0
  9
$DIMRND
 40
0.0
  9
$DIMDLE
 40
0.0
  9
$DIMEXE
 40
20.0
  9
$DIMTP
 40
0.0
  9
$DIMTM
 40
0.0
  9
$DIMTXT
 40
64.0
  9
$DIMCEN
 40
0.09
  9
$DIMTSZ
 40
0.0
  9
$DIMTOL
 70
     0
  9
$DIMLIM
 70
     0
  9
$DIMTIH
 70
     0
  9
$DIMTOH
 70
     0
  9
$DIMSE1
 70
     0
  9
$DIMSE2
 70
     0
  9
$DIMTAD
 70
     1
  9
$DIMZIN
 70
     8
  9
$DIMBLK
  1

  9
$DIMASO
 70
     1
  9
$DIMSHO
 70
     0
  9
$DIMPOST
  1

  9
$DIMAPOST
  1

  9
$DIMALT
 70
     0
  9
$DIMALTD
 70
     2
  9
$DIMALTF
 40
25.399999999999999
  9
$DIMLFAC
 40
1.0
  9
$DIMTOFL
 70
     1
  9
$DIMTVP
 40
0.0
  9
$DIMTIX
 70
     1
  9
$DIMSOXD
 70
     0
  9
$DIMSAH
 70
     0
  9
$DIMBLK1
  1

  9
$DIMBLK2
  1

  9
$DIMSTYLE
  2
STANDARD
  9
$DIMCLRD
 70
     7
  9
$DIMCLRE
 70
     7
  9
$DIMCLRT
 70
     7
  9
$DIMTFAC
 40
1.0
  9
$DIMGAP
 40
25.0
  9
$LUNITS
 70
     2
  9
$LUPREC
 70
     4
  9
$SKETCHINC
 40
0.1
  9
$FILLETRAD
 40
3.0
  9
$AUNITS
 70
     1
  9
$AUPREC
 70
     3
  9
$MENU
  1
ACAD
  9
$ELEVATION
 40
0.0
  9
$PELEVATION
 40
0.0
  9
$THICKNESS
 40
50.0
  9
$LIMCHECK
 70
     0
  9
$CHAMFERA
 40
0.0
  9
$CHAMFERB
 40
0.0
  9
$SKPOLY
 70
     0
  9
$TDCREATE
 40
2453019.62301037
  9
$TDUPDATE
 40
2458949.432007072
  9
$TDINDWG
 40
1.7136155208
  9
$TDUSRTIMER
 40
1.7136155208
  9
$USRTIMER
 70
     1
  9
$ANGBASE
 50
0.0
  9
$ANGDIR
 70
     0
  9
$PDMODE
 70
     3
  9
$PDSIZE
 40
-2.0
  9
$PLINEWID
 40
0.0
  9
$SPLFRAME
 70
     0
  9
$SPLINETYPE
 70
     6
  9
$SPLINESEGS
 70
     8
  9
$SURFTAB1
 70
     6
  9
$SURFTAB2
 70
     6
  9
$SURFTYPE
 70
     6
  9
$SURFU
 70
     6
  9
$SURFV
 70
     6
  9
$UCSNAME
  2

  9
$UCSORG
 10
0.0
 20
0.0
 30
0.0
  9
$UCSXDIR
 10
1.0
 20
0.0
 30
0.0
  9
$UCSYDIR
 10
0.0
 20
1.0
 30
0.0
  9
$PUCSNAME
  2

  9
$PUCSORG
 10
0.0
 20
0.0
 30
0.0
  9
$PUCSXDIR
 10
1.0
 20
0.0
 30
0.0
  9
$PUCSYDIR
 10
0.0
 20
1.0
 30
0.0
  9
$USERI1
 70
     0
  9
$USERI2
 70
     0
  9
$USERI3
 70
     0
  9
$USERI4
 70
     0
  9
$USERI5
 70
     0
  9
$USERR1
 40
20.0
  9
$USERR2
 40
0.0
  9
$USERR3
 40
0.0
  9
$USERR4
 40
0.0
  9
$USERR5
 40
0.0
  9
$WORLDVIEW
 70
     1
  9
$SHADEDGE
 70
     3
  9
$SHADEDIF
 70
    70
  9
$TILEMODE
 70
     1
  9
$MAXACTVP
 70
    48
  9
$PINSBASE
 10
0.0
 20
0.0
 30
0.0
  9
$PLIMCHECK
 70
     0
  9
$PEXTMIN
 10
-100000000000000000000.0
 20
-100000000000000000000.0
 30
-100000000000000000000.0
  9
$PEXTMAX
 10
100000000000000000000.0
 20
100000000000000000000.0
 30
100000000000000000000.0
  9
$PLIMMIN
 10
0.0
 20
0.0
  9
$PLIMMAX
 10
12.0
 20
9.0
  9
$UNITMODE
 70
     0
  9
$VISRETAIN
 70
     0
  9
$PLINEGEN
 70
     0
  9
$PSLTSCALE
 70
     0
  9
$TREEDEPTH
 70
  3020
  9
$ATTDIA
 70
     0
  9
$ATTREQ
 70
     1
  9
$BLIPMODE
 70
     1
  9
$COORDS
 70
     1
  9
$DRAGMODE
 70
     2
  9
$OSMODE
 70
     0
  9
$HANDLING
 70
     0
  9
$HANDSEED
  5
F85F
  0
ENDSEC
  0
SECTION
  2
TABLES
  0
TABLE
  2
LTYPE
 70
     2
  0
LTYPE
  2
CONTINUOUS
 70
     0
  3
実線
 72
    65
 73
     0
 40
0.0
  0
LTYPE
  2
DASHDOT
 70
     0
  3
____ _ ____ _ ____ _ ____ _ ____ _ ____ _ ____
 72
    65
 73
     4
 40
5.5
 49
4.0
 49
-0.6
 49
0.3
 49
-0.6
  0
ENDTAB
  0
TABLE
  2
LAYER
 70
    12
  0
LAYER
  2
0
 70
     0
 62
     7
  6
CONTINUOUS
  0
LAYER
  2
BASIS
 70
     0
 62
     6
  6
DASHDOT
  0
LAYER
  2
OUTLINE
 70
     0
 62
     3
  6
CONTINUOUS
  0
LAYER
  2
DETAIL
 70
     0
 62
     5
  6
CONTINUOUS
  0
LAYER
  2
SIZE
 70
     0
 62
    30
  6
CONTINUOUS
  0
LAYER
  2
ARRANGE
 70
     0
 62
     1
  6
CONTINUOUS
  0
LAYER
  2
DEFPOINTS
 70
     0
 62
     7
  6
CONTINUOUS
  0
LAYER
  2
ETC
 70
     0
 62
    61
  6
CONTINUOUS
  0
LAYER
  2
FIX
 70
     0
 62
    11
  6
CONTINUOUS
  0
LAYER
  2
NOTE
 70
     0
 62
     4
  6
CONTINUOUS
  0
LAYER
  2
SERVICESPACE
 70
    64
 62
     2
  6
DASHDOT
  0
LAYER
  2
SYMBOLLINE
 70
    64
 62
    15
  6
CONTINUOUS
  0
ENDTAB
  0
TABLE
  2
STYLE
 70
     1
  0
STYLE
  2
STANDARD
 70
     0
 40
64.0
 41
0.9
 50
0.0
 71
     0
 42
64.0
  3
SIMPLEX.shx
  4
BIGFONT.shx
  0
ENDTAB
  0
TABLE
  2
APPID
 70
    19
  0
APPID
  2
ACAD
 70
     0
  0
APPID
  2
AUTOCAD_POSTSCRIPT_FIGURE
 70
     0
  0
APPID
  2
ACAD_EXEMPT_FROM_CAD_STANDARDS
 70
     0
  0
APPID
  2
ACAD_PSEXT
 70
     0
  0
APPID
  2
ACAUTHENVIRON
 70
     0
  0
APPID
  2
GENIUS_GENOENT_13
 70
     0
  0
APPID
  2
GENIUS_GENCFG_13
 70
     0
  0
APPID
  2
GENIUS_GENCFG0_13
 70
     0
  0
APPID
  2
GENIUS_GENCFG1_13
 70
     0
  0
APPID
  2
GENIUS_GENCFG2_13
 70
     0
  0
APPID
  2
GENIUS_GENCFG3_13
 70
     0
  0
APPID
  2
GENIUS_GENCFG4_13
 70
     0
  0
APPID
  2
GENIUS_GEVCFG0_13
 70
     0
  0
APPID
  2
CONTENTBLOCKICON
 70
     0
  0
APPID
  2
CONTENTBLOCKDESCRIPTION
 70
     0
  0
APPID
  2
ACAD_NAV_VCDISPLAY
 70
     0
  0
APPID
  2
ACAD_MLEADERVER
 70
     0
  0
APPID
  2
ACDBDYNAMICBLOCKTRUENAME
 70
     0
  0
APPID
  2
ACDBDYNAMICBLOCKGUID
 70
     0
  0
ENDTAB
  0
TABLE
  2
DIMSTYLE
 70
     1
  0
DIMSTYLE
  2
STANDARD
 70
     0
  3

  4

  5
_ORIGIN
  6

  7

 40
1.0
 41
12.0
 42
20.0
 43
200.0
 44
20.0
 45
0.0
 46
0.0
 47
0.0
 48
0.0
140
64.0
141
0.09
142
0.0
143
25.399999999999999
144
1.0
145
0.0
146
1.0
147
25.0
 71
     0
 72
     0
 73
     0
 74
     0
 75
     0
 76
     0
 77
     1
 78
     8
170
     0
171
     2
172
     1
173
     0
174
     1
175
     0
176
     7
177
     7
178
     7
  0
ENDTAB
  0
TABLE
  2
VIEW
 70
     1
  0
VIEW
  2
ALL
 70
     0
 40
4282.6198079999986
 10
0.0
 20
41.309904000000003
 41
5940.0
 11
0.0
 21
0.0
 31
1.0
 12
0.0
 22
0.0
 32
0.0
 42
50.0
 43
0.0
 44
0.0
 50
0.0
 71
     0
  0
ENDTAB
  0
TABLE
  2
UCS
 70
     0
  0
ENDTAB
  0
TABLE
  2
VPORT
 70
     1
  0
VPORT
  2
*ACTIVE
 70
     0
 10
0.0
 20
0.0
 11
1.0
 21
1.0
 12
228.40577581478851
 22
269.64570101076418
 13
0.0
 23
0.0
 14
1.0
 24
1.0
 15
0.0
 25
0.0
 16
0.0
 26
0.0
 36
1.0
 17
0.0
 27
0.0
 37
0.0
 40
1213.1443894839931
 41
1.747787610619469
 42
50.0
 43
0.0
 44
0.0
 50
0.0
 51
0.0
 71
     0
 72
  1000
 73
     1
 74
     3
 75
     0
 76
     0
 77
     0
 78
     0
  0
ENDTAB
  0
ENDSEC
  0
SECTION
  2
BLOCKS
  0
BLOCK
  8
0
  2
_ORIGIN
 70
     0
 10
0.0
 20
0.0
 30
0.0
  3
_ORIGIN
  1
_ORIGIN
  0
CIRCLE
  8
0
  6
CONTINUOUS
 62
     7
 10
0.0
 20
0.0
 30
0.0
 40
0.5
  0
LINE
  8
0
  6
CONTINUOUS
 62
     7
 10
0.0
 20
0.0
 30
0.0
 11
-1.0
 21
0.0
 31
0.0
  0
ENDBLK
  8
0
  0
ENDSEC
  0
SECTION
  2
ENTITIES
  0
TEXT
  8
ETC
  6
CONTINUOUS
 62
    61
 10
341.94293499999998
 20
807.95565799999986
 30
0.0
 40
64.0
  1
EFG-30KSB2-C_5
 41
0.9
  0
TEXT
  8
ETC
  6
CONTINUOUS
 62
    61
 10
337.7569410000001
 20
690.00034800000003
 30
0.0
 40
64.0
  1
産業扇
 41
0.9
  0
TEXT
  8
ETC
  6
CONTINUOUS
 62
    61
 10
388.36444299999988
 20
583.07941200000005
 30
0.0
 40
40.0
  1
EFG-30KSB2-C
 41
0.9
  0
CIRCLE
  8
ARRANGE
  6
CONTINUOUS
 62
     1
 10
0.0
 20
0.0
 30
0.0
 40
40.0
  0
POINT
  8
ARRANGE
  6
CONTINUOUS
 62
     1
 10
0.0
 20
0.0
 30
0.0
  0
LINE
  8
BASIS
  6
DASHDOT
 62
     6
 10
-206.78537300000019
 20
0.0
 30
0.0
 11
143.6193480000002
 21
0.0
 31
0.0
  0
TEXT
  8
ETC
  6
CONTINUOUS
 62
    61
 10
388.36444299999988
 20
508.07941199999999
 30
0.0
 40
40.0
  1
EFG-30KSB2-W
 41
0.9
  0
LINE
  8
OUTLINE
  6
CONTINUOUS
 62
     3
 10
-154.83333799999991
 20
169.72042999999991
 30
0.0
 11
-154.83333799999991
 21
-174.2580640000001
 31
0.0
  0
LINE
  8
OUTLINE
  6
CONTINUOUS
 62
     3
 10
0.0
 20
108.9032219999999
 30
0.0
 11
0.0
 21
-108.9032219999999
 31
0.0
  0
ARC
  8
OUTLINE
  6
CONTINUOUS
 62
     3
 10
-5561.8118189999996
 20
0.0000059999999849
 30
0.0
 40
5672.043001
 50
358.25721200000442
 51
1.742787999995584
  0
LINE
  8
OUTLINE
  6
CONTINUOUS
 62
     3
 10
-154.83333799999991
 20
-174.2580640000001
 30
0.0
 11
0.0
 21
-174.2580640000001
 31
0.0
  0
LINE
  8
OUTLINE
  6
CONTINUOUS
 62
     3
 10
0.0
 20
-108.9032219999999
 30
0.0
 11
0.0
 21
-211.00000399999999
 31
0.0
  0
ARC
  8
OUTLINE
  6
CONTINUOUS
 62
     3
 10
73.59092899999996
 20
-171.46711400000001
 30
0.0
 40
34.032260999999998
 50
299.3427989999941
 51
358.25721200000442
  0
LINE
  8
OUTLINE
  6
CONTINUOUS
 62
     3
 10
26.360215000000149
 20
-209.86559299999999
 30
0.0
 11
2.0419360000000779
 21
-209.86559299999999
 31
0.0
  0
LINE
  8
OUTLINE
  6
CONTINUOUS
 62
     3
 10
47.913974000000053
 20
-209.86559299999999
 30
0.0
 11
26.360215000000149
 21
-209.86559299999999
 31
0.0
  0
ARC
  8
OUTLINE
  6
CONTINUOUS
 62
     3
 10
48.045126999999873
 20
-103.42344899999991
 30
0.0
 40
106.44222499999999
 50
269.92940300000282
 51
293.37035700000092
  0
LINE
  8
OUTLINE
  6
CONTINUOUS
 62
     3
 10
0.9075240000001941
 20
-211.00000399999999
 30
0.0
 11
0.0
 21
-211.00000399999999
 31
0.0
  0
ARC
  8
OUTLINE
  6
CONTINUOUS
 62
     3
 10
2.0419360000000779
 20
-211.00000399999999
 30
0.0
 40
1.1344110000000001
 50
90.0
 51
180.0
  0
LINE
  8
OUTLINE
  6
CONTINUOUS
 62
     3
 10
-154.83333799999991
 20
169.72042999999991
 30
0.0
 11
0.0
 21
169.72042999999991
 31
0.0
  0
ARC
  8
OUTLINE
  6
CONTINUOUS
 62
     3
 10
73.59092899999996
 20
171.46711400000001
 30
0.0
 40
34.032260999999998
 50
1.742787999995584
 51
60.657201000005912
  0
LINE
  8
OUTLINE
  6
CONTINUOUS
 62
     3
 10
0.0
 20
211.00000399999999
 30
0.0
 11
0.0
 21
108.9032219999999
 31
0.0
  0
LINE
  8
OUTLINE
  6
CONTINUOUS
 62
     3
 10
29.763437999999951
 20
209.86559299999999
 30
0.0
 11
2.0419360000000779
 21
209.86559299999999
 31
0.0
  0
LINE
  8
OUTLINE
  6
CONTINUOUS
 62
     3
 10
47.913974000000053
 20
209.86559299999999
 30
0.0
 11
29.763437999999951
 21
209.86559299999999
 31
0.0
  0
ARC
  8
OUTLINE
  6
CONTINUOUS
 62
     3
 10
48.045126999999873
 20
103.42344899999991
 30
0.0
 40
106.44222499999999
 50
66.62964299999912
 51
90.070596999997193
  0
LINE
  8
OUTLINE
  6
CONTINUOUS
 62
     3
 10
0.9075240000001941
 20
211.00000399999999
 30
0.0
 11
0.0
 21
211.00000399999999
 31
0.0
  0
ARC
  8
OUTLINE
  6
CONTINUOUS
 62
     3
 10
2.0419360000000779
 20
211.00000399999999
 30
0.0
 40
1.1344110000000001
 50
180.0
 51
270.0
  0
LINE
  8
SIZE
  6
CONTINUOUS
 62
    30
 10
73.957322000000204
 20
-211.00000399999999
 30
0.0
 11
334.68660499999987
 21
-211.00000399999999
 31
0.0
  0
LINE
  8
SIZE
  6
CONTINUOUS
 62
    30
 10
91.677541000000019
 20
211.00000399999999
 30
0.0
 11
334.68660499999987
 21
211.00000399999999
 31
0.0
  0
LINE
  8
SIZE
  6
CONTINUOUS
 62
    30
 10
314.68660499999987
 20
-199.00000399999999
 30
0.0
 11
314.68660499999987
 21
199.00000399999999
 31
0.0
  0
CIRCLE
  8
SIZE
  6
CONTINUOUS
 62
    30
 10
314.68660499999987
 20
-211.00000399999999
 30
0.0
 40
6.0
  0
LINE
  8
SIZE
  6
CONTINUOUS
 62
    30
 10
314.68660499999987
 20
-211.00000399999999
 30
0.0
 11
314.68660499999987
 21
-199.00000399999999
 31
0.0
  0
CIRCLE
  8
SIZE
  6
CONTINUOUS
 62
    30
 10
314.68660499999987
 20
211.00000399999999
 30
0.0
 40
6.0
  0
LINE
  8
SIZE
  6
CONTINUOUS
 62
    30
 10
314.68660499999987
 20
211.00000399999999
 30
0.0
 11
314.68660499999987
 21
199.00000399999999
 31
0.0
  0
TEXT
  8
SIZE
  6
CONTINUOUS
 62
    30
 10
289.68660499999987
 20
-110.5371428571428
 30
0.0
 40
64.0
  1
□422
 50
90.0
 41
0.9
 72
     1
 11
289.68660499999987
 21
0.0
 31
0.0
  0
POINT
  8
DEFPOINTS
  6
CONTINUOUS
 62
    30
 10
53.957322000000197
 20
-211.00000399999999
 30
0.0
  0
POINT
  8
DEFPOINTS
  6
CONTINUOUS
 62
    30
 10
71.677541000000019
 20
211.00000399999999
 30
0.0
  0
POINT
  8
DEFPOINTS
  6
CONTINUOUS
 62
    30
 10
314.68660499999987
 20
211.00000399999999
 30
0.0
  0
LINE
  8
SIZE
  6
CONTINUOUS
 62
    30
 10
-154.83333799999991
 20
187.72042999999991
 30
0.0
 11
-154.83333799999991
 21
403.89463599999999
 31
0.0
  0
LINE
  8
SIZE
  6
CONTINUOUS
 62
    30
 10
0.0
 20
232.474729
 30
0.0
 11
0.0
 21
403.89463599999999
 31
0.0
  0
LINE
  8
SIZE
  6
CONTINUOUS
 62
    30
 10
-142.83333799999991
 20
383.89463599999999
 30
0.0
 11
-12.0
 21
383.89463599999999
 31
0.0
  0
CIRCLE
  8
SIZE
  6
CONTINUOUS
 62
    30
 10
-154.83333799999991
 20
383.89463599999999
 30
0.0
 40
6.0
  0
LINE
  8
SIZE
  6
CONTINUOUS
 62
    30
 10
-154.83333799999991
 20
383.89463599999999
 30
0.0
 11
-142.83333799999991
 21
383.89463599999999
 31
0.0
  0
CIRCLE
  8
SIZE
  6
CONTINUOUS
 62
    30
 10
0.0
 20
383.89463599999999
 30
0.0
 40
6.0
  0
LINE
  8
SIZE
  6
CONTINUOUS
 62
    30
 10
0.0
 20
383.89463599999999
 30
0.0
 11
-12.0
 21
383.89463599999999
 31
0.0
  0
TEXT
  8
SIZE
  6
CONTINUOUS
 62
    30
 10
-145.98809757142871
 20
408.89463599999999
 30
0.0
 40
64.0
  1
155
 41
0.9
 72
     1
 11
-77.416669000000184
 21
408.89463599999999
 31
0.0
  0
POINT
  8
DEFPOINTS
  6
CONTINUOUS
 62
    30
 10
-154.83333799999991
 20
169.72042999999991
 30
0.0
  0
POINT
  8
DEFPOINTS
  6
CONTINUOUS
 62
    30
 10
0.0
 20
212.474729
 30
0.0
  0
POINT
  8
DEFPOINTS
  6
CONTINUOUS
 62
    30
 10
0.0
 20
383.89463599999999
 30
0.0
  0
LINE
  8
SIZE
  6
CONTINUOUS
 62
    30
 10
0.0
 20
232.474729
 30
0.0
 11
0.0
 21
283.89463599999999
 31
0.0
  0
LINE
  8
SIZE
  6
CONTINUOUS
 62
    30
 10
29.763437999999951
 20
229.86559299999999
 30
0.0
 11
29.763437999999951
 21
283.89463599999999
 31
0.0
  0
LINE
  8
SIZE
  6
CONTINUOUS
 62
    30
 10
41.763437999999951
 20
263.89463599999999
 30
0.0
 11
53.763437999999951
 21
263.89463599999999
 31
0.0
  0
LINE
  8
SIZE
  6
CONTINUOUS
 62
    30
 10
-12.0
 20
263.89463599999999
 30
0.0
 11
-167.25714299999979
 21
263.89463599999999
 31
0.0
  0
LINE
  8
SIZE
  6
CONTINUOUS
 62
    30
 10
29.763437999999951
 20
263.89463599999999
 30
0.0
 11
0.0
 21
263.89463599999999
 31
0.0
  0
CIRCLE
  8
SIZE
  6
CONTINUOUS
 62
    30
 10
29.763437999999951
 20
263.89463599999999
 30
0.0
 40
6.0
  0
LINE
  8
SIZE
  6
CONTINUOUS
 62
    30
 10
29.763437999999951
 20
263.89463599999999
 30
0.0
 11
41.763437999999951
 21
263.89463599999999
 31
0.0
  0
CIRCLE
  8
SIZE
  6
CONTINUOUS
 62
    30
 10
0.0
 20
263.89463599999999
 30
0.0
 40
6.0
  0
LINE
  8
SIZE
  6
CONTINUOUS
 62
    30
 10
0.0
 20
263.89463599999999
 30
0.0
 11
-12.0
 21
263.89463599999999
 31
0.0
  0
TEXT
  8
SIZE
  6
CONTINUOUS
 62
    30
 10
-142.2571424285716
 20
288.89463599999999
 30
0.0
 40
64.0
  1
30
 41
0.9
 72
     1
 11
-95.628571000000193
 21
288.89463599999999
 31
0.0
  0
POINT
  8
DEFPOINTS
  6
CONTINUOUS
 62
    30
 10
0.0
 20
212.474729
 30
0.0
  0
POINT
  8
DEFPOINTS
  6
CONTINUOUS
 62
    30
 10
29.763437999999951
 20
209.86559299999999
 30
0.0
  0
POINT
  8
DEFPOINTS
  6
CONTINUOUS
 62
    30
 10
29.763437999999951
 20
263.89463599999999
 30
0.0
  0
LINE
  8
SIZE
  6
CONTINUOUS
 62
    30
 10
0.0
 20
232.474729
 30
0.0
 11
0.0
 21
403.89463599999999
 31
0.0
  0
LINE
  8
SIZE
  6
CONTINUOUS
 62
    30
 10
110.231182
 20
208.6054389999999
 30
0.0
 11
110.231182
 21
403.89463599999999
 31
0.0
  0
LINE
  8
SIZE
  6
CONTINUOUS
 62
    30
 10
12.0
 20
383.89463599999999
 30
0.0
 11
98.23118199999999
 21
383.89463599999999
 31
0.0
  0
LINE
  8
SIZE
  6
CONTINUOUS
 62
    30
 10
110.231182
 20
383.89463599999999
 30
0.0
 11
298.40261099999998
 21
383.89463599999999
 31
0.0
  0
CIRCLE
  8
SIZE
  6
CONTINUOUS
 62
    30
 10
0.0
 20
383.89463599999999
 30
0.0
 40
6.0
  0
LINE
  8
SIZE
  6
CONTINUOUS
 62
    30
 10
0.0
 20
383.89463599999999
 30
0.0
 11
12.0
 21
383.89463599999999
 31
0.0
  0
CIRCLE
  8
SIZE
  6
CONTINUOUS
 62
    30
 10
110.231182
 20
383.89463599999999
 30
0.0
 40
6.0
  0
LINE
  8
SIZE
  6
CONTINUOUS
 62
    30
 10
110.231182
 20
383.89463599999999
 30
0.0
 11
98.23118199999999
 21
383.89463599999999
 31
0.0
  0
TEXT
  8
SIZE
  6
CONTINUOUS
 62
    30
 10
147.23118271428589
 20
408.89463599999999
 30
0.0
 40
64.0
  1
110
 41
0.9
 72
     1
 11
210.31689700000021
 21
408.89463599999999
 31
0.0
  0
POINT
  8
DEFPOINTS
  6
CONTINUOUS
 62
    30
 10
0.0
 20
212.474729
 30
0.0
  0
POINT
  8
DEFPOINTS
  6
CONTINUOUS
 62
    30
 10
110.231182
 20
188.6054389999999
 30
0.0
  0
POINT
  8
DEFPOINTS
  6
CONTINUOUS
 62
    30
 10
110.231182
 20
383.89463599999999
 30
0.0
  0
LINE
  8
SIZE
  6
CONTINUOUS
 62
    30
 10
-174.83333799999991
 20
169.72042999999991
 30
0.0
 11
-439.15395699999999
 21
169.72042999999991
 31
0.0
  0
LINE
  8
SIZE
  6
CONTINUOUS
 62
    30
 10
-174.83333799999991
 20
-174.2580640000001
 30
0.0
 11
-439.15395699999999
 21
-174.2580640000001
 31
0.0
  0
LINE
  8
SIZE
  6
CONTINUOUS
 62
    30
 10
-419.15395699999999
 20
155.72042999999991
 30
0.0
 11
-419.15395699999999
 21
-160.2580640000001
 31
0.0
  0
CIRCLE
  8
SIZE
  6
CONTINUOUS
 62
    30
 10
-419.15395699999999
 20
169.72042999999991
 30
0.0
 40
6.0
  0
LINE
  8
SIZE
  6
CONTINUOUS
 62
    30
 10
-419.15395699999999
 20
169.72042999999991
 30
0.0
 11
-419.15395699999999
 21
155.72042999999991
 31
0.0
  0
CIRCLE
  8
SIZE
  6
CONTINUOUS
 62
    30
 10
-419.15395699999999
 20
-174.2580640000001
 30
0.0
 40
6.0
  0
LINE
  8
SIZE
  6
CONTINUOUS
 62
    30
 10
-419.15395699999999
 20
-174.2580640000001
 30
0.0
 11
-419.15395699999999
 21
-160.2580640000001
 31
0.0
  0
TEXT
  8
SIZE
  6
CONTINUOUS
 62
    30
 10
-444.15395699999999
 20
-114.17738842857131
 30
0.0
 40
64.0
  1
□344
 50
90.0
 41
0.9
 72
     1
 11
-444.15395699999999
 21
-2.2688169999998991
 31
0.0
  0
POINT
  8
DEFPOINTS
  6
CONTINUOUS
 62
    30
 10
-154.83333799999991
 20
169.72042999999991
 30
0.0
  0
POINT
  8
DEFPOINTS
  6
CONTINUOUS
 62
    30
 10
-154.83333799999991
 20
-174.2580640000001
 30
0.0
  0
POINT
  8
DEFPOINTS
  6
CONTINUOUS
 62
    30
 10
-419.15395699999999
 20
-174.2580640000001
 30
0.0
  0
LINE
  8
NOTE
  6
CONTINUOUS
 62
     4
 10
-14.68222900000001
 20
190.0
 30
0.0
 11
12.550209999999881
 21
190.0
 31
0.0
  0
CIRCLE
  8
FIX
  6
CONTINUOUS
 62
    11
 10
0.0
 20
190.0
 30
0.0
 40
5.0
  0
LINE
  8
NOTE
  6
CONTINUOUS
 62
     4
 10
-14.68222900000001
 20
-190.0
 30
0.0
 11
12.550209999999881
 21
-190.0
 31
0.0
  0
CIRCLE
  8
FIX
  6
CONTINUOUS
 62
    11
 10
0.0
 20
-190.0
 30
0.0
 40
5.0
  0
LINE
  8
SIZE
  6
CONTINUOUS
 62
    30
 10
-34.682229000000007
 20
190.0
 30
0.0
 11
-559.15395699999999
 21
190.0
 31
0.0
  0
LINE
  8
SIZE
  6
CONTINUOUS
 62
    30
 10
-34.682229000000007
 20
-190.0
 30
0.0
 11
-559.15395699999999
 21
-190.0
 31
0.0
  0
LINE
  8
SIZE
  6
CONTINUOUS
 62
    30
 10
-539.15395699999999
 20
178.0
 30
0.0
 11
-539.15395699999999
 21
-178.0
 31
0.0
  0
CIRCLE
  8
SIZE
  6
CONTINUOUS
 62
    30
 10
-539.15395699999999
 20
190.0
 30
0.0
 40
6.0
  0
LINE
  8
SIZE
  6
CONTINUOUS
 62
    30
 10
-539.15395699999999
 20
190.0
 30
0.0
 11
-539.15395699999999
 21
178.0
 31
0.0
  0
CIRCLE
  8
SIZE
  6
CONTINUOUS
 62
    30
 10
-539.15395699999999
 20
-190.0
 30
0.0
 40
6.0
  0
LINE
  8
SIZE
  6
CONTINUOUS
 62
    30
 10
-539.15395699999999
 20
-190.0
 30
0.0
 11
-539.15395699999999
 21
-178.0
 31
0.0
  0
TEXT
  8
SIZE
  6
CONTINUOUS
 62
    30
 10
-564.15395699999999
 20
-76.325959857142735
 30
0.0
 40
64.0
  1
380
 50
90.0
 41
0.9
 72
     1
 11
-564.15395699999999
 21
-2.2688169999998991
 31
0.0
  0
POINT
  8
DEFPOINTS
  6
CONTINUOUS
 62
    30
 10
-14.68222900000001
 20
190.0
 30
0.0
  0
POINT
  8
DEFPOINTS
  6
CONTINUOUS
 62
    30
 10
-14.68222900000001
 20
-190.0
 30
0.0
  0
POINT
  8
DEFPOINTS
  6
CONTINUOUS
 62
    30
 10
-539.15395699999999
 20
-190.0
 30
0.0
  0
TEXT
  8
NOTE
  6
CONTINUOUS
 62
     4
 10
-354.18858084739168
 20
-297.88308819471382
 30
0.0
 40
64.0
  1
4-φ10
 41
0.9
  0
LINE
  8
NOTE
  6
CONTINUOUS
 62
     4
 10
-52.217007000000187
 20
-332.72970800000007
 30
0.0
 11
-380.02295700000008
 21
-332.72970800000007
 31
0.0
  0
LINE
  8
NOTE
  6
CONTINUOUS
 62
     4
 10
0.0
 20
-190.0
 30
0.0
 11
-52.217007000000187
 21
-332.72970800000007
 31
0.0
  0
LINE
  8
NOTE
  6
CONTINUOUS
 62
     4
 10
0.0
 20
-190.0
 30
0.0
 11
-9.771654000000126
 21
-200.17621200000011
 31
0.0
  0
LINE
  8
NOTE
  6
CONTINUOUS
 62
     4
 10
0.0
 20
-190.0
 30
0.0
 11
0.8977859999999964
 21
-204.079577
 31
0.0
  0
LINE
  8
DETAIL
  6
CONTINUOUS
 62
     5
 10
-149.1612919999998
 20
-121.3817240000001
 30
0.0
 11
-149.1612919999998
 21
121.38172399999981
 31
0.0
  0
LINE
  8
DETAIL
  6
CONTINUOUS
 62
     5
 10
-149.1612919999998
 20
-123.650535
 30
0.0
 11
-149.1612919999998
 21
119.11290099999999
 31
0.0
  0
LINE
  8
DETAIL
  6
CONTINUOUS
 62
     5
 10
-121.93548800000011
 20
-59.32125300000007
 30
0.0
 11
-121.93548800000011
 21
119.11290099999999
 31
0.0
  0
LINE
  8
DETAIL
  6
CONTINUOUS
 62
     5
 10
-124.2042999999999
 20
-61.225014000000101
 30
0.0
 11
-124.2042999999999
 21
119.11290099999999
 31
0.0
  0
LINE
  8
DETAIL
  6
CONTINUOUS
 62
     5
 10
-149.1612919999998
 20
-123.650535
 30
0.0
 11
-149.1612919999998
 21
119.11290099999999
 31
0.0
  0
LINE
  8
DETAIL
  6
CONTINUOUS
 62
     5
 10
-146.89248099999989
 20
-123.650535
 30
0.0
 11
-146.89248099999989
 21
119.11290099999999
 31
0.0
  0
LINE
  8
DETAIL
  6
CONTINUOUS
 62
     5
 10
-154.83333799999991
 20
169.72042999999991
 30
0.0
 11
-154.83333799999991
 21
-174.2580640000001
 31
0.0
  0
LINE
  8
DETAIL
  6
CONTINUOUS
 62
     5
 10
32.032248999999872
 20
175.83333200000021
 30
0.0
 11
32.032248999999872
 21
-175.8333319999999
 31
0.0
  0
LINE
  8
DETAIL
  6
CONTINUOUS
 62
     5
 10
0.0
 20
108.9032219999999
 30
0.0
 11
0.0
 21
-108.9032219999999
 31
0.0
  0
LINE
  8
DETAIL
  6
CONTINUOUS
 62
     5
 10
81.870966999999837
 20
164.48925300000019
 30
0.0
 11
81.870966999999837
 21
-164.48924099999999
 31
0.0
  0
ARC
  8
DETAIL
  6
CONTINUOUS
 62
     5
 10
-5561.8118189999996
 20
0.0000059999999849
 30
0.0
 40
5672.043001
 50
358.25721200000442
 51
1.742787999995584
  0
LINE
  8
DETAIL
  6
CONTINUOUS
 62
     5
 10
-154.83333799999991
 20
-174.2580640000001
 30
0.0
 11
0.0
 21
-174.2580640000001
 31
0.0
  0
LINE
  8
DETAIL
  6
CONTINUOUS
 62
     5
 10
0.0
 20
-108.9032219999999
 30
0.0
 11
0.0
 21
-211.00000399999999
 31
0.0
  0
ARC
  8
DETAIL
  6
CONTINUOUS
 62
     5
 10
73.59092899999996
 20
-171.46711400000001
 30
0.0
 40
34.032260999999998
 50
299.3427989999941
 51
358.25721200000442
  0
LINE
  8
DETAIL
  6
CONTINUOUS
 62
     5
 10
26.360215000000149
 20
-209.86559299999999
 30
0.0
 11
2.0419360000000779
 21
-209.86559299999999
 31
0.0
  0
LINE
  8
DETAIL
  6
CONTINUOUS
 62
     5
 10
29.763437999999951
 20
-209.86559299999999
 30
0.0
 11
29.763437999999951
 21
-175.8333319999999
 31
0.0
  0
LINE
  8
DETAIL
  6
CONTINUOUS
 62
     5
 10
47.913974000000053
 20
-209.86559299999999
 30
0.0
 11
29.763437999999951
 21
-209.86559299999999
 31
0.0
  0
ARC
  8
DETAIL
  6
CONTINUOUS
 62
     5
 10
48.045126999999873
 20
-103.42344899999991
 30
0.0
 40
106.44222499999999
 50
269.92940300000282
 51
293.37035700000092
  0
ARC
  8
DETAIL
  6
CONTINUOUS
 62
     5
 10
26.360215000000149
 20
-204.19354700000011
 30
0.0
 40
5.6720449999999998
 50
270.0
 51
306.86989799999537
  0
LINE
  8
DETAIL
  6
CONTINUOUS
 62
     5
 10
61.526875999999902
 20
-175.8333319999999
 30
0.0
 11
29.763437999999951
 21
-175.8333319999999
 31
0.0
  0
ARC
  8
DETAIL
  6
CONTINUOUS
 62
     5
 10
62.567030000000159
 20
-153.78447600000001
 30
0.0
 40
22.073377000000001
 50
267.29907600000212
 51
330.98996900000179
  0
LINE
  8
DETAIL
  6
CONTINUOUS
 62
     5
 10
0.9075240000001941
 20
-211.00000399999999
 30
0.0
 11
0.0
 21
-211.00000399999999
 31
0.0
  0
ARC
  8
DETAIL
  6
CONTINUOUS
 62
     5
 10
2.0419360000000779
 20
-211.00000399999999
 30
0.0
 40
1.1344110000000001
 50
90.0
 51
180.0
  0
ARC
  8
DETAIL
  6
CONTINUOUS
 62
     5
 10
-288.41348599999992
 20
33.631941999999981
 30
0.0
 40
342.35626000000002
 50
339.39043700000133
 51
355.05426999999889
  0
ARC
  8
DETAIL
  6
CONTINUOUS
 62
     5
 10
-161.5013049999998
 20
-173.5636079999999
 30
0.0
 40
218.616186
 50
12.13937700000689
 51
20.146224000003059
  0
ARC
  8
DETAIL
  6
CONTINUOUS
 62
     5
 10
-156.1474589999998
 20
-180.890298
 30
0.0
 40
212.33483799999999
 50
14.36215299999202
 51
25.83243499999119
  0
ARC
  8
DETAIL
  6
CONTINUOUS
 62
     5
 10
50.882845000000088
 20
-127.8797219999999
 30
0.0
 40
1.374377
 50
194.36215799999709
 51
12.13963299999789
  0
LINE
  8
DETAIL
  6
CONTINUOUS
 62
     5
 10
32.032248999999872
 20
-111.6323809999999
 30
0.0
 11
33.28009800000018
 21
-113.4408559999999
 31
0.0
  0
ARC
  8
DETAIL
  6
CONTINUOUS
 62
     5
 10
-1257.1348620000001
 20
-579.40518399999996
 30
0.0
 40
1387.5276710000001
 50
20.29724900000107
 51
21.268923999998751
  0
ARC
  8
DETAIL
  6
CONTINUOUS
 62
     5
 10
-484.73105799999979
 20
-350.49892499999987
 30
0.0
 40
582.06599500000004
 50
26.765961000009671
 51
27.203649000001271
  0
ARC
  8
DETAIL
  6
CONTINUOUS
 62
     5
 10
-26.874878000000081
 20
30.928593999999979
 30
0.0
 40
78.265224000000003
 50
318.82135800000191
 51
340.89151800000297
  0
ARC
  8
DETAIL
  6
CONTINUOUS
 62
     5
 10
49.798843999999917
 20
4.3649410000000444
 30
0.0
 40
2.879651
 50
355.05350499999622
 51
160.89153599999381
  0
ARC
  8
DETAIL
  6
CONTINUOUS
 62
     5
 10
-127.6075340000002
 20
-123.650535
 30
0.0
 40
3.4032230000000001
 50
270.0
 51
0.0
  0
ARC
  8
DETAIL
  6
CONTINUOUS
 62
     5
 10
-127.6075340000002
 20
-123.650535
 30
0.0
 40
5.6720449999999998
 50
270.0
 51
0.0
  0
LINE
  8
DETAIL
  6
CONTINUOUS
 62
     5
 10
-121.93548800000011
 20
-123.650535
 30
0.0
 11
-121.93548800000011
 21
-59.32125300000007
 31
0.0
  0
LINE
  8
DETAIL
  6
CONTINUOUS
 62
     5
 10
-124.2042999999999
 20
-123.650535
 30
0.0
 11
-124.2042999999999
 21
-61.225014000000101
 31
0.0
  0
ARC
  8
DETAIL
  6
CONTINUOUS
 62
     5
 10
-143.48924700000001
 20
-123.650535
 30
0.0
 40
3.4032230000000001
 50
180.0
 51
270.0
  0
ARC
  8
DETAIL
  6
CONTINUOUS
 62
     5
 10
-143.48924700000001
 20
-123.650535
 30
0.0
 40
5.6720449999999998
 50
180.0
 51
270.0
  0
LINE
  8
DETAIL
  6
CONTINUOUS
 62
     5
 10
-143.48924700000001
 20
-127.053758
 30
0.0
 11
-132.712368
 21
-127.053758
 31
0.0
  0
LINE
  8
DETAIL
  6
CONTINUOUS
 62
     5
 10
-143.48924700000001
 20
-129.3225809999999
 30
0.0
 11
-132.712368
 21
-129.3225809999999
 31
0.0
  0
LINE
  8
DETAIL
  6
CONTINUOUS
 62
     5
 10
-132.712368
 20
-127.053758
 30
0.0
 11
-127.6075340000002
 21
-127.053758
 31
0.0
  0
LINE
  8
DETAIL
  6
CONTINUOUS
 62
     5
 10
-132.712368
 20
-129.3225809999999
 30
0.0
 11
-127.6075340000002
 21
-129.3225809999999
 31
0.0
  0
LINE
  8
DETAIL
  6
CONTINUOUS
 62
     5
 10
-154.83333799999991
 20
169.72042999999991
 30
0.0
 11
0.0
 21
169.72042999999991
 31
0.0
  0
ARC
  8
DETAIL
  6
CONTINUOUS
 62
     5
 10
73.59092899999996
 20
171.46711400000001
 30
0.0
 40
34.032260999999998
 50
1.742787999995584
 51
60.657201000005912
  0
ARC
  8
DETAIL
  6
CONTINUOUS
 62
     5
 10
18.023424999999861
 20
118.935743
 30
0.0
 40
34.197980999999999
 50
9.792039000003486
 51
49.5623460000023
  0
LINE
  8
DETAIL
  6
CONTINUOUS
 62
     5
 10
0.0
 20
212.474729
 30
0.0
 11
0.0
 21
108.9032219999999
 31
0.0
  0
ARC
  8
DETAIL
  6
CONTINUOUS
 62
     5
 10
34.825811000000158
 20
120.6504799999998
 30
0.0
 40
17.386813
 50
313.89484000000982
 51
13.64309399999178
  0
ARC
  8
DETAIL
  6
CONTINUOUS
 62
     5
 10
68.210825000000114
 20
55.031038000000081
 30
0.0
 40
57.215902999999997
 50
111.88915399999961
 51
129.22124800000819
  0
LINE
  8
DETAIL
  6
CONTINUOUS
 62
     5
 10
32.032248999999872
 20
111.6323809999999
 30
0.0
 11
33.28009800000018
 21
113.4408560000002
 31
0.0
  0
LINE
  8
DETAIL
  6
CONTINUOUS
 62
     5
 10
26.360215000000149
 20
209.86559299999999
 30
0.0
 11
2.0419360000000779
 21
209.86559299999999
 31
0.0
  0
LINE
  8
DETAIL
  6
CONTINUOUS
 62
     5
 10
12.478490999999851
 20
212.474729
 30
0.0
 11
0.0
 21
212.474729
 31
0.0
  0
LINE
  8
DETAIL
  6
CONTINUOUS
 62
     5
 10
29.763437999999951
 20
175.83333200000021
 30
0.0
 11
29.763437999999951
 21
209.86559299999999
 31
0.0
  0
LINE
  8
DETAIL
  6
CONTINUOUS
 62
     5
 10
61.526875999999902
 20
175.83333200000021
 30
0.0
 11
29.763437999999951
 21
175.83333200000021
 31
0.0
  0
ARC
  8
DETAIL
  6
CONTINUOUS
 62
     5
 10
62.567030000000159
 20
153.78448800000021
 30
0.0
 40
22.073377000000001
 50
29.0100309999982
 51
92.700923999997855
  0
ARC
  8
DETAIL
  6
CONTINUOUS
 62
     5
 10
30.649598999999849
 20
129.09963400000021
 30
0.0
 40
18.519480000000001
 50
58.938959000004338
 51
85.718347000013225
  0
LINE
  8
DETAIL
  6
CONTINUOUS
 62
     5
 10
47.913974000000053
 20
209.86559299999999
 30
0.0
 11
29.763437999999951
 21
209.86559299999999
 31
0.0
  0
ARC
  8
DETAIL
  6
CONTINUOUS
 62
     5
 10
48.045126999999873
 20
103.42344899999991
 30
0.0
 40
106.44222499999999
 50
66.62964299999912
 51
90.070596999997193
  0
LINE
  8
DETAIL
  6
CONTINUOUS
 62
     5
 10
13.612901999999851
 20
219.7349479999998
 30
0.0
 11
13.612901999999851
 21
209.86559299999999
 31
0.0
  0
LINE
  8
DETAIL
  6
CONTINUOUS
 62
     5
 10
12.478490999999851
 20
219.7349479999998
 30
0.0
 11
12.478490999999851
 21
209.86559299999999
 31
0.0
  0
ARC
  8
DETAIL
  6
CONTINUOUS
 62
     5
 10
26.360215000000149
 20
204.19354699999991
 30
0.0
 40
5.6720449999999998
 50
53.130102000004577
 51
90.0
  0
LINE
  8
DETAIL
  6
CONTINUOUS
 62
     5
 10
12.478490999999851
 20
219.7349479999998
 30
0.0
 11
13.612901999999851
 21
219.7349479999998
 31
0.0
  0
LINE
  8
DETAIL
  6
CONTINUOUS
 62
     5
 10
-31.763449999999921
 20
173.35053999999991
 30
0.0
 11
-31.763449999999921
 21
169.72042999999991
 31
0.0
  0
LINE
  8
DETAIL
  6
CONTINUOUS
 62
     5
 10
-36.301084000000174
 20
173.35053999999991
 30
0.0
 11
-36.301084000000174
 21
169.72042999999991
 31
0.0
  0
LINE
  8
DETAIL
  6
CONTINUOUS
 62
     5
 10
-30.62903800000004
 20
173.35053999999991
 30
0.0
 11
-30.62903800000004
 21
169.72042999999991
 31
0.0
  0
LINE
  8
DETAIL
  6
CONTINUOUS
 62
     5
 10
-37.435483000000197
 20
173.35053999999991
 30
0.0
 11
-37.435483000000197
 21
169.72042999999991
 31
0.0
  0
LINE
  8
DETAIL
  6
CONTINUOUS
 62
     5
 10
-37.435483000000197
 20
173.35053999999991
 30
0.0
 11
-30.62903800000004
 21
173.35053999999991
 31
0.0
  0
LINE
  8
DETAIL
  6
CONTINUOUS
 62
     5
 10
0.9075240000001941
 20
211.00000399999999
 30
0.0
 11
0.0
 21
211.00000399999999
 31
0.0
  0
ARC
  8
DETAIL
  6
CONTINUOUS
 62
     5
 10
2.0419360000000779
 20
211.00000399999999
 30
0.0
 40
1.1344110000000001
 50
180.0
 51
270.0
  0
ARC
  8
DETAIL
  6
CONTINUOUS
 62
     5
 10
-127.6075340000002
 20
119.11290099999999
 30
0.0
 40
5.6720449999999998
 50
0.0
 51
90.0
  0
ARC
  8
DETAIL
  6
CONTINUOUS
 62
     5
 10
-127.6075340000002
 20
119.11290099999999
 30
0.0
 40
3.4032230000000001
 50
0.0
 51
90.0
  0
ARC
  8
DETAIL
  6
CONTINUOUS
 62
     5
 10
-143.48924700000001
 20
119.11290099999999
 30
0.0
 40
5.6720449999999998
 50
90.0
 51
180.0
  0
ARC
  8
DETAIL
  6
CONTINUOUS
 62
     5
 10
-143.48924700000001
 20
119.11290099999999
 30
0.0
 40
3.4032230000000001
 50
90.0
 51
180.0
  0
LINE
  8
DETAIL
  6
CONTINUOUS
 62
     5
 10
-143.48924700000001
 20
122.5161240000002
 30
0.0
 11
-132.712368
 21
122.5161240000002
 31
0.0
  0
LINE
  8
DETAIL
  6
CONTINUOUS
 62
     5
 10
-143.48924700000001
 20
124.7849470000001
 30
0.0
 11
-132.712368
 21
124.7849470000001
 31
0.0
  0
LINE
  8
DETAIL
  6
CONTINUOUS
 62
     5
 10
-132.712368
 20
124.7849470000001
 30
0.0
 11
-128.60688999999999
 21
124.7849470000001
 31
0.0
  0
LINE
  8
DETAIL
  6
CONTINUOUS
 62
     5
 10
-132.712368
 20
122.5161240000002
 30
0.0
 11
-128.60688999999999
 21
122.5161240000002
 31
0.0
  0
LINE
  8
DETAIL
  6
CONTINUOUS
 62
     5
 10
-128.60688999999999
 20
124.7849470000001
 30
0.0
 11
-127.6075340000002
 21
124.7849470000001
 31
0.0
  0
LINE
  8
DETAIL
  6
CONTINUOUS
 62
     5
 10
-128.60688999999999
 20
122.5161240000002
 30
0.0
 11
-127.6075340000002
 21
122.5161240000002
 31
0.0
  0
LINE
  8
DETAIL
  6
CONTINUOUS
 62
     5
 10
-154.83333799999991
 20
46.3003819999999
 30
0.0
 11
-237.24049099999999
 21
13.018510000000109
 31
0.0
  0
LINE
  8
DETAIL
  6
CONTINUOUS
 62
     5
 10
-154.83333799999991
 20
-63.389386000000059
 30
0.0
 11
-232.66722699999991
 21
-92.10884800000008
 31
0.0
  0
LINE
  8
DETAIL
  6
CONTINUOUS
 62
     5
 10
-154.83333799999991
 20
-56.871985000000002
 30
0.0
 11
-237.24050299999999
 21
-90.153857000000016
 31
0.0
  0
LINE
  8
DETAIL
  6
CONTINUOUS
 62
     5
 10
-236.2530670000001
 20
-92.279176000000007
 30
0.0
 11
-235.45413300000021
 21
-91.361691000000064
 31
0.0
  0
ARC
  8
DETAIL
  6
CONTINUOUS
 62
     5
 10
-236.7824049999999
 20
-91.233073000000104
 30
0.0
 40
1.172417
 50
112.99996399999731
 51
296.83984400000548
  0
LINE
  8
DETAIL
  6
CONTINUOUS
 62
     5
 10
-235.67571300000009
 20
-90.839719999999943
 30
0.0
 11
-236.1612989999999
 21
-89.695758999999953
 31
0.0
  0
ARC
  8
DETAIL
  6
CONTINUOUS
 62
     5
 10
-233.51726899999991
 20
-89.923512000000073
 30
0.0
 40
2.3448329999999999
 50
203.00000099999721
 51
244.0062499999926
  0
ARC
  8
DETAIL
  6
CONTINUOUS
 62
     5
 10
-233.51726899999991
 20
-89.923512000000073
 30
0.0
 40
2.3448329999999999
 50
244.0062499999926
 51
291.25467799999149
  0
LINE
  8
DETAIL
  6
CONTINUOUS
 62
     5
 10
-154.83333799999991
 20
39.782981000000063
 30
0.0
 11
-232.667203
 21
11.06351900000004
 31
0.0
  0
LINE
  8
DETAIL
  6
CONTINUOUS
 62
     5
 10
-236.20923099999979
 20
10.94351099999994
 30
0.0
 11
-235.45410899999979
 21
11.810676000000059
 31
0.0
  0
LINE
  8
DETAIL
  6
CONTINUOUS
 62
     5
 10
-235.67568900000009
 20
12.33264699999995
 30
0.0
 11
-236.1612749999999
 21
13.47660799999994
 31
0.0
  0
ARC
  8
DETAIL
  6
CONTINUOUS
 62
     5
 10
-233.517257
 20
13.24885500000005
 30
0.0
 40
2.3448329999999999
 50
203.00000099999721
 51
291.25467799999149
  0
ARC
  8
DETAIL
  6
CONTINUOUS
 62
     5
 10
-236.78239300000001
 20
11.93930599999999
 30
0.0
 40
1.172417
 50
112.99996399999731
 51
292.99992800000052
  0
LINE
  8
DETAIL
  6
CONTINUOUS
 62
     5
 10
-154.83333799999991
 20
149.4727849999999
 30
0.0
 11
-237.24049099999999
 21
116.19092499999989
 31
0.0
  0
LINE
  8
DETAIL
  6
CONTINUOUS
 62
     5
 10
-154.83333799999991
 20
142.95539599999981
 30
0.0
 11
-232.667203
 21
114.2359339999998
 31
0.0
  0
LINE
  8
DETAIL
  6
CONTINUOUS
 62
     5
 10
-236.20923099999979
 20
114.1159259999999
 30
0.0
 11
-235.45410899999979
 21
114.9830910000001
 31
0.0
  0
LINE
  8
DETAIL
  6
CONTINUOUS
 62
     5
 10
-235.67568900000009
 20
115.50506200000019
 30
0.0
 11
-236.1612749999999
 21
116.6490229999999
 31
0.0
  0
ARC
  8
DETAIL
  6
CONTINUOUS
 62
     5
 10
-233.517257
 20
116.42126999999979
 30
0.0
 40
2.3448329999999999
 50
203.00000099999721
 51
291.25467799999149
  0
ARC
  8
DETAIL
  6
CONTINUOUS
 62
     5
 10
-236.78239300000001
 20
115.11170899999981
 30
0.0
 40
1.172417
 50
112.99996399999731
 51
292.99992800000052
  0
LINE
  8
SIZE
  6
CONTINUOUS
 62
    30
 10
-154.83333799999991
 20
187.72042999999991
 30
0.0
 11
-154.83333799999991
 21
403.89463599999999
 31
0.0
  0
LINE
  8
SIZE
  6
CONTINUOUS
 62
    30
 10
-237.95481000000021
 20
135.11170899999979
 30
0.0
 11
-237.95481000000021
 21
403.89463599999999
 31
0.0
  0
LINE
  8
SIZE
  6
CONTINUOUS
 62
    30
 10
-166.83333799999991
 20
383.89463599999999
 30
0.0
 11
-225.95481000000021
 21
383.89463599999999
 31
0.0
  0
LINE
  8
SIZE
  6
CONTINUOUS
 62
    30
 10
-237.95481000000021
 20
383.89463599999999
 30
0.0
 11
-376.68840113741129
 21
383.89463599999999
 31
0.0
  0
CIRCLE
  8
SIZE
  6
CONTINUOUS
 62
    30
 10
-154.83333799999991
 20
383.89463599999999
 30
0.0
 40
6.0
  0
LINE
  8
SIZE
  6
CONTINUOUS
 62
    30
 10
-154.83333799999991
 20
383.89463599999999
 30
0.0
 11
-166.83333799999991
 21
383.89463599999999
 31
0.0
  0
CIRCLE
  8
SIZE
  6
CONTINUOUS
 62
    30
 10
-237.95481000000021
 20
383.89463599999999
 30
0.0
 40
6.0
  0
LINE
  8
SIZE
  6
CONTINUOUS
 62
    30
 10
-237.95481000000021
 20
383.89463599999999
 30
0.0
 11
-225.95481000000021
 21
383.89463599999999
 31
0.0
  0
TEXT
  8
SIZE
  6
CONTINUOUS
 62
    30
 10
-365.09734351214598
 20
408.89463599999999
 30
0.0
 40
64.0
  1
83
 41
0.9
 72
     1
 11
-318.46877208357449
 21
408.89463599999999
 31
0.0
  0
POINT
  8
DEFPOINTS
  6
CONTINUOUS
 62
    30
 10
-154.83333799999991
 20
169.72042999999991
 30
0.0
  0
POINT
  8
DEFPOINTS
  6
CONTINUOUS
 62
    30
 10
-237.95481000000021
 20
115.11170899999981
 30
0.0
  0
POINT
  8
DEFPOINTS
  6
CONTINUOUS
 62
    30
 10
-237.95481000000021
 20
383.89463599999999
 30
0.0
  0
ENDSEC
  0
EOF
